ISO-10303-21;
HEADER;
/* Generated by software containing ST-Developer
 * from STEP Tools, Inc. (www.steptools.com) 
 */

FILE_DESCRIPTION(
/* description */ ('Alibre Inc.'),
/* implementation_level */ '2;1');

FILE_NAME(
/* name */ 'export-27D44163-FD21-480B-8824-2A23E02BABB4',
/* time_stamp */ '2024-07-06T16:26:41+02:00',
/* author */ (''),
/* organization */ (''),
/* preprocessor_version */ 'ST-DEVELOPER v17',
/* originating_system */ 'Alibre',
/* authorisation */ '');

FILE_SCHEMA (('AUTOMOTIVE_DESIGN'));
ENDSEC;

DATA;
#10=STYLED_ITEM('NAME_0',(#18),#498);
#11=MECHANICAL_DESIGN_GEOMETRIC_PRESENTATION_REPRESENTATION('NAME_0',(#10),
#33);
#12=COLOUR_RGB('',0.686274509803922,0.686274509803922,0.686274509803922);
#13=FILL_AREA_STYLE_COLOUR('NAME_0',#12);
#14=FILL_AREA_STYLE('NAME_0',(#13));
#15=SURFACE_STYLE_FILL_AREA(#14);
#16=SURFACE_SIDE_STYLE('NAME_0',(#15));
#17=SURFACE_STYLE_USAGE(.POSITIVE.,#16);
#18=PRESENTATION_STYLE_ASSIGNMENT((#17));
#19=PRODUCT_DEFINITION_CONTEXT('part definition',#26,'design');
#20=SHAPE_DEFINITION_REPRESENTATION(#21,#499);
#21=PRODUCT_DEFINITION_SHAPE('PRODUCT_VERSION_ID',
'PRODUCT_VERSION_DESCR',#22);
#22=PRODUCT_DEFINITION('PRODUCT_VERSION_ID','PRODUCT_VERSION_DESCR',#23,
#19);
#23=PRODUCT_DEFINITION_FORMATION_WITH_SPECIFIED_SOURCE(
'PRODUCT_VERSION_ID','PRODUCT_VERSION_DESCR',#28,.MADE.);
#24=PRODUCT_RELATED_PRODUCT_CATEGORY('part','part',(#28));
#25=APPLICATION_PROTOCOL_DEFINITION('Draft International Standard',
'automotive_design',1994,#26);
#26=APPLICATION_CONTEXT('automotive_Design');
#27=PRODUCT_CONTEXT('3D Mechanical Parts',#26,'mechanical');
#28=PRODUCT('Slotted set screw DIN 916 M5x10 07850.050.010(High)',
'1375 M5x10 DIN 916 Steel Hexagon socket set screw with point','',(#27));
#29=(
LENGTH_UNIT()
NAMED_UNIT(*)
SI_UNIT(.MILLI.,.METRE.)
);
#30=(
NAMED_UNIT(*)
PLANE_ANGLE_UNIT()
SI_UNIT($,.RADIAN.)
);
#31=(
NAMED_UNIT(*)
SI_UNIT($,.STERADIAN.)
SOLID_ANGLE_UNIT()
);
#32=UNCERTAINTY_MEASURE_WITH_UNIT(LENGTH_MEASURE(1.E-6),#29,
'DISTANCE_ACCURACY_VALUE',
'Maximum model space distance between geometric entities at asserted c
onnectivities');
#33=(
GEOMETRIC_REPRESENTATION_CONTEXT(3)
GLOBAL_UNCERTAINTY_ASSIGNED_CONTEXT((#32))
GLOBAL_UNIT_ASSIGNED_CONTEXT((#31,#30,#29))
REPRESENTATION_CONTEXT('ID1','3D')
);
#34=CYLINDRICAL_SURFACE('',#308,2.5);
#35=VECTOR('',#447,1.);
#36=VECTOR('',#452,1.);
#37=VECTOR('',#457,1.);
#38=VECTOR('',#462,1.);
#39=VECTOR('',#464,1.);
#40=VECTOR('',#465,1.);
#41=VECTOR('',#466,1.);
#42=VECTOR('',#468,1.);
#43=VECTOR('',#469,1.);
#44=VECTOR('',#471,1.);
#45=VECTOR('',#472,1.);
#46=VECTOR('',#474,1.);
#47=VECTOR('',#475,1.);
#48=VECTOR('',#477,1.);
#49=VECTOR('',#478,1.);
#50=VECTOR('',#480,1.);
#51=VECTOR('',#486,1.);
#52=LINE('',#370,#35);
#53=LINE('',#374,#36);
#54=LINE('',#379,#37);
#55=LINE('',#385,#38);
#56=LINE('',#388,#39);
#57=LINE('',#390,#40);
#58=LINE('',#392,#41);
#59=LINE('',#394,#42);
#60=LINE('',#396,#43);
#61=LINE('',#398,#44);
#62=LINE('',#400,#45);
#63=LINE('',#402,#46);
#64=LINE('',#404,#47);
#65=LINE('',#406,#48);
#66=LINE('',#408,#49);
#67=LINE('',#410,#50);
#68=LINE('',#416,#51);
#69=PLANE('',#304);
#70=PLANE('',#313);
#71=PLANE('',#314);
#72=PLANE('',#315);
#73=PLANE('',#316);
#74=PLANE('',#317);
#75=PLANE('',#318);
#76=PLANE('',#319);
#77=B_SPLINE_CURVE_WITH_KNOTS('',3,(#326,#327,#328,#329),.UNSPECIFIED.,
 .F.,.U.,(4,4),(2.38076376805981E-7,0.00145797508308211),.UNSPECIFIED.);
#78=B_SPLINE_CURVE_WITH_KNOTS('',3,(#333,#334,#335,#336),.UNSPECIFIED.,
 .F.,.U.,(4,4),(2.38076376806151E-7,0.00145797508308211),.UNSPECIFIED.);
#79=B_SPLINE_CURVE_WITH_KNOTS('',3,(#340,#341,#342,#343,#344),
 .UNSPECIFIED.,.F.,.U.,(4,1,4),(0.0018183819826713,0.00255323016089327,
0.00328807833911524),.UNSPECIFIED.);
#80=B_SPLINE_CURVE_WITH_KNOTS('',3,(#348,#349,#350,#351),.UNSPECIFIED.,
 .F.,.U.,(4,4),(2.38076376806171E-7,0.00145797508308211),.UNSPECIFIED.);
#81=B_SPLINE_CURVE_WITH_KNOTS('',3,(#355,#356,#357,#358),.UNSPECIFIED.,
 .F.,.U.,(4,4),(2.38076376806152E-7,0.00145797508308211),.UNSPECIFIED.);
#82=B_SPLINE_CURVE_WITH_KNOTS('',3,(#361,#362,#363,#364,#365),
 .UNSPECIFIED.,.F.,.U.,(4,1,4),(0.0018183819826713,0.00255323016089327,
0.00328807833911524),.UNSPECIFIED.);
#83=VERTEX_POINT('',#324);
#84=VERTEX_POINT('',#325);
#85=VERTEX_POINT('',#332);
#86=VERTEX_POINT('',#339);
#87=VERTEX_POINT('',#347);
#88=VERTEX_POINT('',#354);
#89=VERTEX_POINT('',#368);
#90=VERTEX_POINT('',#371);
#91=VERTEX_POINT('',#375);
#92=VERTEX_POINT('',#377);
#93=VERTEX_POINT('',#380);
#94=VERTEX_POINT('',#382);
#95=VERTEX_POINT('',#383);
#96=VERTEX_POINT('',#386);
#97=VERTEX_POINT('',#389);
#98=VERTEX_POINT('',#391);
#99=VERTEX_POINT('',#395);
#100=VERTEX_POINT('',#399);
#101=VERTEX_POINT('',#403);
#102=VERTEX_POINT('',#407);
#103=VERTEX_POINT('',#413);
#104=VERTEX_POINT('',#414);
#105=VERTEX_POINT('',#417);
#106=CIRCLE('',#293,1.44337567297406);
#107=CIRCLE('',#295,1.44337567297406);
#108=CIRCLE('',#297,1.44337567297406);
#109=CIRCLE('',#299,1.44337567297406);
#110=CIRCLE('',#301,1.44337567297406);
#111=CIRCLE('',#303,1.44337567297406);
#112=CIRCLE('',#305,2.0095);
#113=CIRCLE('',#307,2.5);
#114=CIRCLE('',#309,2.5);
#115=CIRCLE('',#311,1.25);
#116=CIRCLE('',#320,1.5);
#117=EDGE_CURVE('',#83,#84,#106,.T.);
#118=EDGE_CURVE('',#83,#84,#77,.T.);
#119=EDGE_CURVE('',#84,#85,#107,.T.);
#120=EDGE_CURVE('',#84,#85,#78,.T.);
#121=EDGE_CURVE('',#85,#86,#108,.T.);
#122=EDGE_CURVE('',#85,#86,#79,.T.);
#123=EDGE_CURVE('',#86,#87,#109,.T.);
#124=EDGE_CURVE('',#86,#87,#80,.T.);
#125=EDGE_CURVE('',#87,#88,#110,.T.);
#126=EDGE_CURVE('',#87,#88,#81,.T.);
#127=EDGE_CURVE('',#88,#83,#111,.T.);
#128=EDGE_CURVE('',#88,#83,#82,.T.);
#129=EDGE_CURVE('',#89,#89,#112,.T.);
#130=EDGE_CURVE('',#90,#89,#52,.T.);
#131=EDGE_CURVE('',#90,#90,#113,.T.);
#132=EDGE_CURVE('',#91,#90,#53,.T.);
#133=EDGE_CURVE('',#92,#91,#114,.T.);
#134=EDGE_CURVE('',#91,#92,#114,.T.);
#135=EDGE_CURVE('',#92,#93,#54,.T.);
#136=EDGE_CURVE('',#94,#93,#115,.T.);
#137=EDGE_CURVE('',#95,#94,#115,.T.);
#138=EDGE_CURVE('',#93,#95,#115,.T.);
#139=EDGE_CURVE('',#95,#96,#55,.T.);
#140=EDGE_CURVE('',#97,#83,#56,.T.);
#141=EDGE_CURVE('',#97,#98,#57,.T.);
#142=EDGE_CURVE('',#98,#84,#58,.T.);
#143=EDGE_CURVE('',#98,#99,#59,.T.);
#144=EDGE_CURVE('',#99,#85,#60,.T.);
#145=EDGE_CURVE('',#99,#100,#61,.T.);
#146=EDGE_CURVE('',#100,#86,#62,.T.);
#147=EDGE_CURVE('',#100,#101,#63,.T.);
#148=EDGE_CURVE('',#101,#87,#64,.T.);
#149=EDGE_CURVE('',#101,#102,#65,.T.);
#150=EDGE_CURVE('',#102,#88,#66,.T.);
#151=EDGE_CURVE('',#102,#97,#67,.T.);
#152=EDGE_CURVE('',#103,#104,#116,.T.);
#153=EDGE_CURVE('',#104,#103,#116,.T.);
#154=EDGE_CURVE('',#104,#105,#68,.T.);
#155=ORIENTED_EDGE('',*,*,#117,.F.);
#156=ORIENTED_EDGE('',*,*,#118,.T.);
#157=ORIENTED_EDGE('',*,*,#119,.F.);
#158=ORIENTED_EDGE('',*,*,#120,.T.);
#159=ORIENTED_EDGE('',*,*,#121,.F.);
#160=ORIENTED_EDGE('',*,*,#122,.T.);
#161=ORIENTED_EDGE('',*,*,#123,.F.);
#162=ORIENTED_EDGE('',*,*,#124,.T.);
#163=ORIENTED_EDGE('',*,*,#125,.F.);
#164=ORIENTED_EDGE('',*,*,#126,.T.);
#165=ORIENTED_EDGE('',*,*,#127,.F.);
#166=ORIENTED_EDGE('',*,*,#128,.T.);
#167=ORIENTED_EDGE('',*,*,#129,.F.);
#168=ORIENTED_EDGE('',*,*,#127,.T.);
#169=ORIENTED_EDGE('',*,*,#117,.T.);
#170=ORIENTED_EDGE('',*,*,#119,.T.);
#171=ORIENTED_EDGE('',*,*,#121,.T.);
#172=ORIENTED_EDGE('',*,*,#123,.T.);
#173=ORIENTED_EDGE('',*,*,#125,.T.);
#174=ORIENTED_EDGE('',*,*,#130,.T.);
#175=ORIENTED_EDGE('',*,*,#129,.T.);
#176=ORIENTED_EDGE('',*,*,#130,.F.);
#177=ORIENTED_EDGE('',*,*,#131,.F.);
#178=ORIENTED_EDGE('',*,*,#132,.T.);
#179=ORIENTED_EDGE('',*,*,#131,.T.);
#180=ORIENTED_EDGE('',*,*,#132,.F.);
#181=ORIENTED_EDGE('',*,*,#133,.F.);
#182=ORIENTED_EDGE('',*,*,#134,.F.);
#183=ORIENTED_EDGE('',*,*,#135,.T.);
#184=ORIENTED_EDGE('',*,*,#136,.F.);
#185=ORIENTED_EDGE('',*,*,#137,.F.);
#186=ORIENTED_EDGE('',*,*,#138,.F.);
#187=ORIENTED_EDGE('',*,*,#135,.F.);
#188=ORIENTED_EDGE('',*,*,#133,.T.);
#189=ORIENTED_EDGE('',*,*,#134,.T.);
#190=ORIENTED_EDGE('',*,*,#139,.F.);
#191=ORIENTED_EDGE('',*,*,#137,.T.);
#192=ORIENTED_EDGE('',*,*,#136,.T.);
#193=ORIENTED_EDGE('',*,*,#138,.T.);
#194=ORIENTED_EDGE('',*,*,#139,.T.);
#195=ORIENTED_EDGE('',*,*,#140,.F.);
#196=ORIENTED_EDGE('',*,*,#141,.T.);
#197=ORIENTED_EDGE('',*,*,#142,.T.);
#198=ORIENTED_EDGE('',*,*,#118,.F.);
#199=ORIENTED_EDGE('',*,*,#142,.F.);
#200=ORIENTED_EDGE('',*,*,#143,.T.);
#201=ORIENTED_EDGE('',*,*,#144,.T.);
#202=ORIENTED_EDGE('',*,*,#120,.F.);
#203=ORIENTED_EDGE('',*,*,#144,.F.);
#204=ORIENTED_EDGE('',*,*,#145,.T.);
#205=ORIENTED_EDGE('',*,*,#146,.T.);
#206=ORIENTED_EDGE('',*,*,#122,.F.);
#207=ORIENTED_EDGE('',*,*,#146,.F.);
#208=ORIENTED_EDGE('',*,*,#147,.T.);
#209=ORIENTED_EDGE('',*,*,#148,.T.);
#210=ORIENTED_EDGE('',*,*,#124,.F.);
#211=ORIENTED_EDGE('',*,*,#148,.F.);
#212=ORIENTED_EDGE('',*,*,#149,.T.);
#213=ORIENTED_EDGE('',*,*,#150,.T.);
#214=ORIENTED_EDGE('',*,*,#126,.F.);
#215=ORIENTED_EDGE('',*,*,#150,.F.);
#216=ORIENTED_EDGE('',*,*,#151,.T.);
#217=ORIENTED_EDGE('',*,*,#140,.T.);
#218=ORIENTED_EDGE('',*,*,#128,.F.);
#219=ORIENTED_EDGE('',*,*,#152,.T.);
#220=ORIENTED_EDGE('',*,*,#153,.T.);
#221=ORIENTED_EDGE('',*,*,#141,.F.);
#222=ORIENTED_EDGE('',*,*,#151,.F.);
#223=ORIENTED_EDGE('',*,*,#149,.F.);
#224=ORIENTED_EDGE('',*,*,#147,.F.);
#225=ORIENTED_EDGE('',*,*,#145,.F.);
#226=ORIENTED_EDGE('',*,*,#143,.F.);
#227=ORIENTED_EDGE('',*,*,#154,.F.);
#228=ORIENTED_EDGE('',*,*,#152,.F.);
#229=ORIENTED_EDGE('',*,*,#153,.F.);
#230=ORIENTED_EDGE('',*,*,#154,.T.);
#231=EDGE_LOOP('',(#155,#156));
#232=EDGE_LOOP('',(#157,#158));
#233=EDGE_LOOP('',(#159,#160));
#234=EDGE_LOOP('',(#161,#162));
#235=EDGE_LOOP('',(#163,#164));
#236=EDGE_LOOP('',(#165,#166));
#237=EDGE_LOOP('',(#167));
#238=EDGE_LOOP('',(#168,#169,#170,#171,#172,#173));
#239=EDGE_LOOP('',(#174,#175,#176,#177));
#240=EDGE_LOOP('',(#178,#179,#180,#181,#182));
#241=EDGE_LOOP('',(#183,#184,#185,#186,#187,#188,#189));
#242=EDGE_LOOP('',(#190,#191,#192,#193,#194));
#243=EDGE_LOOP('',(#195,#196,#197,#198));
#244=EDGE_LOOP('',(#199,#200,#201,#202));
#245=EDGE_LOOP('',(#203,#204,#205,#206));
#246=EDGE_LOOP('',(#207,#208,#209,#210));
#247=EDGE_LOOP('',(#211,#212,#213,#214));
#248=EDGE_LOOP('',(#215,#216,#217,#218));
#249=EDGE_LOOP('',(#219,#220));
#250=EDGE_LOOP('',(#221,#222,#223,#224,#225,#226));
#251=EDGE_LOOP('',(#227,#228,#229,#230));
#252=FACE_BOUND('',#231,.T.);
#253=FACE_BOUND('',#232,.T.);
#254=FACE_BOUND('',#233,.T.);
#255=FACE_BOUND('',#234,.T.);
#256=FACE_BOUND('',#235,.T.);
#257=FACE_BOUND('',#236,.T.);
#258=FACE_BOUND('',#237,.T.);
#259=FACE_BOUND('',#238,.T.);
#260=FACE_BOUND('',#239,.T.);
#261=FACE_BOUND('',#240,.T.);
#262=FACE_BOUND('',#241,.T.);
#263=FACE_BOUND('',#242,.T.);
#264=FACE_BOUND('',#243,.T.);
#265=FACE_BOUND('',#244,.T.);
#266=FACE_BOUND('',#245,.T.);
#267=FACE_BOUND('',#246,.T.);
#268=FACE_BOUND('',#247,.T.);
#269=FACE_BOUND('',#248,.T.);
#270=FACE_BOUND('',#249,.T.);
#271=FACE_BOUND('',#250,.T.);
#272=FACE_BOUND('',#251,.T.);
#273=ADVANCED_FACE('',(#252),#487,.F.);
#274=ADVANCED_FACE('',(#253),#488,.F.);
#275=ADVANCED_FACE('',(#254),#489,.F.);
#276=ADVANCED_FACE('',(#255),#490,.F.);
#277=ADVANCED_FACE('',(#256),#491,.F.);
#278=ADVANCED_FACE('',(#257),#492,.F.);
#279=ADVANCED_FACE('',(#258,#259),#69,.F.);
#280=ADVANCED_FACE('',(#260),#493,.T.);
#281=ADVANCED_FACE('',(#261),#34,.T.);
#282=ADVANCED_FACE('',(#262),#494,.T.);
#283=ADVANCED_FACE('',(#263),#495,.F.);
#284=ADVANCED_FACE('',(#264),#70,.T.);
#285=ADVANCED_FACE('',(#265),#71,.T.);
#286=ADVANCED_FACE('',(#266),#72,.T.);
#287=ADVANCED_FACE('',(#267),#73,.T.);
#288=ADVANCED_FACE('',(#268),#74,.T.);
#289=ADVANCED_FACE('',(#269),#75,.T.);
#290=ADVANCED_FACE('',(#270,#271),#76,.T.);
#291=ADVANCED_FACE('',(#272),#496,.F.);
#292=AXIS2_PLACEMENT_3D('',#322,#418,#419);
#293=AXIS2_PLACEMENT_3D('',#323,#420,#421);
#294=AXIS2_PLACEMENT_3D('',#330,#422,#423);
#295=AXIS2_PLACEMENT_3D('',#331,#424,#425);
#296=AXIS2_PLACEMENT_3D('',#337,#426,#427);
#297=AXIS2_PLACEMENT_3D('',#338,#428,#429);
#298=AXIS2_PLACEMENT_3D('',#345,#430,#431);
#299=AXIS2_PLACEMENT_3D('',#346,#432,#433);
#300=AXIS2_PLACEMENT_3D('',#352,#434,#435);
#301=AXIS2_PLACEMENT_3D('',#353,#436,#437);
#302=AXIS2_PLACEMENT_3D('',#359,#438,#439);
#303=AXIS2_PLACEMENT_3D('',#360,#440,#441);
#304=AXIS2_PLACEMENT_3D('',#366,#442,$);
#305=AXIS2_PLACEMENT_3D('',#367,#443,#444);
#306=AXIS2_PLACEMENT_3D('',#369,#445,#446);
#307=AXIS2_PLACEMENT_3D('',#372,#448,#449);
#308=AXIS2_PLACEMENT_3D('',#373,#450,#451);
#309=AXIS2_PLACEMENT_3D('',#376,#453,#454);
#310=AXIS2_PLACEMENT_3D('',#378,#455,#456);
#311=AXIS2_PLACEMENT_3D('',#381,#458,#459);
#312=AXIS2_PLACEMENT_3D('',#384,#460,#461);
#313=AXIS2_PLACEMENT_3D('',#387,#463,$);
#314=AXIS2_PLACEMENT_3D('',#393,#467,$);
#315=AXIS2_PLACEMENT_3D('',#397,#470,$);
#316=AXIS2_PLACEMENT_3D('',#401,#473,$);
#317=AXIS2_PLACEMENT_3D('',#405,#476,$);
#318=AXIS2_PLACEMENT_3D('',#409,#479,$);
#319=AXIS2_PLACEMENT_3D('',#411,#481,$);
#320=AXIS2_PLACEMENT_3D('',#412,#482,#483);
#321=AXIS2_PLACEMENT_3D('',#415,#484,#485);
#322=CARTESIAN_POINT('',(0.,0.,0.));
#323=CARTESIAN_POINT('',(0.,0.,0.));
#324=CARTESIAN_POINT('',(1.44772810128924E-12,1.24999999999999,0.721687836486825));
#325=CARTESIAN_POINT('',(1.44795286871613E-12,7.16606470756125E-14,1.4433756729739));
#326=CARTESIAN_POINT('',(2.7803120569643E-12,1.25000000000035,0.721687836486832));
#327=CARTESIAN_POINT('',(0.136066883160422,0.84179935052759,0.957362591343308));
#328=CARTESIAN_POINT('',(0.136236267821635,0.408708803460354,1.20740753527606));
#329=CARTESIAN_POINT('',(1.41601340315958E-12,-2.03015341403029E-13,1.44337567297418));
#330=CARTESIAN_POINT('',(0.,0.,0.));
#331=CARTESIAN_POINT('',(0.,0.,0.));
#332=CARTESIAN_POINT('',(7.08100245105925E-13,-1.25000000000001,0.721687836486922));
#333=CARTESIAN_POINT('',(2.78028408150919E-12,3.46336635554254E-13,1.44337567297426));
#334=CARTESIAN_POINT('',(0.136066883160422,-0.40820064947241,1.20770091811779));
#335=CARTESIAN_POINT('',(0.136236267821635,-0.841291196539647,0.957655974185037));
#336=CARTESIAN_POINT('',(1.41601902333486E-12,-1.2500000000002,0.721687836486915));
#337=CARTESIAN_POINT('',(0.,0.,0.));
#338=CARTESIAN_POINT('',(0.,0.,0.));
#339=CARTESIAN_POINT('',(1.44817491332105E-12,-1.24999999999999,-0.721687836486825));
#340=CARTESIAN_POINT('',(1.71730168146437E-17,-1.25,0.721687836487032));
#341=CARTESIAN_POINT('',(0.0677608299987835,-1.25,0.486957435845171));
#342=CARTESIAN_POINT('',(0.155474103519471,-1.25,-0.00349447753964614));
#343=CARTESIAN_POINT('',(0.0678704283218825,-1.25,-0.486577776117134));
#344=CARTESIAN_POINT('',(7.12815386203513E-15,-1.25,-0.721687836487033));
#345=CARTESIAN_POINT('',(0.,0.,0.));
#346=CARTESIAN_POINT('',(0.,0.,0.));
#347=CARTESIAN_POINT('',(1.44795286871613E-12,-7.15379412423905E-14,-1.4433756729739));
#348=CARTESIAN_POINT('',(2.78042636463956E-12,-1.25000000000035,-0.721687836486832));
#349=CARTESIAN_POINT('',(0.136066883160422,-0.84179935052759,-0.957362591343308));
#350=CARTESIAN_POINT('',(0.136236267821635,-0.408708803460353,-1.20740753527606));
#351=CARTESIAN_POINT('',(1.41592285604063E-12,2.03257283873984E-13,-1.44337567297418));
#352=CARTESIAN_POINT('',(0.,0.,0.));
#353=CARTESIAN_POINT('',(0.,0.,0.));
#354=CARTESIAN_POINT('',(7.08097522283957E-13,1.25000000000001,-0.721687836486922));
#355=CARTESIAN_POINT('',(2.78028523770089E-12,-3.46333166358765E-13,-1.44337567297426));
#356=CARTESIAN_POINT('',(0.136066883160422,0.40820064947241,-1.20770091811779));
#357=CARTESIAN_POINT('',(0.136236267821635,0.841291196539647,-0.957655974185037));
#358=CARTESIAN_POINT('',(1.41601902333486E-12,1.2500000000002,-0.721687836486915));
#359=CARTESIAN_POINT('',(0.,0.,0.));
#360=CARTESIAN_POINT('',(0.,0.,0.));
#361=CARTESIAN_POINT('',(1.71730168146437E-17,1.25,-0.721687836487032));
#362=CARTESIAN_POINT('',(0.0677608299987835,1.25,-0.486957435845171));
#363=CARTESIAN_POINT('',(0.155474103519471,1.25,0.00349447753964614));
#364=CARTESIAN_POINT('',(0.0678704283218825,1.25,0.486577776117134));
#365=CARTESIAN_POINT('',(7.12815386203513E-15,1.25,0.721687836487033));
#366=CARTESIAN_POINT('',(2.23099316798425E-17,4.95379996575507E-34,0.));
#367=CARTESIAN_POINT('',(0.,0.,0.));
#368=CARTESIAN_POINT('',(1.77424741565346E-16,2.0095,-2.03088730867606E-15));
#369=CARTESIAN_POINT('',(0.,0.,0.));
#370=CARTESIAN_POINT('',(0.44145,2.45095,0.));
#371=CARTESIAN_POINT('',(0.4905,2.5,-2.52660774903715E-15));
#372=CARTESIAN_POINT('',(0.490500000000001,1.08912878715728E-17,0.));
#373=CARTESIAN_POINT('',(10.,2.22044604925031E-16,0.));
#374=CARTESIAN_POINT('',(-0.759499999999999,2.5,0.));
#375=CARTESIAN_POINT('',(8.75,2.5,-1.53080849893419E-16));
#376=CARTESIAN_POINT('',(8.75,1.94289029309402E-16,0.));
#377=CARTESIAN_POINT('',(8.75,-2.5,1.53080849893419E-16));
#378=CARTESIAN_POINT('',(8.75,1.94289029309402E-16,0.));
#379=CARTESIAN_POINT('',(10.125,-1.125,0.));
#380=CARTESIAN_POINT('',(10.,-1.25,6.69922149732643E-16));
#381=CARTESIAN_POINT('',(10.,2.22044604925031E-16,0.));
#382=CARTESIAN_POINT('',(10.,1.25,3.15825968629643E-16));
#383=CARTESIAN_POINT('',(10.,2.22044604925031E-16,-1.25));
#384=CARTESIAN_POINT('',(10.,0.,0.));
#385=CARTESIAN_POINT('',(9.27831216351297,0.,0.));
#386=CARTESIAN_POINT('',(9.27831216351297,0.,0.));
#387=CARTESIAN_POINT('',(3.,1.25,0.721687836487032));
#388=CARTESIAN_POINT('',(3.,1.25,0.721687836487032));
#389=CARTESIAN_POINT('',(3.,1.25,0.721687836487032));
#390=CARTESIAN_POINT('',(3.,1.25,0.721687836487032));
#391=CARTESIAN_POINT('',(3.,1.11022302462516E-15,1.44337567297406));
#392=CARTESIAN_POINT('',(3.,2.22044604925031E-16,1.44337567297406));
#393=CARTESIAN_POINT('',(3.,2.22044604925031E-16,1.44337567297406));
#394=CARTESIAN_POINT('',(3.,2.22044604925031E-16,1.44337567297406));
#395=CARTESIAN_POINT('',(3.,-1.25,0.72168783648703));
#396=CARTESIAN_POINT('',(3.,-1.25,0.721687836487032));
#397=CARTESIAN_POINT('',(3.,-1.25,0.721687836487032));
#398=CARTESIAN_POINT('',(3.,-1.25,0.721687836487032));
#399=CARTESIAN_POINT('',(3.,-1.25,-0.721687836487032));
#400=CARTESIAN_POINT('',(3.,-1.25,-0.721687836487032));
#401=CARTESIAN_POINT('',(3.,-1.25,-0.721687836487032));
#402=CARTESIAN_POINT('',(3.,-1.25,-0.721687836487032));
#403=CARTESIAN_POINT('',(3.,-1.10762120719723E-15,-1.44337567297406));
#404=CARTESIAN_POINT('',(3.,-2.16840970069176E-16,-1.44337567297406));
#405=CARTESIAN_POINT('',(3.,-2.22044604925031E-16,-1.44337567297406));
#406=CARTESIAN_POINT('',(3.,-2.16840970069176E-16,-1.44337567297406));
#407=CARTESIAN_POINT('',(3.,1.25,-0.72168783648703));
#408=CARTESIAN_POINT('',(3.,1.25,-0.721687836487032));
#409=CARTESIAN_POINT('',(3.,1.25,-0.721687836487032));
#410=CARTESIAN_POINT('',(3.,1.25,-0.721687836487032));
#411=CARTESIAN_POINT('',(3.,0.,0.));
#412=CARTESIAN_POINT('',(3.,0.,0.));
#413=CARTESIAN_POINT('',(3.,-9.18485099360515E-17,-1.5));
#414=CARTESIAN_POINT('',(3.,9.18485099360515E-17,1.5));
#415=CARTESIAN_POINT('',(3.,0.,0.));
#416=CARTESIAN_POINT('',(3.86602540378443,0.,0.));
#417=CARTESIAN_POINT('',(3.86602540378443,0.,0.));
#418=DIRECTION('',(-1.,0.,0.));
#419=DIRECTION('',(0.,0.,1.44337567297406));
#420=DIRECTION('',(1.,0.,0.));
#421=DIRECTION('',(0.,0.,-1.44337567297406));
#422=DIRECTION('',(-1.,0.,0.));
#423=DIRECTION('',(0.,0.,1.44337567297406));
#424=DIRECTION('',(1.,0.,0.));
#425=DIRECTION('',(0.,0.,-1.44337567297406));
#426=DIRECTION('',(-1.,0.,0.));
#427=DIRECTION('',(0.,0.,1.44337567297406));
#428=DIRECTION('',(1.,0.,0.));
#429=DIRECTION('',(0.,0.,-1.44337567297406));
#430=DIRECTION('',(-1.,0.,0.));
#431=DIRECTION('',(0.,0.,1.44337567297406));
#432=DIRECTION('',(1.,0.,0.));
#433=DIRECTION('',(0.,0.,-1.44337567297406));
#434=DIRECTION('',(-1.,0.,0.));
#435=DIRECTION('',(0.,0.,1.44337567297406));
#436=DIRECTION('',(1.,0.,0.));
#437=DIRECTION('',(0.,0.,-1.44337567297406));
#438=DIRECTION('',(-1.,0.,0.));
#439=DIRECTION('',(0.,0.,1.44337567297406));
#440=DIRECTION('',(1.,0.,0.));
#441=DIRECTION('',(0.,0.,-1.44337567297406));
#442=DIRECTION('',(1.,2.22044604925031E-17,0.));
#443=DIRECTION('',(1.,2.22044604925031E-17,0.));
#444=DIRECTION('',(-4.4619863359685E-17,2.0095,0.));
#445=DIRECTION('',(1.,2.22044604925031E-17,0.));
#446=DIRECTION('',(-4.4619863359685E-17,2.0095,0.));
#447=DIRECTION('',(-0.707106781186547,-0.707106781186548,0.));
#448=DIRECTION('',(1.,2.22044604925031E-17,0.));
#449=DIRECTION('',(-5.55111512312578E-17,2.5,0.));
#450=DIRECTION('',(1.,2.22044604925031E-17,0.));
#451=DIRECTION('',(-5.55111512312578E-17,2.5,0.));
#452=DIRECTION('',(-1.,-2.22044604925031E-17,0.));
#453=DIRECTION('',(1.,2.22044604925031E-17,0.));
#454=DIRECTION('',(-5.55111512312578E-17,2.5,0.));
#455=DIRECTION('',(-1.,-2.22044604925031E-17,0.));
#456=DIRECTION('',(5.55111512312578E-17,-2.5,0.));
#457=DIRECTION('',(0.707106781186547,0.707106781186548,0.));
#458=DIRECTION('',(1.,2.22044604925031E-17,0.));
#459=DIRECTION('',(-2.77555756156289E-17,1.25,0.));
#460=DIRECTION('',(1.,0.,0.));
#461=DIRECTION('',(0.,0.,-1.25));
#462=DIRECTION('',(-0.499999999999998,0.,0.86602540378444));
#463=DIRECTION('',(0.,-0.5,-0.866025403784438));
#464=DIRECTION('',(-1.,0.,0.));
#465=DIRECTION('',(0.,-0.86602540378444,0.499999999999998));
#466=DIRECTION('',(-1.,0.,0.));
#467=DIRECTION('',(0.,0.5,-0.866025403784439));
#468=DIRECTION('',(0.,-0.86602540378444,-0.499999999999998));
#469=DIRECTION('',(-1.,0.,0.));
#470=DIRECTION('',(0.,1.,0.));
#471=DIRECTION('',(0.,0.,-1.));
#472=DIRECTION('',(-1.,0.,0.));
#473=DIRECTION('',(0.,0.5,0.866025403784438));
#474=DIRECTION('',(0.,0.86602540378444,-0.499999999999998));
#475=DIRECTION('',(-1.,1.78524024992972E-22,0.));
#476=DIRECTION('',(0.,-0.5,0.866025403784439));
#477=DIRECTION('',(0.,0.86602540378444,0.499999999999998));
#478=DIRECTION('',(-1.,0.,0.));
#479=DIRECTION('',(0.,-1.,0.));
#480=DIRECTION('',(0.,0.,1.));
#481=DIRECTION('',(1.,0.,0.));
#482=DIRECTION('',(1.,0.,0.));
#483=DIRECTION('',(0.,0.,-1.5));
#484=DIRECTION('',(-1.,0.,0.));
#485=DIRECTION('',(0.,0.,1.5));
#486=DIRECTION('',(0.499999999999998,0.,-0.86602540378444));
#487=CONICAL_SURFACE('',#292,1.44337567297406,1.0471975511966);
#488=CONICAL_SURFACE('',#294,1.44337567297406,1.0471975511966);
#489=CONICAL_SURFACE('',#296,1.44337567297406,1.0471975511966);
#490=CONICAL_SURFACE('',#298,1.44337567297406,1.0471975511966);
#491=CONICAL_SURFACE('',#300,1.44337567297406,1.0471975511966);
#492=CONICAL_SURFACE('',#302,1.44337567297406,1.0471975511966);
#493=CONICAL_SURFACE('',#306,2.0095,0.785398163397449);
#494=CONICAL_SURFACE('',#310,2.5,0.785398163397449);
#495=CONICAL_SURFACE('',#312,1.25,1.0471975511966);
#496=CONICAL_SURFACE('',#321,1.5,1.0471975511966);
#497=CLOSED_SHELL('',(#273,#274,#275,#276,#277,#278,#279,#280,#281,#282,
#283,#284,#285,#286,#287,#288,#289,#290,#291));
#498=MANIFOLD_SOLID_BREP('',#497);
#499=ADVANCED_BREP_SHAPE_REPRESENTATION('',(#498),#33);
ENDSEC;
END-ISO-10303-21;
