ISO-10303-21;
HEADER;
/* Generated by software containing ST-Developer
 * from STEP Tools, Inc. (www.steptools.com) 
 */

FILE_DESCRIPTION(
/* description */ ('Alibre Inc.'),
/* implementation_level */ '2;1');

FILE_NAME(
/* name */ 'export-9B8EC1BC-2791-4D2A-B87A-9B1C56C308DA',
/* time_stamp */ '2024-07-06T15:56:14+02:00',
/* author */ (''),
/* organization */ (''),
/* preprocessor_version */ 'ST-DEVELOPER v17',
/* originating_system */ 'Alibre',
/* authorisation */ '');

FILE_SCHEMA (('AUTOMOTIVE_DESIGN'));
ENDSEC;

DATA;
#10=STYLED_ITEM('NAME_0',(#18),#518);
#11=MECHANICAL_DESIGN_GEOMETRIC_PRESENTATION_REPRESENTATION('NAME_0',(#10),
#33);
#12=COLOUR_RGB('',0.686274509803922,0.686274509803922,0.686274509803922);
#13=FILL_AREA_STYLE_COLOUR('NAME_0',#12);
#14=FILL_AREA_STYLE('NAME_0',(#13));
#15=SURFACE_STYLE_FILL_AREA(#14);
#16=SURFACE_SIDE_STYLE('NAME_0',(#15));
#17=SURFACE_STYLE_USAGE(.POSITIVE.,#16);
#18=PRESENTATION_STYLE_ASSIGNMENT((#17));
#19=PRODUCT_DEFINITION_CONTEXT('part definition',#26,'design');
#20=SHAPE_DEFINITION_REPRESENTATION(#21,#519);
#21=PRODUCT_DEFINITION_SHAPE('PRODUCT_VERSION_ID',
'PRODUCT_VERSION_DESCR',#22);
#22=PRODUCT_DEFINITION('PRODUCT_VERSION_ID','PRODUCT_VERSION_DESCR',#23,
#19);
#23=PRODUCT_DEFINITION_FORMATION_WITH_SPECIFIED_SOURCE(
'PRODUCT_VERSION_ID','PRODUCT_VERSION_DESCR',#28,.MADE.);
#24=PRODUCT_RELATED_PRODUCT_CATEGORY('part','part',(#28));
#25=APPLICATION_PROTOCOL_DEFINITION('Draft International Standard',
'automotive_design',1994,#26);
#26=APPLICATION_CONTEXT('automotive_Design');
#27=PRODUCT_CONTEXT('3D Mechanical Parts',#26,'mechanical');
#28=PRODUCT('Slotted set screw DIN 916 M5x12 07850.050.012(High)',
'1376 M5x12 DIN 916 Steel Hexagon socket set screw with point','',(#27));
#29=(
LENGTH_UNIT()
NAMED_UNIT(*)
SI_UNIT(.MILLI.,.METRE.)
);
#30=(
NAMED_UNIT(*)
PLANE_ANGLE_UNIT()
SI_UNIT($,.RADIAN.)
);
#31=(
NAMED_UNIT(*)
SI_UNIT($,.STERADIAN.)
SOLID_ANGLE_UNIT()
);
#32=UNCERTAINTY_MEASURE_WITH_UNIT(LENGTH_MEASURE(1.E-6),#29,
'DISTANCE_ACCURACY_VALUE',
'Maximum model space distance between geometric entities at asserted c
onnectivities');
#33=(
GEOMETRIC_REPRESENTATION_CONTEXT(3)
GLOBAL_UNCERTAINTY_ASSIGNED_CONTEXT((#32))
GLOBAL_UNIT_ASSIGNED_CONTEXT((#31,#30,#29))
REPRESENTATION_CONTEXT('ID1','3D')
);
#34=CYLINDRICAL_SURFACE('',#320,2.5);
#35=PLANE('',#316);
#36=PLANE('',#325);
#37=PLANE('',#326);
#38=PLANE('',#327);
#39=PLANE('',#328);
#40=PLANE('',#329);
#41=PLANE('',#330);
#42=PLANE('',#331);
#43=VECTOR('',#444,1.);
#44=VECTOR('',#464,1.);
#45=VECTOR('',#469,1.);
#46=VECTOR('',#474,1.);
#47=VECTOR('',#479,1.);
#48=VECTOR('',#481,1.);
#49=VECTOR('',#482,1.);
#50=VECTOR('',#483,1.);
#51=VECTOR('',#485,1.);
#52=VECTOR('',#486,1.);
#53=VECTOR('',#488,1.);
#54=VECTOR('',#489,1.);
#55=VECTOR('',#491,1.);
#56=VECTOR('',#492,1.);
#57=VECTOR('',#494,1.);
#58=VECTOR('',#495,1.);
#59=VECTOR('',#497,1.);
#60=VECTOR('',#503,1.);
#61=LINE('',#351,#43);
#62=LINE('',#386,#44);
#63=LINE('',#390,#45);
#64=LINE('',#395,#46);
#65=LINE('',#400,#47);
#66=LINE('',#403,#48);
#67=LINE('',#405,#49);
#68=LINE('',#407,#50);
#69=LINE('',#409,#51);
#70=LINE('',#411,#52);
#71=LINE('',#413,#53);
#72=LINE('',#415,#54);
#73=LINE('',#417,#55);
#74=LINE('',#419,#56);
#75=LINE('',#421,#57);
#76=LINE('',#423,#58);
#77=LINE('',#425,#59);
#78=LINE('',#431,#60);
#79=B_SPLINE_CURVE_WITH_KNOTS('',3,(#339,#340,#341,#342),.UNSPECIFIED.,
 .F.,.U.,(4,4),(2.38076376805439E-7,0.00145797508308211),.UNSPECIFIED.);
#80=B_SPLINE_CURVE_WITH_KNOTS('',3,(#346,#347,#348,#349),.UNSPECIFIED.,
 .F.,.U.,(4,4),(2.38076376806151E-7,0.00145797508308211),.UNSPECIFIED.);
#81=B_SPLINE_CURVE_WITH_KNOTS('',3,(#355,#356,#357,#358,#359),
 .UNSPECIFIED.,.F.,.U.,(4,1,4),(0.0018183819826713,0.00255323016089327,
0.00328807833911524),.UNSPECIFIED.);
#82=B_SPLINE_CURVE_WITH_KNOTS('',3,(#364,#365,#366,#367),.UNSPECIFIED.,
 .F.,.U.,(4,4),(2.38076376805984E-7,0.00145797508308211),.UNSPECIFIED.);
#83=B_SPLINE_CURVE_WITH_KNOTS('',3,(#371,#372,#373,#374),.UNSPECIFIED.,
 .F.,.U.,(4,4),(2.38076376806152E-7,0.00145797508308211),.UNSPECIFIED.);
#84=B_SPLINE_CURVE_WITH_KNOTS('',3,(#377,#378,#379,#380,#381),
 .UNSPECIFIED.,.F.,.U.,(4,1,4),(0.0018183819826713,0.00255323016089327,
0.00328807833911524),.UNSPECIFIED.);
#85=VERTEX_POINT('',#337);
#86=VERTEX_POINT('',#338);
#87=VERTEX_POINT('',#345);
#88=VERTEX_POINT('',#352);
#89=VERTEX_POINT('',#353);
#90=VERTEX_POINT('',#362);
#91=VERTEX_POINT('',#363);
#92=VERTEX_POINT('',#370);
#93=VERTEX_POINT('',#384);
#94=VERTEX_POINT('',#387);
#95=VERTEX_POINT('',#391);
#96=VERTEX_POINT('',#393);
#97=VERTEX_POINT('',#396);
#98=VERTEX_POINT('',#398);
#99=VERTEX_POINT('',#401);
#100=VERTEX_POINT('',#404);
#101=VERTEX_POINT('',#406);
#102=VERTEX_POINT('',#410);
#103=VERTEX_POINT('',#414);
#104=VERTEX_POINT('',#418);
#105=VERTEX_POINT('',#422);
#106=VERTEX_POINT('',#428);
#107=VERTEX_POINT('',#429);
#108=VERTEX_POINT('',#432);
#109=CIRCLE('',#305,1.44337567297406);
#110=CIRCLE('',#307,1.44337567297406);
#111=CIRCLE('',#309,1.44337567297406);
#112=CIRCLE('',#311,1.44337567297406);
#113=CIRCLE('',#313,1.44337567297406);
#114=CIRCLE('',#315,1.44337567297406);
#115=CIRCLE('',#317,2.0095);
#116=CIRCLE('',#319,2.5);
#117=CIRCLE('',#321,2.5);
#118=CIRCLE('',#323,1.25);
#119=CIRCLE('',#332,1.5);
#120=EDGE_CURVE('',#85,#86,#109,.T.);
#121=EDGE_CURVE('',#85,#86,#79,.T.);
#122=EDGE_CURVE('',#86,#87,#110,.T.);
#123=EDGE_CURVE('',#86,#87,#80,.T.);
#124=EDGE_CURVE('',#88,#89,#61,.T.);
#125=EDGE_CURVE('',#87,#88,#111,.T.);
#126=EDGE_CURVE('',#87,#89,#81,.T.);
#127=EDGE_CURVE('',#90,#91,#112,.T.);
#128=EDGE_CURVE('',#90,#91,#82,.T.);
#129=EDGE_CURVE('',#91,#92,#113,.T.);
#130=EDGE_CURVE('',#91,#92,#83,.T.);
#131=EDGE_CURVE('',#92,#85,#114,.T.);
#132=EDGE_CURVE('',#92,#85,#84,.T.);
#133=EDGE_CURVE('',#93,#93,#115,.T.);
#134=EDGE_CURVE('',#88,#90,#111,.T.);
#135=EDGE_CURVE('',#94,#93,#62,.T.);
#136=EDGE_CURVE('',#94,#94,#116,.T.);
#137=EDGE_CURVE('',#95,#94,#63,.T.);
#138=EDGE_CURVE('',#96,#95,#117,.T.);
#139=EDGE_CURVE('',#95,#96,#117,.T.);
#140=EDGE_CURVE('',#96,#97,#64,.T.);
#141=EDGE_CURVE('',#98,#97,#118,.T.);
#142=EDGE_CURVE('',#97,#98,#118,.T.);
#143=EDGE_CURVE('',#98,#99,#65,.T.);
#144=EDGE_CURVE('',#100,#85,#66,.T.);
#145=EDGE_CURVE('',#100,#101,#67,.T.);
#146=EDGE_CURVE('',#101,#86,#68,.T.);
#147=EDGE_CURVE('',#101,#102,#69,.T.);
#148=EDGE_CURVE('',#102,#87,#70,.T.);
#149=EDGE_CURVE('',#102,#103,#71,.T.);
#150=EDGE_CURVE('',#103,#90,#72,.T.);
#151=EDGE_CURVE('',#89,#90,#81,.T.);
#152=EDGE_CURVE('',#103,#104,#73,.T.);
#153=EDGE_CURVE('',#104,#91,#74,.T.);
#154=EDGE_CURVE('',#104,#105,#75,.T.);
#155=EDGE_CURVE('',#105,#92,#76,.T.);
#156=EDGE_CURVE('',#105,#100,#77,.T.);
#157=EDGE_CURVE('',#106,#107,#119,.T.);
#158=EDGE_CURVE('',#107,#106,#119,.T.);
#159=EDGE_CURVE('',#107,#108,#78,.T.);
#160=ORIENTED_EDGE('',*,*,#120,.F.);
#161=ORIENTED_EDGE('',*,*,#121,.T.);
#162=ORIENTED_EDGE('',*,*,#122,.F.);
#163=ORIENTED_EDGE('',*,*,#123,.T.);
#164=ORIENTED_EDGE('',*,*,#124,.F.);
#165=ORIENTED_EDGE('',*,*,#125,.F.);
#166=ORIENTED_EDGE('',*,*,#126,.T.);
#167=ORIENTED_EDGE('',*,*,#127,.F.);
#168=ORIENTED_EDGE('',*,*,#128,.T.);
#169=ORIENTED_EDGE('',*,*,#129,.F.);
#170=ORIENTED_EDGE('',*,*,#130,.T.);
#171=ORIENTED_EDGE('',*,*,#131,.F.);
#172=ORIENTED_EDGE('',*,*,#132,.T.);
#173=ORIENTED_EDGE('',*,*,#133,.F.);
#174=ORIENTED_EDGE('',*,*,#131,.T.);
#175=ORIENTED_EDGE('',*,*,#120,.T.);
#176=ORIENTED_EDGE('',*,*,#122,.T.);
#177=ORIENTED_EDGE('',*,*,#125,.T.);
#178=ORIENTED_EDGE('',*,*,#134,.T.);
#179=ORIENTED_EDGE('',*,*,#127,.T.);
#180=ORIENTED_EDGE('',*,*,#129,.T.);
#181=ORIENTED_EDGE('',*,*,#135,.T.);
#182=ORIENTED_EDGE('',*,*,#133,.T.);
#183=ORIENTED_EDGE('',*,*,#135,.F.);
#184=ORIENTED_EDGE('',*,*,#136,.F.);
#185=ORIENTED_EDGE('',*,*,#137,.T.);
#186=ORIENTED_EDGE('',*,*,#136,.T.);
#187=ORIENTED_EDGE('',*,*,#137,.F.);
#188=ORIENTED_EDGE('',*,*,#138,.F.);
#189=ORIENTED_EDGE('',*,*,#139,.F.);
#190=ORIENTED_EDGE('',*,*,#140,.T.);
#191=ORIENTED_EDGE('',*,*,#141,.F.);
#192=ORIENTED_EDGE('',*,*,#142,.F.);
#193=ORIENTED_EDGE('',*,*,#140,.F.);
#194=ORIENTED_EDGE('',*,*,#138,.T.);
#195=ORIENTED_EDGE('',*,*,#139,.T.);
#196=ORIENTED_EDGE('',*,*,#143,.F.);
#197=ORIENTED_EDGE('',*,*,#141,.T.);
#198=ORIENTED_EDGE('',*,*,#142,.T.);
#199=ORIENTED_EDGE('',*,*,#143,.T.);
#200=ORIENTED_EDGE('',*,*,#144,.F.);
#201=ORIENTED_EDGE('',*,*,#145,.T.);
#202=ORIENTED_EDGE('',*,*,#146,.T.);
#203=ORIENTED_EDGE('',*,*,#121,.F.);
#204=ORIENTED_EDGE('',*,*,#146,.F.);
#205=ORIENTED_EDGE('',*,*,#147,.T.);
#206=ORIENTED_EDGE('',*,*,#148,.T.);
#207=ORIENTED_EDGE('',*,*,#123,.F.);
#208=ORIENTED_EDGE('',*,*,#148,.F.);
#209=ORIENTED_EDGE('',*,*,#149,.T.);
#210=ORIENTED_EDGE('',*,*,#150,.T.);
#211=ORIENTED_EDGE('',*,*,#151,.F.);
#212=ORIENTED_EDGE('',*,*,#126,.F.);
#213=ORIENTED_EDGE('',*,*,#150,.F.);
#214=ORIENTED_EDGE('',*,*,#152,.T.);
#215=ORIENTED_EDGE('',*,*,#153,.T.);
#216=ORIENTED_EDGE('',*,*,#128,.F.);
#217=ORIENTED_EDGE('',*,*,#153,.F.);
#218=ORIENTED_EDGE('',*,*,#154,.T.);
#219=ORIENTED_EDGE('',*,*,#155,.T.);
#220=ORIENTED_EDGE('',*,*,#130,.F.);
#221=ORIENTED_EDGE('',*,*,#155,.F.);
#222=ORIENTED_EDGE('',*,*,#156,.T.);
#223=ORIENTED_EDGE('',*,*,#144,.T.);
#224=ORIENTED_EDGE('',*,*,#132,.F.);
#225=ORIENTED_EDGE('',*,*,#157,.T.);
#226=ORIENTED_EDGE('',*,*,#158,.T.);
#227=ORIENTED_EDGE('',*,*,#145,.F.);
#228=ORIENTED_EDGE('',*,*,#156,.F.);
#229=ORIENTED_EDGE('',*,*,#154,.F.);
#230=ORIENTED_EDGE('',*,*,#152,.F.);
#231=ORIENTED_EDGE('',*,*,#149,.F.);
#232=ORIENTED_EDGE('',*,*,#147,.F.);
#233=ORIENTED_EDGE('',*,*,#159,.F.);
#234=ORIENTED_EDGE('',*,*,#157,.F.);
#235=ORIENTED_EDGE('',*,*,#158,.F.);
#236=ORIENTED_EDGE('',*,*,#159,.T.);
#237=ORIENTED_EDGE('',*,*,#124,.T.);
#238=ORIENTED_EDGE('',*,*,#151,.T.);
#239=ORIENTED_EDGE('',*,*,#134,.F.);
#240=EDGE_LOOP('',(#160,#161));
#241=EDGE_LOOP('',(#162,#163));
#242=EDGE_LOOP('',(#164,#165,#166));
#243=EDGE_LOOP('',(#167,#168));
#244=EDGE_LOOP('',(#169,#170));
#245=EDGE_LOOP('',(#171,#172));
#246=EDGE_LOOP('',(#173));
#247=EDGE_LOOP('',(#174,#175,#176,#177,#178,#179,#180));
#248=EDGE_LOOP('',(#181,#182,#183,#184));
#249=EDGE_LOOP('',(#185,#186,#187,#188,#189));
#250=EDGE_LOOP('',(#190,#191,#192,#193,#194,#195));
#251=EDGE_LOOP('',(#196,#197,#198,#199));
#252=EDGE_LOOP('',(#200,#201,#202,#203));
#253=EDGE_LOOP('',(#204,#205,#206,#207));
#254=EDGE_LOOP('',(#208,#209,#210,#211,#212));
#255=EDGE_LOOP('',(#213,#214,#215,#216));
#256=EDGE_LOOP('',(#217,#218,#219,#220));
#257=EDGE_LOOP('',(#221,#222,#223,#224));
#258=EDGE_LOOP('',(#225,#226));
#259=EDGE_LOOP('',(#227,#228,#229,#230,#231,#232));
#260=EDGE_LOOP('',(#233,#234,#235,#236));
#261=EDGE_LOOP('',(#237,#238,#239));
#262=FACE_BOUND('',#240,.T.);
#263=FACE_BOUND('',#241,.T.);
#264=FACE_BOUND('',#242,.T.);
#265=FACE_BOUND('',#243,.T.);
#266=FACE_BOUND('',#244,.T.);
#267=FACE_BOUND('',#245,.T.);
#268=FACE_BOUND('',#246,.T.);
#269=FACE_BOUND('',#247,.T.);
#270=FACE_BOUND('',#248,.T.);
#271=FACE_BOUND('',#249,.T.);
#272=FACE_BOUND('',#250,.T.);
#273=FACE_BOUND('',#251,.T.);
#274=FACE_BOUND('',#252,.T.);
#275=FACE_BOUND('',#253,.T.);
#276=FACE_BOUND('',#254,.T.);
#277=FACE_BOUND('',#255,.T.);
#278=FACE_BOUND('',#256,.T.);
#279=FACE_BOUND('',#257,.T.);
#280=FACE_BOUND('',#258,.T.);
#281=FACE_BOUND('',#259,.T.);
#282=FACE_BOUND('',#260,.T.);
#283=FACE_BOUND('',#261,.T.);
#284=ADVANCED_FACE('',(#262),#506,.F.);
#285=ADVANCED_FACE('',(#263),#507,.F.);
#286=ADVANCED_FACE('',(#264),#508,.F.);
#287=ADVANCED_FACE('',(#265),#509,.F.);
#288=ADVANCED_FACE('',(#266),#510,.F.);
#289=ADVANCED_FACE('',(#267),#511,.F.);
#290=ADVANCED_FACE('',(#268,#269),#35,.F.);
#291=ADVANCED_FACE('',(#270),#512,.T.);
#292=ADVANCED_FACE('',(#271),#34,.T.);
#293=ADVANCED_FACE('',(#272),#513,.T.);
#294=ADVANCED_FACE('',(#273),#514,.F.);
#295=ADVANCED_FACE('',(#274),#36,.T.);
#296=ADVANCED_FACE('',(#275),#37,.T.);
#297=ADVANCED_FACE('',(#276),#38,.T.);
#298=ADVANCED_FACE('',(#277),#39,.T.);
#299=ADVANCED_FACE('',(#278),#40,.T.);
#300=ADVANCED_FACE('',(#279),#41,.T.);
#301=ADVANCED_FACE('',(#280,#281),#42,.T.);
#302=ADVANCED_FACE('',(#282),#515,.F.);
#303=ADVANCED_FACE('',(#283),#516,.F.);
#304=AXIS2_PLACEMENT_3D('',#335,#434,#435);
#305=AXIS2_PLACEMENT_3D('',#336,#436,#437);
#306=AXIS2_PLACEMENT_3D('',#343,#438,#439);
#307=AXIS2_PLACEMENT_3D('',#344,#440,#441);
#308=AXIS2_PLACEMENT_3D('',#350,#442,#443);
#309=AXIS2_PLACEMENT_3D('',#354,#445,#446);
#310=AXIS2_PLACEMENT_3D('',#360,#447,#448);
#311=AXIS2_PLACEMENT_3D('',#361,#449,#450);
#312=AXIS2_PLACEMENT_3D('',#368,#451,#452);
#313=AXIS2_PLACEMENT_3D('',#369,#453,#454);
#314=AXIS2_PLACEMENT_3D('',#375,#455,#456);
#315=AXIS2_PLACEMENT_3D('',#376,#457,#458);
#316=AXIS2_PLACEMENT_3D('',#382,#459,$);
#317=AXIS2_PLACEMENT_3D('',#383,#460,#461);
#318=AXIS2_PLACEMENT_3D('',#385,#462,#463);
#319=AXIS2_PLACEMENT_3D('',#388,#465,#466);
#320=AXIS2_PLACEMENT_3D('',#389,#467,#468);
#321=AXIS2_PLACEMENT_3D('',#392,#470,#471);
#322=AXIS2_PLACEMENT_3D('',#394,#472,#473);
#323=AXIS2_PLACEMENT_3D('',#397,#475,#476);
#324=AXIS2_PLACEMENT_3D('',#399,#477,#478);
#325=AXIS2_PLACEMENT_3D('',#402,#480,$);
#326=AXIS2_PLACEMENT_3D('',#408,#484,$);
#327=AXIS2_PLACEMENT_3D('',#412,#487,$);
#328=AXIS2_PLACEMENT_3D('',#416,#490,$);
#329=AXIS2_PLACEMENT_3D('',#420,#493,$);
#330=AXIS2_PLACEMENT_3D('',#424,#496,$);
#331=AXIS2_PLACEMENT_3D('',#426,#498,$);
#332=AXIS2_PLACEMENT_3D('',#427,#499,#500);
#333=AXIS2_PLACEMENT_3D('',#430,#501,#502);
#334=AXIS2_PLACEMENT_3D('',#433,#504,#505);
#335=CARTESIAN_POINT('',(0.,0.,0.));
#336=CARTESIAN_POINT('',(0.,0.,0.));
#337=CARTESIAN_POINT('',(1.44795286871613E-12,1.24999999999999,0.721687836486825));
#338=CARTESIAN_POINT('',(1.44795286871613E-12,7.17913393376495E-14,1.4433756729739));
#339=CARTESIAN_POINT('',(2.77985463394377E-12,1.25000000000035,0.721687836486832));
#340=CARTESIAN_POINT('',(0.136066883160422,0.841799350527591,0.957362591343308));
#341=CARTESIAN_POINT('',(0.136236267821635,0.408708803460354,1.20740753527606));
#342=CARTESIAN_POINT('',(1.4160919458199E-12,-2.02753903939396E-13,1.44337567297418));
#343=CARTESIAN_POINT('',(0.,0.,0.));
#344=CARTESIAN_POINT('',(0.,0.,0.));
#345=CARTESIAN_POINT('',(7.08197361541105E-13,-1.25000000000001,0.721687836486922));
#346=CARTESIAN_POINT('',(2.78028409908677E-12,3.46336582614695E-13,1.44337567297426));
#347=CARTESIAN_POINT('',(0.136066883160422,-0.40820064947241,1.20770091811779));
#348=CARTESIAN_POINT('',(0.136236267821635,-0.841291196539646,0.957655974185037));
#349=CARTESIAN_POINT('',(1.41639472308221E-12,-1.2500000000002,0.721687836486915));
#350=CARTESIAN_POINT('',(0.,0.,0.));
#351=CARTESIAN_POINT('',(0.171021513871419,-1.14715772176142,0.));
#352=CARTESIAN_POINT('',(1.92296268638355E-16,-1.44337567297406,8.8381269893742E-17));
#353=CARTESIAN_POINT('',(0.11164456582955,-1.25000032251366,-5.17922609313826E-10));
#354=CARTESIAN_POINT('',(0.,0.,0.));
#355=CARTESIAN_POINT('',(3.77405859679776E-16,-1.25,0.721687836487032));
#356=CARTESIAN_POINT('',(0.0677608299987839,-1.25,0.486957435845172));
#357=CARTESIAN_POINT('',(0.155474103519472,-1.25,-0.00349447753964711));
#358=CARTESIAN_POINT('',(0.0678704283218828,-1.25,-0.486577776117134));
#359=CARTESIAN_POINT('',(7.33605950514574E-15,-1.25,-0.721687836487034));
#360=CARTESIAN_POINT('',(0.,0.,0.));
#361=CARTESIAN_POINT('',(0.,0.,0.));
#362=CARTESIAN_POINT('',(1.4477308241112E-12,-1.24999999999999,-0.721687836486826));
#363=CARTESIAN_POINT('',(1.44795286871613E-12,-7.16976439692805E-14,-1.4433756729739));
#364=CARTESIAN_POINT('',(2.78064514233105E-12,-1.25000000000035,-0.721687836486832));
#365=CARTESIAN_POINT('',(0.136066883160422,-0.84179935052759,-0.957362591343308));
#366=CARTESIAN_POINT('',(0.136236267821635,-0.408708803460353,-1.20740753527606));
#367=CARTESIAN_POINT('',(1.41604377723168E-12,2.02937928878222E-13,-1.44337567297418));
#368=CARTESIAN_POINT('',(0.,0.,0.));
#369=CARTESIAN_POINT('',(0.,0.,0.));
#370=CARTESIAN_POINT('',(7.07711667047306E-13,1.25000000000001,-0.721687836486922));
#371=CARTESIAN_POINT('',(2.78028522074369E-12,-3.46333216816783E-13,-1.44337567297426));
#372=CARTESIAN_POINT('',(0.136066883160422,0.40820064947241,-1.20770091811779));
#373=CARTESIAN_POINT('',(0.136236267821635,0.841291196539647,-0.957655974185037));
#374=CARTESIAN_POINT('',(1.41568631102656E-12,1.2500000000002,-0.721687836486915));
#375=CARTESIAN_POINT('',(0.,0.,0.));
#376=CARTESIAN_POINT('',(0.,0.,0.));
#377=CARTESIAN_POINT('',(-2.91875431861048E-16,1.25,-0.721687836487032));
#378=CARTESIAN_POINT('',(0.0677608299987832,1.25,-0.486957435845172));
#379=CARTESIAN_POINT('',(0.155474103519471,1.25,0.0034944775396463));
#380=CARTESIAN_POINT('',(0.0678704283218822,1.25,0.486577776117134));
#381=CARTESIAN_POINT('',(6.79819358363926E-15,1.25,0.721687836487033));
#382=CARTESIAN_POINT('',(0.,0.,0.));
#383=CARTESIAN_POINT('',(0.,0.,0.));
#384=CARTESIAN_POINT('',(-8.32667268468867E-17,-2.46092774288661E-16,-2.0095));
#385=CARTESIAN_POINT('',(0.,0.,0.));
#386=CARTESIAN_POINT('',(0.441450000000001,0.,-2.45095));
#387=CARTESIAN_POINT('',(0.490500000000001,-3.06161699786838E-16,-2.5));
#388=CARTESIAN_POINT('',(0.490500000000001,0.,0.));
#389=CARTESIAN_POINT('',(12.,0.,0.));
#390=CARTESIAN_POINT('',(-0.759499999999999,0.,-2.5));
#391=CARTESIAN_POINT('',(10.75,-1.53080849893419E-16,-2.5));
#392=CARTESIAN_POINT('',(10.75,0.,0.));
#393=CARTESIAN_POINT('',(10.75,1.53080849893419E-16,2.5));
#394=CARTESIAN_POINT('',(10.75,0.,0.));
#395=CARTESIAN_POINT('',(12.125,0.,1.125));
#396=CARTESIAN_POINT('',(12.,-3.87047250119855E-14,1.24999999999998));
#397=CARTESIAN_POINT('',(12.,0.,0.));
#398=CARTESIAN_POINT('',(12.,4.78571087365868E-16,-1.24999999999998));
#399=CARTESIAN_POINT('',(12.,0.,0.));
#400=CARTESIAN_POINT('',(11.278312163513,0.,0.));
#401=CARTESIAN_POINT('',(11.278312163513,0.,0.));
#402=CARTESIAN_POINT('',(3.,1.25,0.721687836487032));
#403=CARTESIAN_POINT('',(3.,1.25,0.721687836487032));
#404=CARTESIAN_POINT('',(3.,1.25,0.721687836487032));
#405=CARTESIAN_POINT('',(3.,1.25,0.721687836487032));
#406=CARTESIAN_POINT('',(3.,1.11022302462516E-15,1.44337567297406));
#407=CARTESIAN_POINT('',(3.,2.22044604925031E-16,1.44337567297406));
#408=CARTESIAN_POINT('',(3.,2.22044604925031E-16,1.44337567297406));
#409=CARTESIAN_POINT('',(3.,2.22044604925031E-16,1.44337567297406));
#410=CARTESIAN_POINT('',(3.,-1.25,0.72168783648703));
#411=CARTESIAN_POINT('',(3.,-1.25,0.721687836487032));
#412=CARTESIAN_POINT('',(3.,-1.25,0.721687836487032));
#413=CARTESIAN_POINT('',(3.,-1.25,0.721687836487032));
#414=CARTESIAN_POINT('',(3.,-1.25,-0.721687836487032));
#415=CARTESIAN_POINT('',(3.,-1.25,-0.721687836487032));
#416=CARTESIAN_POINT('',(3.,-1.25,-0.721687836487032));
#417=CARTESIAN_POINT('',(3.,-1.25,-0.721687836487032));
#418=CARTESIAN_POINT('',(3.,-1.10762120719723E-15,-1.44337567297406));
#419=CARTESIAN_POINT('',(3.,-2.16840970069176E-16,-1.44337567297406));
#420=CARTESIAN_POINT('',(3.,-2.22044604925031E-16,-1.44337567297406));
#421=CARTESIAN_POINT('',(3.,-2.16840970069176E-16,-1.44337567297406));
#422=CARTESIAN_POINT('',(3.,1.25,-0.72168783648703));
#423=CARTESIAN_POINT('',(3.,1.25,-0.721687836487032));
#424=CARTESIAN_POINT('',(3.,1.25,-0.721687836487032));
#425=CARTESIAN_POINT('',(3.,1.25,-0.721687836487032));
#426=CARTESIAN_POINT('',(3.,0.,0.));
#427=CARTESIAN_POINT('',(3.,0.,0.));
#428=CARTESIAN_POINT('',(3.,-9.18485099360515E-17,-1.5));
#429=CARTESIAN_POINT('',(3.,9.18485099360515E-17,1.5));
#430=CARTESIAN_POINT('',(3.,0.,0.));
#431=CARTESIAN_POINT('',(3.86602540378443,0.,0.));
#432=CARTESIAN_POINT('',(3.86602540378443,0.,0.));
#433=CARTESIAN_POINT('',(0.,0.,0.));
#434=DIRECTION('',(-1.,-2.66453525910037E-16,0.));
#435=DIRECTION('',(3.84592537276711E-16,-1.44337567297406,0.));
#436=DIRECTION('',(1.,2.66453525910037E-16,0.));
#437=DIRECTION('',(-3.84592537276711E-16,1.44337567297406,0.));
#438=DIRECTION('',(-1.,-2.66453525910037E-16,0.));
#439=DIRECTION('',(3.84592537276711E-16,-1.44337567297406,0.));
#440=DIRECTION('',(1.,2.66453525910037E-16,0.));
#441=DIRECTION('',(-3.84592537276711E-16,1.44337567297406,0.));
#442=DIRECTION('',(-1.,-2.66453525910037E-16,0.));
#443=DIRECTION('',(3.84592537276711E-16,-1.44337567297406,0.));
#444=DIRECTION('',(0.499999999999998,0.86602540378444,0.));
#445=DIRECTION('',(1.,2.66453525910037E-16,0.));
#446=DIRECTION('',(-3.84592537276711E-16,1.44337567297406,0.));
#447=DIRECTION('',(-1.,-2.66453525910037E-16,0.));
#448=DIRECTION('',(3.84592537276711E-16,-1.44337567297406,0.));
#449=DIRECTION('',(1.,2.66453525910037E-16,0.));
#450=DIRECTION('',(-3.84592537276711E-16,1.44337567297406,0.));
#451=DIRECTION('',(-1.,-2.66453525910037E-16,0.));
#452=DIRECTION('',(3.84592537276711E-16,-1.44337567297406,0.));
#453=DIRECTION('',(1.,2.66453525910037E-16,0.));
#454=DIRECTION('',(-3.84592537276711E-16,1.44337567297406,0.));
#455=DIRECTION('',(-1.,-2.66453525910037E-16,0.));
#456=DIRECTION('',(3.84592537276711E-16,-1.44337567297406,0.));
#457=DIRECTION('',(1.,2.66453525910037E-16,0.));
#458=DIRECTION('',(-3.84592537276711E-16,1.44337567297406,0.));
#459=DIRECTION('',(1.,0.,0.));
#460=DIRECTION('',(1.,0.,0.));
#461=DIRECTION('',(0.,0.,-2.0095));
#462=DIRECTION('',(1.,0.,0.));
#463=DIRECTION('',(0.,0.,-2.0095));
#464=DIRECTION('',(-0.707106781186549,0.,0.707106781186546));
#465=DIRECTION('',(1.,0.,0.));
#466=DIRECTION('',(0.,0.,-2.5));
#467=DIRECTION('',(1.,0.,0.));
#468=DIRECTION('',(0.,0.,-2.5));
#469=DIRECTION('',(-1.,0.,0.));
#470=DIRECTION('',(1.,0.,0.));
#471=DIRECTION('',(0.,0.,-2.5));
#472=DIRECTION('',(-1.,0.,0.));
#473=DIRECTION('',(0.,0.,2.5));
#474=DIRECTION('',(0.707106781186547,0.,-0.707106781186548));
#475=DIRECTION('',(1.,0.,0.));
#476=DIRECTION('',(0.,0.,-1.25));
#477=DIRECTION('',(1.,0.,0.));
#478=DIRECTION('',(0.,0.,-1.24999999999995));
#479=DIRECTION('',(-0.499999999999998,0.,0.86602540378444));
#480=DIRECTION('',(0.,-0.5,-0.866025403784438));
#481=DIRECTION('',(-1.,0.,-3.33066907387547E-16));
#482=DIRECTION('',(0.,-0.86602540378444,0.499999999999998));
#483=DIRECTION('',(-1.,0.,0.));
#484=DIRECTION('',(0.,0.5,-0.866025403784439));
#485=DIRECTION('',(0.,-0.86602540378444,-0.499999999999998));
#486=DIRECTION('',(-1.,0.,0.));
#487=DIRECTION('',(0.,1.,0.));
#488=DIRECTION('',(0.,0.,-1.));
#489=DIRECTION('',(-1.,0.,0.));
#490=DIRECTION('',(0.,0.5,0.866025403784438));
#491=DIRECTION('',(0.,0.86602540378444,-0.499999999999998));
#492=DIRECTION('',(-1.,1.78524024992972E-22,0.));
#493=DIRECTION('',(0.,-0.5,0.866025403784439));
#494=DIRECTION('',(0.,0.86602540378444,0.499999999999998));
#495=DIRECTION('',(-1.,0.,0.));
#496=DIRECTION('',(0.,-1.,0.));
#497=DIRECTION('',(0.,0.,1.));
#498=DIRECTION('',(1.,0.,0.));
#499=DIRECTION('',(1.,0.,0.));
#500=DIRECTION('',(0.,0.,-1.5));
#501=DIRECTION('',(-1.,0.,0.));
#502=DIRECTION('',(0.,0.,1.5));
#503=DIRECTION('',(0.499999999999998,0.,-0.86602540378444));
#504=DIRECTION('',(-1.,-2.66453525910037E-16,0.));
#505=DIRECTION('',(3.84592537276711E-16,-1.44337567297406,0.));
#506=CONICAL_SURFACE('',#304,1.44337567297406,1.0471975511966);
#507=CONICAL_SURFACE('',#306,1.44337567297406,1.0471975511966);
#508=CONICAL_SURFACE('',#308,1.44337567297406,1.0471975511966);
#509=CONICAL_SURFACE('',#310,1.44337567297406,1.0471975511966);
#510=CONICAL_SURFACE('',#312,1.44337567297406,1.0471975511966);
#511=CONICAL_SURFACE('',#314,1.44337567297406,1.0471975511966);
#512=CONICAL_SURFACE('',#318,2.0095,0.785398163397447);
#513=CONICAL_SURFACE('',#322,2.5,0.785398163397449);
#514=CONICAL_SURFACE('',#324,1.24999999999995,1.0471975511966);
#515=CONICAL_SURFACE('',#333,1.5,1.0471975511966);
#516=CONICAL_SURFACE('',#334,1.44337567297406,1.0471975511966);
#517=CLOSED_SHELL('',(#284,#285,#286,#287,#288,#289,#290,#291,#292,#293,
#294,#295,#296,#297,#298,#299,#300,#301,#302,#303));
#518=MANIFOLD_SOLID_BREP('',#517);
#519=ADVANCED_BREP_SHAPE_REPRESENTATION('',(#518),#33);
ENDSEC;
END-ISO-10303-21;
