ISO-10303-21;
HEADER;

/* File generated by Alibre Version V27 */

FILE_DESCRIPTION(('HOOPS Exchange Step'),'2;1');

FILE_NAME('C:\\Users\\Gebruiker\\AppData\\Local\\Temp\\Alibre Design\\27.0.1.27039\\export-42F8F4AE-C599-427A-B6ED-049DD965EE24.stp',
'2024-07-06T15:56:37+02:00',
('Engineering'),
('Alibre'),
'HOOPS Exchange 2023.0',
'Alibre',
'Unknown authorisation');

FILE_SCHEMA( ('AP242_MANAGED_MODEL_BASED_3D_ENGINEERING_MIM_LF {1 0 10303 442 1 1 4 }') );

ENDSEC;

DATA;
#3=(NAMED_UNIT(*)PLANE_ANGLE_UNIT()SI_UNIT($,.RADIAN.));
#4=PLANE_ANGLE_MEASURE_WITH_UNIT(PLANE_ANGLE_MEASURE(0.0174532925),#3);
#5=(CONVERSION_BASED_UNIT('DEGREE',#4)NAMED_UNIT(#6)PLANE_ANGLE_UNIT());
#6=DIMENSIONAL_EXPONENTS(0.,0.,0.,0.,0.,0.,0.);
#7=(NAMED_UNIT(*)SI_UNIT($,.STERADIAN.)SOLID_ANGLE_UNIT());
#8=(LENGTH_UNIT()NAMED_UNIT(*)SI_UNIT(.MILLI.,.METRE.));
#9=UNCERTAINTY_MEASURE_WITH_UNIT(LENGTH_MEASURE(1.000000E-06),#8,'DISTANCE_ACCURACY_VALUE','Maximum Tolerance applied to model');
#10=(GEOMETRIC_REPRESENTATION_CONTEXT(3)GLOBAL_UNCERTAINTY_ASSIGNED_CONTEXT((#9))GLOBAL_UNIT_ASSIGNED_CONTEXT((#8,#5,#7))REPRESENTATION_CONTEXT('','1376 M5x12 DIN 916 Steel Hexagon socket set screw with point'));
#12=CARTESIAN_POINT('',(0.,0.,0.));
#13=DIRECTION('',(0.,0.,1.));
#14=DIRECTION('',(1.,0.,0.));
#15=AXIS2_PLACEMENT_3D('',#12,#13,#14);
#27=CARTESIAN_POINT('',(0.,0.,0.));
#28=DIRECTION('',(-1.,-0.,0.));
#29=DIRECTION('',(0.,-1.,0.));
#30=AXIS2_PLACEMENT_3D('',#27,#28,#29);
#31=CONICAL_SURFACE('',#30,1.443375673,60.);
#32=CARTESIAN_POINT('',(0.,1.25,0.721687836));
#33=VERTEX_POINT('',#32);
#34=CARTESIAN_POINT('',(0.,0.,1.443375673));
#35=VERTEX_POINT('',#34);
#36=CARTESIAN_POINT('',(0.,0.,0.));
#37=DIRECTION('',(1.,0.,0.));
#38=DIRECTION('',(-0.,1.,0.));
#39=AXIS2_PLACEMENT_3D('',#36,#37,#38);
#40=CIRCLE('',#39,1.443375673);
#41=EDGE_CURVE('',#33,#35,#40,.T.);
#42=ORIENTED_EDGE('',*,*,#41,.F.);
#43=CARTESIAN_POINT('',(0.,1.25,0.721687836));
#44=CARTESIAN_POINT('',(0.136066883,0.841799351,0.957362591));
#45=CARTESIAN_POINT('',(0.136236268,0.408708803,1.207407535));
#46=CARTESIAN_POINT('',(0.,-0.,1.443375673));
#47=B_SPLINE_CURVE_WITH_KNOTS('',3,(#43,#44,#45,#46),.UNSPECIFIED.,.F.,.F.,(4,4),(0.000000238,0.001457975),.UNSPECIFIED.);
#48=EDGE_CURVE('',#33,#35,#47,.T.);
#49=ORIENTED_EDGE('',*,*,#48,.T.);
#50=EDGE_LOOP('',(#42,#49));
#51=FACE_BOUND('',#50,.T.);
#52=ADVANCED_FACE('',(#51),#31,.F.);
#53=CARTESIAN_POINT('',(0.,0.,0.));
#54=DIRECTION('',(-1.,-0.,0.));
#55=DIRECTION('',(0.,-1.,0.));
#56=AXIS2_PLACEMENT_3D('',#53,#54,#55);
#57=CONICAL_SURFACE('',#56,1.443375673,60.);
#58=CARTESIAN_POINT('',(0.,-1.25,0.721687836));
#59=VERTEX_POINT('',#58);
#60=CARTESIAN_POINT('',(0.,0.,0.));
#61=DIRECTION('',(1.,0.,0.));
#62=DIRECTION('',(-0.,1.,0.));
#63=AXIS2_PLACEMENT_3D('',#60,#61,#62);
#64=CIRCLE('',#63,1.443375673);
#65=EDGE_CURVE('',#35,#59,#64,.T.);
#66=ORIENTED_EDGE('',*,*,#65,.F.);
#67=CARTESIAN_POINT('',(0.,0.,1.443375673));
#68=CARTESIAN_POINT('',(0.136066883,-0.408200649,1.207700918));
#69=CARTESIAN_POINT('',(0.136236268,-0.841291197,0.957655974));
#70=CARTESIAN_POINT('',(0.,-1.25,0.721687836));
#71=B_SPLINE_CURVE_WITH_KNOTS('',3,(#67,#68,#69,#70),.UNSPECIFIED.,.F.,.F.,(4,4),(0.000000238,0.001457975),.UNSPECIFIED.);
#72=EDGE_CURVE('',#35,#59,#71,.T.);
#73=ORIENTED_EDGE('',*,*,#72,.T.);
#74=EDGE_LOOP('',(#66,#73));
#75=FACE_BOUND('',#74,.T.);
#76=ADVANCED_FACE('',(#75),#57,.F.);
#77=CARTESIAN_POINT('',(0.,0.,0.));
#78=DIRECTION('',(-1.,-0.,0.));
#79=DIRECTION('',(0.,-1.,0.));
#80=AXIS2_PLACEMENT_3D('',#77,#78,#79);
#81=CONICAL_SURFACE('',#80,1.443375673,60.);
#82=CARTESIAN_POINT('',(0.,-1.443375673,0.));
#83=VERTEX_POINT('',#82);
#84=CARTESIAN_POINT('',(0.111644566,-1.250000323,-0.000000001));
#85=VERTEX_POINT('',#84);
#86=CARTESIAN_POINT('',(0.,-1.443375673,0.));
#87=DIRECTION('',(0.5,0.866025404,-0.));
#88=VECTOR('',#87,0.223290249);
#89=LINE('',#86,#88);
#90=EDGE_CURVE('',#83,#85,#89,.T.);
#91=ORIENTED_EDGE('',*,*,#90,.F.);
#92=CARTESIAN_POINT('',(0.,0.,0.));
#93=DIRECTION('',(1.,0.,0.));
#94=DIRECTION('',(-0.,1.,0.));
#95=AXIS2_PLACEMENT_3D('',#92,#93,#94);
#96=CIRCLE('',#95,1.443375673);
#97=EDGE_CURVE('',#59,#83,#96,.T.);
#98=ORIENTED_EDGE('',*,*,#97,.F.);
#99=CARTESIAN_POINT('',(0.,-1.25,0.721687836));
#100=CARTESIAN_POINT('',(0.06776083,-1.25,0.486957436));
#101=CARTESIAN_POINT('',(0.155474104,-1.25,-0.003494478));
#102=CARTESIAN_POINT('',(0.067870428,-1.25,-0.486577776));
#103=CARTESIAN_POINT('',(0.,-1.25,-0.721687836));
#104=B_SPLINE_CURVE_WITH_KNOTS('',3,(#99,#100,#101,#102,#103),.UNSPECIFIED.,.F.,.F.,(4,1,4),(0.001818382,0.00255323,0.003288078),.UNSPECIFIED.);
#105=EDGE_CURVE('',#59,#85,#104,.T.);
#106=ORIENTED_EDGE('',*,*,#105,.T.);
#107=EDGE_LOOP('',(#91,#98,#106));
#108=FACE_BOUND('',#107,.T.);
#109=ADVANCED_FACE('',(#108),#81,.F.);
#110=CARTESIAN_POINT('',(0.,0.,0.));
#111=DIRECTION('',(-1.,-0.,0.));
#112=DIRECTION('',(0.,-1.,0.));
#113=AXIS2_PLACEMENT_3D('',#110,#111,#112);
#114=CONICAL_SURFACE('',#113,1.443375673,60.);
#115=CARTESIAN_POINT('',(0.,-1.25,-0.721687836));
#116=VERTEX_POINT('',#115);
#117=CARTESIAN_POINT('',(0.,-0.,-1.443375673));
#118=VERTEX_POINT('',#117);
#119=CARTESIAN_POINT('',(0.,0.,0.));
#120=DIRECTION('',(1.,0.,0.));
#121=DIRECTION('',(-0.,1.,0.));
#122=AXIS2_PLACEMENT_3D('',#119,#120,#121);
#123=CIRCLE('',#122,1.443375673);
#124=EDGE_CURVE('',#116,#118,#123,.T.);
#125=ORIENTED_EDGE('',*,*,#124,.F.);
#126=CARTESIAN_POINT('',(0.,-1.25,-0.721687836));
#127=CARTESIAN_POINT('',(0.136066883,-0.841799351,-0.957362591));
#128=CARTESIAN_POINT('',(0.136236268,-0.408708803,-1.207407535));
#129=CARTESIAN_POINT('',(0.,0.,-1.443375673));
#130=B_SPLINE_CURVE_WITH_KNOTS('',3,(#126,#127,#128,#129),.UNSPECIFIED.,.F.,.F.,(4,4),(0.000000238,0.001457975),.UNSPECIFIED.);
#131=EDGE_CURVE('',#116,#118,#130,.T.);
#132=ORIENTED_EDGE('',*,*,#131,.T.);
#133=EDGE_LOOP('',(#125,#132));
#134=FACE_BOUND('',#133,.T.);
#135=ADVANCED_FACE('',(#134),#114,.F.);
#136=CARTESIAN_POINT('',(0.,0.,0.));
#137=DIRECTION('',(-1.,-0.,0.));
#138=DIRECTION('',(0.,-1.,0.));
#139=AXIS2_PLACEMENT_3D('',#136,#137,#138);
#140=CONICAL_SURFACE('',#139,1.443375673,60.);
#141=CARTESIAN_POINT('',(0.,1.25,-0.721687836));
#142=VERTEX_POINT('',#141);
#143=CARTESIAN_POINT('',(0.,0.,0.));
#144=DIRECTION('',(1.,0.,0.));
#145=DIRECTION('',(-0.,1.,0.));
#146=AXIS2_PLACEMENT_3D('',#143,#144,#145);
#147=CIRCLE('',#146,1.443375673);
#148=EDGE_CURVE('',#118,#142,#147,.T.);
#149=ORIENTED_EDGE('',*,*,#148,.F.);
#150=CARTESIAN_POINT('',(0.,-0.,-1.443375673));
#151=CARTESIAN_POINT('',(0.136066883,0.408200649,-1.207700918));
#152=CARTESIAN_POINT('',(0.136236268,0.841291197,-0.957655974));
#153=CARTESIAN_POINT('',(0.,1.25,-0.721687836));
#154=B_SPLINE_CURVE_WITH_KNOTS('',3,(#150,#151,#152,#153),.UNSPECIFIED.,.F.,.F.,(4,4),(0.000000238,0.001457975),.UNSPECIFIED.);
#155=EDGE_CURVE('',#118,#142,#154,.T.);
#156=ORIENTED_EDGE('',*,*,#155,.T.);
#157=EDGE_LOOP('',(#149,#156));
#158=FACE_BOUND('',#157,.T.);
#159=ADVANCED_FACE('',(#158),#140,.F.);
#160=CARTESIAN_POINT('',(0.,0.,0.));
#161=DIRECTION('',(-1.,-0.,0.));
#162=DIRECTION('',(0.,-1.,0.));
#163=AXIS2_PLACEMENT_3D('',#160,#161,#162);
#164=CONICAL_SURFACE('',#163,1.443375673,60.);
#165=CARTESIAN_POINT('',(-0.,1.443375673,-0.));
#166=VERTEX_POINT('',#165);
#167=CARTESIAN_POINT('',(0.111644007,1.25,0.000000001));
#168=VERTEX_POINT('',#167);
#169=CARTESIAN_POINT('',(-0.,1.443375673,0.));
#170=DIRECTION('',(0.5,-0.866025404,-0.));
#171=VECTOR('',#170,0.223355962);
#172=LINE('',#169,#171);
#173=EDGE_CURVE('',#166,#168,#172,.T.);
#174=ORIENTED_EDGE('',*,*,#173,.F.);
#175=CARTESIAN_POINT('',(0.,0.,0.));
#176=DIRECTION('',(1.,0.,0.));
#177=DIRECTION('',(-0.,1.,0.));
#178=AXIS2_PLACEMENT_3D('',#175,#176,#177);
#179=CIRCLE('',#178,1.443375673);
#180=EDGE_CURVE('',#142,#166,#179,.T.);
#181=ORIENTED_EDGE('',*,*,#180,.F.);
#182=CARTESIAN_POINT('',(-0.,1.25,-0.721687836));
#183=CARTESIAN_POINT('',(0.06776083,1.25,-0.486957436));
#184=CARTESIAN_POINT('',(0.155474104,1.25,0.003494478));
#185=CARTESIAN_POINT('',(0.067870428,1.25,0.486577776));
#186=CARTESIAN_POINT('',(0.,1.25,0.721687836));
#187=B_SPLINE_CURVE_WITH_KNOTS('',3,(#182,#183,#184,#185,#186),.UNSPECIFIED.,.F.,.F.,(4,1,4),(0.001818382,0.00255323,0.003288078),.UNSPECIFIED.);
#188=EDGE_CURVE('',#142,#168,#187,.T.);
#189=ORIENTED_EDGE('',*,*,#188,.T.);
#190=EDGE_LOOP('',(#174,#181,#189));
#191=FACE_BOUND('',#190,.T.);
#192=ADVANCED_FACE('',(#191),#164,.F.);
#193=CARTESIAN_POINT('',(0.,0.,0.));
#194=DIRECTION('',(1.,0.,0.));
#195=DIRECTION('',(0.,0.,-1.));
#196=AXIS2_PLACEMENT_3D('',#193,#194,#195);
#197=PLANE('',#196);
#198=CARTESIAN_POINT('',(0.,0.,2.0095));
#199=VERTEX_POINT('',#198);
#200=CARTESIAN_POINT('',(-0.,-0.,-2.0095));
#201=VERTEX_POINT('',#200);
#202=CARTESIAN_POINT('',(0.,0.,0.));
#203=DIRECTION('',(1.,0.,0.));
#204=DIRECTION('',(0.,0.,-1.));
#205=AXIS2_PLACEMENT_3D('',#202,#203,#204);
#206=CIRCLE('',#205,2.0095);
#207=EDGE_CURVE('',#199,#201,#206,.T.);
#208=ORIENTED_EDGE('',*,*,#207,.F.);
#209=CARTESIAN_POINT('',(0.,0.,0.));
#210=DIRECTION('',(1.,0.,0.));
#211=DIRECTION('',(0.,0.,-1.));
#212=AXIS2_PLACEMENT_3D('',#209,#210,#211);
#213=CIRCLE('',#212,2.0095);
#214=EDGE_CURVE('',#201,#199,#213,.T.);
#215=ORIENTED_EDGE('',*,*,#214,.F.);
#216=EDGE_LOOP('',(#208,#215));
#217=FACE_BOUND('',#216,.T.);
#218=ORIENTED_EDGE('',*,*,#180,.T.);
#219=CARTESIAN_POINT('',(0.,0.,0.));
#220=DIRECTION('',(1.,0.,0.));
#221=DIRECTION('',(-0.,1.,0.));
#222=AXIS2_PLACEMENT_3D('',#219,#220,#221);
#223=CIRCLE('',#222,1.443375673);
#224=EDGE_CURVE('',#166,#33,#223,.T.);
#225=ORIENTED_EDGE('',*,*,#224,.T.);
#226=ORIENTED_EDGE('',*,*,#41,.T.);
#227=ORIENTED_EDGE('',*,*,#65,.T.);
#228=ORIENTED_EDGE('',*,*,#97,.T.);
#229=CARTESIAN_POINT('',(0.,0.,0.));
#230=DIRECTION('',(1.,0.,0.));
#231=DIRECTION('',(-0.,1.,0.));
#232=AXIS2_PLACEMENT_3D('',#229,#230,#231);
#233=CIRCLE('',#232,1.443375673);
#234=EDGE_CURVE('',#83,#116,#233,.T.);
#235=ORIENTED_EDGE('',*,*,#234,.T.);
#236=ORIENTED_EDGE('',*,*,#124,.T.);
#237=ORIENTED_EDGE('',*,*,#148,.T.);
#238=EDGE_LOOP('',(#218,#225,#226,#227,#228,#235,#236,#237));
#239=FACE_BOUND('',#238,.T.);
#240=ADVANCED_FACE('',(#217,#239),#197,.F.);
#241=CARTESIAN_POINT('',(0.,0.,0.));
#242=DIRECTION('',(1.,0.,0.));
#243=DIRECTION('',(0.,0.,-1.));
#244=AXIS2_PLACEMENT_3D('',#241,#242,#243);
#245=CONICAL_SURFACE('',#244,2.0095,45.);
#246=CARTESIAN_POINT('',(0.4905,0.,2.5));
#247=VERTEX_POINT('',#246);
#248=CARTESIAN_POINT('',(0.4905,0.,2.5));
#249=DIRECTION('',(-0.707106781,-0.,-0.707106781));
#250=VECTOR('',#249,0.693671752);
#251=LINE('',#248,#250);
#252=EDGE_CURVE('',#247,#199,#251,.T.);
#253=ORIENTED_EDGE('',*,*,#252,.T.);
#254=ORIENTED_EDGE('',*,*,#207,.T.);
#255=CARTESIAN_POINT('',(0.4905,-0.,-2.5));
#256=VERTEX_POINT('',#255);
#257=CARTESIAN_POINT('',(0.4905,0.,-2.5));
#258=DIRECTION('',(-0.707106781,-0.,0.707106781));
#259=VECTOR('',#258,0.693671752);
#260=LINE('',#257,#259);
#261=EDGE_CURVE('',#256,#201,#260,.T.);
#262=ORIENTED_EDGE('',*,*,#261,.F.);
#263=CARTESIAN_POINT('',(0.4905,0.,0.));
#264=DIRECTION('',(1.,0.,0.));
#265=DIRECTION('',(0.,0.,-1.));
#266=AXIS2_PLACEMENT_3D('',#263,#264,#265);
#267=CIRCLE('',#266,2.5);
#268=EDGE_CURVE('',#247,#256,#267,.T.);
#269=ORIENTED_EDGE('',*,*,#268,.F.);
#270=EDGE_LOOP('',(#253,#254,#262,#269));
#271=FACE_BOUND('',#270,.T.);
#272=ADVANCED_FACE('',(#271),#245,.T.);
#273=CARTESIAN_POINT('',(12.,0.,0.));
#274=DIRECTION('',(1.,0.,0.));
#275=DIRECTION('',(0.,0.,-1.));
#276=AXIS2_PLACEMENT_3D('',#273,#274,#275);
#277=CYLINDRICAL_SURFACE('',#276,2.5);
#278=CARTESIAN_POINT('',(10.75,0.,2.5));
#279=VERTEX_POINT('',#278);
#280=CARTESIAN_POINT('',(10.75,0.,2.5));
#281=DIRECTION('',(-1.,-0.,0.));
#282=VECTOR('',#281,10.2595);
#283=LINE('',#280,#282);
#284=EDGE_CURVE('',#279,#247,#283,.T.);
#285=ORIENTED_EDGE('',*,*,#284,.T.);
#286=ORIENTED_EDGE('',*,*,#268,.T.);
#287=CARTESIAN_POINT('',(10.75,-0.,-2.5));
#288=VERTEX_POINT('',#287);
#289=CARTESIAN_POINT('',(10.75,0.,-2.5));
#290=DIRECTION('',(-1.,-0.,0.));
#291=VECTOR('',#290,10.2595);
#292=LINE('',#289,#291);
#293=EDGE_CURVE('',#288,#256,#292,.T.);
#294=ORIENTED_EDGE('',*,*,#293,.F.);
#295=CARTESIAN_POINT('',(10.75,0.,0.));
#296=DIRECTION('',(1.,0.,0.));
#297=DIRECTION('',(0.,0.,-1.));
#298=AXIS2_PLACEMENT_3D('',#295,#296,#297);
#299=CIRCLE('',#298,2.5);
#300=EDGE_CURVE('',#279,#288,#299,.T.);
#301=ORIENTED_EDGE('',*,*,#300,.F.);
#302=EDGE_LOOP('',(#285,#286,#294,#301));
#303=FACE_BOUND('',#302,.T.);
#304=ADVANCED_FACE('',(#303),#277,.T.);
#305=CARTESIAN_POINT('',(10.75,0.,0.));
#306=DIRECTION('',(-1.,0.,0.));
#307=DIRECTION('',(0.,0.,1.));
#308=AXIS2_PLACEMENT_3D('',#305,#306,#307);
#309=CONICAL_SURFACE('',#308,2.5,45.);
#310=CARTESIAN_POINT('',(12.,0.,-1.25));
#311=VERTEX_POINT('',#310);
#312=CARTESIAN_POINT('',(10.75,0.,-2.5));
#313=DIRECTION('',(0.707106781,-0.,0.707106781));
#314=VECTOR('',#313,1.767766953);
#315=LINE('',#312,#314);
#316=EDGE_CURVE('',#288,#311,#315,.T.);
#317=ORIENTED_EDGE('',*,*,#316,.T.);
#318=CARTESIAN_POINT('',(12.,-0.,1.25));
#319=VERTEX_POINT('',#318);
#320=CARTESIAN_POINT('',(12.,0.,0.));
#321=DIRECTION('',(1.,0.,0.));
#322=DIRECTION('',(0.,0.,-1.));
#323=AXIS2_PLACEMENT_3D('',#320,#321,#322);
#324=CIRCLE('',#323,1.25);
#325=EDGE_CURVE('',#319,#311,#324,.T.);
#326=ORIENTED_EDGE('',*,*,#325,.F.);
#327=CARTESIAN_POINT('',(10.75,0.,2.5));
#328=DIRECTION('',(0.707106781,0.,-0.707106781));
#329=VECTOR('',#328,1.767766953);
#330=LINE('',#327,#329);
#331=EDGE_CURVE('',#279,#319,#330,.T.);
#332=ORIENTED_EDGE('',*,*,#331,.F.);
#333=ORIENTED_EDGE('',*,*,#300,.T.);
#334=EDGE_LOOP('',(#317,#326,#332,#333));
#335=FACE_BOUND('',#334,.T.);
#336=ADVANCED_FACE('',(#335),#309,.T.);
#337=CARTESIAN_POINT('',(12.,0.,0.));
#338=DIRECTION('',(1.,0.,0.));
#339=DIRECTION('',(0.,0.,-1.));
#340=AXIS2_PLACEMENT_3D('',#337,#338,#339);
#341=CONICAL_SURFACE('',#340,1.25,60.);
#342=CARTESIAN_POINT('',(11.278312164,0.,0.));
#343=VERTEX_POINT('',#342);
#344=CARTESIAN_POINT('',(12.,0.,1.25));
#345=DIRECTION('',(-0.5,-0.,-0.866025404));
#346=VECTOR('',#345,1.443375673);
#347=LINE('',#344,#346);
#348=EDGE_CURVE('',#319,#343,#347,.T.);
#349=ORIENTED_EDGE('',*,*,#348,.F.);
#350=ORIENTED_EDGE('',*,*,#325,.T.);
#351=CARTESIAN_POINT('',(12.,0.,-1.25));
#352=DIRECTION('',(-0.5,-0.,0.866025404));
#353=VECTOR('',#352,1.443375673);
#354=LINE('',#351,#353);
#355=EDGE_CURVE('',#311,#343,#354,.T.);
#356=ORIENTED_EDGE('',*,*,#355,.T.);
#357=EDGE_LOOP('',(#349,#350,#356));
#358=FACE_BOUND('',#357,.T.);
#359=ADVANCED_FACE('',(#358),#341,.F.);
#360=CARTESIAN_POINT('',(3.,1.25,0.721687836));
#361=DIRECTION('',(0.,-0.5,-0.866025404));
#362=DIRECTION('',(0.,0.866025404,-0.5));
#363=AXIS2_PLACEMENT_3D('',#360,#361,#362);
#364=PLANE('',#363);
#365=CARTESIAN_POINT('',(3.,1.25,0.721687836));
#366=VERTEX_POINT('',#365);
#367=CARTESIAN_POINT('',(3.,1.25,0.721687836));
#368=DIRECTION('',(-1.,0.,-0.));
#369=VECTOR('',#368,3.);
#370=LINE('',#367,#369);
#371=EDGE_CURVE('',#366,#33,#370,.T.);
#372=ORIENTED_EDGE('',*,*,#371,.F.);
#373=CARTESIAN_POINT('',(3.,0.,1.443375673));
#374=VERTEX_POINT('',#373);
#375=CARTESIAN_POINT('',(3.,1.25,0.721687836));
#376=DIRECTION('',(0.,-0.866025404,0.5));
#377=VECTOR('',#376,1.443375673);
#378=LINE('',#375,#377);
#379=EDGE_CURVE('',#366,#374,#378,.T.);
#380=ORIENTED_EDGE('',*,*,#379,.T.);
#381=CARTESIAN_POINT('',(3.,0.,1.443375673));
#382=DIRECTION('',(-1.,0.,0.));
#383=VECTOR('',#382,3.);
#384=LINE('',#381,#383);
#385=EDGE_CURVE('',#374,#35,#384,.T.);
#386=ORIENTED_EDGE('',*,*,#385,.T.);
#387=ORIENTED_EDGE('',*,*,#48,.F.);
#388=EDGE_LOOP('',(#372,#380,#386,#387));
#389=FACE_BOUND('',#388,.T.);
#390=ADVANCED_FACE('',(#389),#364,.T.);
#391=CARTESIAN_POINT('',(3.,0.,1.443375673));
#392=DIRECTION('',(0.,0.5,-0.866025404));
#393=DIRECTION('',(0.,0.866025404,0.5));
#394=AXIS2_PLACEMENT_3D('',#391,#392,#393);
#395=PLANE('',#394);
#396=ORIENTED_EDGE('',*,*,#385,.F.);
#397=CARTESIAN_POINT('',(3.,-1.25,0.721687836));
#398=VERTEX_POINT('',#397);
#399=CARTESIAN_POINT('',(3.,0.,1.443375673));
#400=DIRECTION('',(0.,-0.866025404,-0.5));
#401=VECTOR('',#400,1.443375673);
#402=LINE('',#399,#401);
#403=EDGE_CURVE('',#374,#398,#402,.T.);
#404=ORIENTED_EDGE('',*,*,#403,.T.);
#405=CARTESIAN_POINT('',(3.,-1.25,0.721687836));
#406=DIRECTION('',(-1.,0.,0.));
#407=VECTOR('',#406,3.);
#408=LINE('',#405,#407);
#409=EDGE_CURVE('',#398,#59,#408,.T.);
#410=ORIENTED_EDGE('',*,*,#409,.T.);
#411=ORIENTED_EDGE('',*,*,#72,.F.);
#412=EDGE_LOOP('',(#396,#404,#410,#411));
#413=FACE_BOUND('',#412,.T.);
#414=ADVANCED_FACE('',(#413),#395,.T.);
#415=CARTESIAN_POINT('',(3.,-1.25,0.721687836));
#416=DIRECTION('',(0.,1.,0.));
#417=DIRECTION('',(0.,0.,1.));
#418=AXIS2_PLACEMENT_3D('',#415,#416,#417);
#419=PLANE('',#418);
#420=ORIENTED_EDGE('',*,*,#409,.F.);
#421=CARTESIAN_POINT('',(3.,-1.25,-0.721687836));
#422=VERTEX_POINT('',#421);
#423=CARTESIAN_POINT('',(3.,-1.25,0.721687836));
#424=DIRECTION('',(0.,0.,-1.));
#425=VECTOR('',#424,1.443375673);
#426=LINE('',#423,#425);
#427=EDGE_CURVE('',#398,#422,#426,.T.);
#428=ORIENTED_EDGE('',*,*,#427,.T.);
#429=CARTESIAN_POINT('',(3.,-1.25,-0.721687836));
#430=DIRECTION('',(-1.,0.,0.));
#431=VECTOR('',#430,3.);
#432=LINE('',#429,#431);
#433=EDGE_CURVE('',#422,#116,#432,.T.);
#434=ORIENTED_EDGE('',*,*,#433,.T.);
#435=CARTESIAN_POINT('',(0.,-1.25,0.721687836));
#436=CARTESIAN_POINT('',(0.06776083,-1.25,0.486957436));
#437=CARTESIAN_POINT('',(0.155474104,-1.25,-0.003494478));
#438=CARTESIAN_POINT('',(0.067870428,-1.25,-0.486577776));
#439=CARTESIAN_POINT('',(0.,-1.25,-0.721687836));
#440=B_SPLINE_CURVE_WITH_KNOTS('',3,(#435,#436,#437,#438,#439),.UNSPECIFIED.,.F.,.F.,(4,1,4),(0.001818382,0.00255323,0.003288078),.UNSPECIFIED.);
#441=EDGE_CURVE('',#85,#116,#440,.T.);
#442=ORIENTED_EDGE('',*,*,#441,.F.);
#443=ORIENTED_EDGE('',*,*,#105,.F.);
#444=EDGE_LOOP('',(#420,#428,#434,#442,#443));
#445=FACE_BOUND('',#444,.T.);
#446=ADVANCED_FACE('',(#445),#419,.T.);
#447=CARTESIAN_POINT('',(3.,-1.25,-0.721687836));
#448=DIRECTION('',(0.,0.5,0.866025404));
#449=DIRECTION('',(0.,-0.866025404,0.5));
#450=AXIS2_PLACEMENT_3D('',#447,#448,#449);
#451=PLANE('',#450);
#452=ORIENTED_EDGE('',*,*,#433,.F.);
#453=CARTESIAN_POINT('',(3.,-0.,-1.443375673));
#454=VERTEX_POINT('',#453);
#455=CARTESIAN_POINT('',(3.,-1.25,-0.721687836));
#456=DIRECTION('',(0.,0.866025404,-0.5));
#457=VECTOR('',#456,1.443375673);
#458=LINE('',#455,#457);
#459=EDGE_CURVE('',#422,#454,#458,.T.);
#460=ORIENTED_EDGE('',*,*,#459,.T.);
#461=CARTESIAN_POINT('',(3.,-0.,-1.443375673));
#462=DIRECTION('',(-1.,0.,0.));
#463=VECTOR('',#462,3.);
#464=LINE('',#461,#463);
#465=EDGE_CURVE('',#454,#118,#464,.T.);
#466=ORIENTED_EDGE('',*,*,#465,.T.);
#467=ORIENTED_EDGE('',*,*,#131,.F.);
#468=EDGE_LOOP('',(#452,#460,#466,#467));
#469=FACE_BOUND('',#468,.T.);
#470=ADVANCED_FACE('',(#469),#451,.T.);
#471=CARTESIAN_POINT('',(3.,-0.,-1.443375673));
#472=DIRECTION('',(0.,-0.5,0.866025404));
#473=DIRECTION('',(0.,-0.866025404,-0.5));
#474=AXIS2_PLACEMENT_3D('',#471,#472,#473);
#475=PLANE('',#474);
#476=ORIENTED_EDGE('',*,*,#465,.F.);
#477=CARTESIAN_POINT('',(3.,1.25,-0.721687836));
#478=VERTEX_POINT('',#477);
#479=CARTESIAN_POINT('',(3.,-0.,-1.443375673));
#480=DIRECTION('',(0.,0.866025404,0.5));
#481=VECTOR('',#480,1.443375673);
#482=LINE('',#479,#481);
#483=EDGE_CURVE('',#454,#478,#482,.T.);
#484=ORIENTED_EDGE('',*,*,#483,.T.);
#485=CARTESIAN_POINT('',(3.,1.25,-0.721687836));
#486=DIRECTION('',(-1.,0.,0.));
#487=VECTOR('',#486,3.);
#488=LINE('',#485,#487);
#489=EDGE_CURVE('',#478,#142,#488,.T.);
#490=ORIENTED_EDGE('',*,*,#489,.T.);
#491=ORIENTED_EDGE('',*,*,#155,.F.);
#492=EDGE_LOOP('',(#476,#484,#490,#491));
#493=FACE_BOUND('',#492,.T.);
#494=ADVANCED_FACE('',(#493),#475,.T.);
#495=CARTESIAN_POINT('',(3.,1.25,-0.721687836));
#496=DIRECTION('',(0.,-1.,0.));
#497=DIRECTION('',(0.,0.,-1.));
#498=AXIS2_PLACEMENT_3D('',#495,#496,#497);
#499=PLANE('',#498);
#500=ORIENTED_EDGE('',*,*,#489,.F.);
#501=CARTESIAN_POINT('',(3.,1.25,-0.721687836));
#502=DIRECTION('',(0.,0.,1.));
#503=VECTOR('',#502,1.443375673);
#504=LINE('',#501,#503);
#505=EDGE_CURVE('',#478,#366,#504,.T.);
#506=ORIENTED_EDGE('',*,*,#505,.T.);
#507=ORIENTED_EDGE('',*,*,#371,.T.);
#508=CARTESIAN_POINT('',(-0.,1.25,-0.721687836));
#509=CARTESIAN_POINT('',(0.06776083,1.25,-0.486957436));
#510=CARTESIAN_POINT('',(0.155474104,1.25,0.003494478));
#511=CARTESIAN_POINT('',(0.067870428,1.25,0.486577776));
#512=CARTESIAN_POINT('',(0.,1.25,0.721687836));
#513=B_SPLINE_CURVE_WITH_KNOTS('',3,(#508,#509,#510,#511,#512),.UNSPECIFIED.,.F.,.F.,(4,1,4),(0.001818382,0.00255323,0.003288078),.UNSPECIFIED.);
#514=EDGE_CURVE('',#168,#33,#513,.T.);
#515=ORIENTED_EDGE('',*,*,#514,.F.);
#516=ORIENTED_EDGE('',*,*,#188,.F.);
#517=EDGE_LOOP('',(#500,#506,#507,#515,#516));
#518=FACE_BOUND('',#517,.T.);
#519=ADVANCED_FACE('',(#518),#499,.T.);
#520=CARTESIAN_POINT('',(3.,0.,0.));
#521=DIRECTION('',(1.,0.,0.));
#522=DIRECTION('',(0.,0.,-1.));
#523=AXIS2_PLACEMENT_3D('',#520,#521,#522);
#524=PLANE('',#523);
#525=CARTESIAN_POINT('',(3.,-0.,-1.5));
#526=VERTEX_POINT('',#525);
#527=CARTESIAN_POINT('',(3.,0.,1.5));
#528=VERTEX_POINT('',#527);
#529=CARTESIAN_POINT('',(3.,0.,0.));
#530=DIRECTION('',(1.,0.,0.));
#531=DIRECTION('',(0.,0.,-1.));
#532=AXIS2_PLACEMENT_3D('',#529,#530,#531);
#533=CIRCLE('',#532,1.5);
#534=EDGE_CURVE('',#526,#528,#533,.T.);
#535=ORIENTED_EDGE('',*,*,#534,.T.);
#536=CARTESIAN_POINT('',(3.,0.,0.));
#537=DIRECTION('',(1.,0.,0.));
#538=DIRECTION('',(0.,0.,-1.));
#539=AXIS2_PLACEMENT_3D('',#536,#537,#538);
#540=CIRCLE('',#539,1.5);
#541=EDGE_CURVE('',#528,#526,#540,.T.);
#542=ORIENTED_EDGE('',*,*,#541,.T.);
#543=EDGE_LOOP('',(#535,#542));
#544=FACE_BOUND('',#543,.T.);
#545=ORIENTED_EDGE('',*,*,#379,.F.);
#546=ORIENTED_EDGE('',*,*,#505,.F.);
#547=ORIENTED_EDGE('',*,*,#483,.F.);
#548=ORIENTED_EDGE('',*,*,#459,.F.);
#549=ORIENTED_EDGE('',*,*,#427,.F.);
#550=ORIENTED_EDGE('',*,*,#403,.F.);
#551=EDGE_LOOP('',(#545,#546,#547,#548,#549,#550));
#552=FACE_BOUND('',#551,.T.);
#553=ADVANCED_FACE('',(#544,#552),#524,.T.);
#554=CARTESIAN_POINT('',(3.,0.,0.));
#555=DIRECTION('',(-1.,0.,0.));
#556=DIRECTION('',(0.,0.,1.));
#557=AXIS2_PLACEMENT_3D('',#554,#555,#556);
#558=CONICAL_SURFACE('',#557,1.5,60.);
#559=CARTESIAN_POINT('',(3.866025404,0.,0.));
#560=VERTEX_POINT('',#559);
#561=CARTESIAN_POINT('',(3.,0.,-1.5));
#562=DIRECTION('',(0.5,-0.,0.866025404));
#563=VECTOR('',#562,1.732050808);
#564=LINE('',#561,#563);
#565=EDGE_CURVE('',#526,#560,#564,.T.);
#566=ORIENTED_EDGE('',*,*,#565,.F.);
#567=ORIENTED_EDGE('',*,*,#541,.F.);
#568=CARTESIAN_POINT('',(3.,0.,1.5));
#569=DIRECTION('',(0.5,0.,-0.866025404));
#570=VECTOR('',#569,1.732050808);
#571=LINE('',#568,#570);
#572=EDGE_CURVE('',#528,#560,#571,.T.);
#573=ORIENTED_EDGE('',*,*,#572,.T.);
#574=EDGE_LOOP('',(#566,#567,#573));
#575=FACE_BOUND('',#574,.T.);
#576=ADVANCED_FACE('',(#575),#558,.F.);
#577=CARTESIAN_POINT('',(0.,0.,0.));
#578=DIRECTION('',(-1.,-0.,0.));
#579=DIRECTION('',(0.,-1.,0.));
#580=AXIS2_PLACEMENT_3D('',#577,#578,#579);
#581=CONICAL_SURFACE('',#580,1.443375673,60.);
#582=ORIENTED_EDGE('',*,*,#90,.T.);
#583=ORIENTED_EDGE('',*,*,#441,.T.);
#584=ORIENTED_EDGE('',*,*,#234,.F.);
#585=EDGE_LOOP('',(#582,#583,#584));
#586=FACE_BOUND('',#585,.T.);
#587=ADVANCED_FACE('',(#586),#581,.F.);
#588=CARTESIAN_POINT('',(0.,0.,0.));
#589=DIRECTION('',(-1.,-0.,0.));
#590=DIRECTION('',(0.,-1.,0.));
#591=AXIS2_PLACEMENT_3D('',#588,#589,#590);
#592=CONICAL_SURFACE('',#591,1.443375673,60.);
#593=ORIENTED_EDGE('',*,*,#173,.T.);
#594=ORIENTED_EDGE('',*,*,#514,.T.);
#595=ORIENTED_EDGE('',*,*,#224,.F.);
#596=EDGE_LOOP('',(#593,#594,#595));
#597=FACE_BOUND('',#596,.T.);
#598=ADVANCED_FACE('',(#597),#592,.F.);
#599=CARTESIAN_POINT('',(0.,0.,0.));
#600=DIRECTION('',(1.,0.,0.));
#601=DIRECTION('',(0.,0.,-1.));
#602=AXIS2_PLACEMENT_3D('',#599,#600,#601);
#603=CONICAL_SURFACE('',#602,2.0095,45.);
#604=ORIENTED_EDGE('',*,*,#252,.F.);
#605=CARTESIAN_POINT('',(0.4905,0.,0.));
#606=DIRECTION('',(1.,0.,0.));
#607=DIRECTION('',(0.,0.,-1.));
#608=AXIS2_PLACEMENT_3D('',#605,#606,#607);
#609=CIRCLE('',#608,2.5);
#610=EDGE_CURVE('',#256,#247,#609,.T.);
#611=ORIENTED_EDGE('',*,*,#610,.F.);
#612=ORIENTED_EDGE('',*,*,#261,.T.);
#613=ORIENTED_EDGE('',*,*,#214,.T.);
#614=EDGE_LOOP('',(#604,#611,#612,#613));
#615=FACE_BOUND('',#614,.T.);
#616=ADVANCED_FACE('',(#615),#603,.T.);
#617=CARTESIAN_POINT('',(12.,0.,0.));
#618=DIRECTION('',(1.,0.,0.));
#619=DIRECTION('',(0.,0.,-1.));
#620=AXIS2_PLACEMENT_3D('',#617,#618,#619);
#621=CYLINDRICAL_SURFACE('',#620,2.5);
#622=ORIENTED_EDGE('',*,*,#284,.F.);
#623=CARTESIAN_POINT('',(10.75,0.,0.));
#624=DIRECTION('',(1.,0.,0.));
#625=DIRECTION('',(0.,0.,-1.));
#626=AXIS2_PLACEMENT_3D('',#623,#624,#625);
#627=CIRCLE('',#626,2.5);
#628=EDGE_CURVE('',#288,#279,#627,.T.);
#629=ORIENTED_EDGE('',*,*,#628,.F.);
#630=ORIENTED_EDGE('',*,*,#293,.T.);
#631=ORIENTED_EDGE('',*,*,#610,.T.);
#632=EDGE_LOOP('',(#622,#629,#630,#631));
#633=FACE_BOUND('',#632,.T.);
#634=ADVANCED_FACE('',(#633),#621,.T.);
#635=CARTESIAN_POINT('',(10.75,0.,0.));
#636=DIRECTION('',(-1.,0.,0.));
#637=DIRECTION('',(0.,0.,1.));
#638=AXIS2_PLACEMENT_3D('',#635,#636,#637);
#639=CONICAL_SURFACE('',#638,2.5,45.);
#640=ORIENTED_EDGE('',*,*,#316,.F.);
#641=ORIENTED_EDGE('',*,*,#628,.T.);
#642=ORIENTED_EDGE('',*,*,#331,.T.);
#643=CARTESIAN_POINT('',(12.,0.,0.));
#644=DIRECTION('',(1.,0.,0.));
#645=DIRECTION('',(0.,0.,-1.));
#646=AXIS2_PLACEMENT_3D('',#643,#644,#645);
#647=CIRCLE('',#646,1.25);
#648=EDGE_CURVE('',#311,#319,#647,.T.);
#649=ORIENTED_EDGE('',*,*,#648,.F.);
#650=EDGE_LOOP('',(#640,#641,#642,#649));
#651=FACE_BOUND('',#650,.T.);
#652=ADVANCED_FACE('',(#651),#639,.T.);
#653=CARTESIAN_POINT('',(12.,0.,0.));
#654=DIRECTION('',(1.,0.,0.));
#655=DIRECTION('',(0.,0.,-1.));
#656=AXIS2_PLACEMENT_3D('',#653,#654,#655);
#657=CONICAL_SURFACE('',#656,1.25,60.);
#658=ORIENTED_EDGE('',*,*,#348,.T.);
#659=ORIENTED_EDGE('',*,*,#355,.F.);
#660=ORIENTED_EDGE('',*,*,#648,.T.);
#661=EDGE_LOOP('',(#658,#659,#660));
#662=FACE_BOUND('',#661,.T.);
#663=ADVANCED_FACE('',(#662),#657,.F.);
#664=CARTESIAN_POINT('',(3.,0.,0.));
#665=DIRECTION('',(-1.,0.,0.));
#666=DIRECTION('',(0.,0.,1.));
#667=AXIS2_PLACEMENT_3D('',#664,#665,#666);
#668=CONICAL_SURFACE('',#667,1.5,60.);
#669=ORIENTED_EDGE('',*,*,#565,.T.);
#670=ORIENTED_EDGE('',*,*,#572,.F.);
#671=ORIENTED_EDGE('',*,*,#534,.F.);
#672=EDGE_LOOP('',(#669,#670,#671));
#673=FACE_BOUND('',#672,.T.);
#674=ADVANCED_FACE('',(#673),#668,.F.);
#675=CLOSED_SHELL('',(#52,#76,#109,#135,#159,#192,#240,#272,#304,#336,#359,#390,#414,#446,#470,#494,#519,#553,#576,#587,#598,#616,#634,#652,#663,#674));
#676=MANIFOLD_SOLID_BREP('Slotted set screw DIN 916 M5x12 07850.050.012(High)',#675);
#677=COLOUR_RGB('',0.686274529,0.686274529,0.686274529);
#678=FILL_AREA_STYLE_COLOUR('',#677);
#679=FILL_AREA_STYLE('',(#678));
#680=SURFACE_STYLE_FILL_AREA(#679);
#681=SURFACE_SIDE_STYLE('',(#680));
#682=SURFACE_STYLE_USAGE(.BOTH.,#681);
#683=PRESENTATION_STYLE_ASSIGNMENT((#682));
#26=STYLED_ITEM('',(#683),#676);
#684=INTEGER_REPRESENTATION_ITEM('ATTRIB_BOUNDING_BOX_ALGORITHM',3);
#685=ID_ATTRIBUTE('SA #686',#686);
#686=SHAPE_ASPECT('properties','',#23,.F.);
#687=GEOMETRIC_ITEM_SPECIFIC_USAGE('','properties',#686,#17,#676);
#688=PROPERTY_DEFINITION('ATTRIB_BOUNDING_BOX_ALGORITHM','',#686);
#689=REPRESENTATION('',(#684),#10);
#690=PROPERTY_DEFINITION_REPRESENTATION(#688,#689);
#691=GENERAL_PROPERTY('','ATTRIB_BOUNDING_BOX_ALGORITHM','');
#692=GENERAL_PROPERTY_ASSOCIATION('','',#691,#688);
#16=SHAPE_REPRESENTATION('1376 M5x12 DIN 916 Steel Hexagon socket set screw with point',(#15),#10);
#17=ADVANCED_BREP_SHAPE_REPRESENTATION('1376 M5x12 DIN 916 Steel Hexagon socket set screw with point',(#676),#10);
#700=SHAPE_REPRESENTATION_RELATIONSHIP('','',#16,#17);
#701=CARTESIAN_POINT('',(0.,0.,0.));
#702=DIRECTION('',(0.,0.,1.));
#703=DIRECTION('',(1.,0.,0.));
#704=AXIS2_PLACEMENT_3D('',#701,#702,#703);
#706=MAPPED_ITEM('',#705,#704);
#705=REPRESENTATION_MAP(#704,#16);
#707=APPLICATION_CONTEXT('Managed model based 3d engineering');
#708=APPLICATION_PROTOCOL_DEFINITION('international standard','ap242_managed_model_based_3d_engineering',2013,#707);
#709=PRODUCT_CONTEXT('',#707,'mechanical');
#710=PRODUCT_DEFINITION_CONTEXT('part definition',#707,'design');
#24=PRODUCT('1376 M5x12 DIN 916 Steel Hexagon socket set screw with point','1376 M5x12 DIN 916 Steel Hexagon socket set screw with point','',(#709));
#711=PRODUCT_RELATED_PRODUCT_CATEGORY('part','',(#24));
#712=PRODUCT_DEFINITION_FORMATION_WITH_SPECIFIED_SOURCE('','',#24,.NOT_KNOWN.);
#25=PRODUCT_DEFINITION('design','',#712,#710);
#23=PRODUCT_DEFINITION_SHAPE('','',#25);
#713=SHAPE_DEFINITION_REPRESENTATION(#23,#16);
#11=DRAUGHTING_MODEL('',(#706),#10);
#1=MECHANICAL_DESIGN_GEOMETRIC_PRESENTATION_REPRESENTATION('',(#26),#10);
ENDSEC;
END-ISO-10303-21;
