ISO-10303-21;
HEADER;
/* Generated by software containing ST-Developer
 * from STEP Tools, Inc. (www.steptools.com) 
 */

FILE_DESCRIPTION(
/* description */ ('Alibre Inc.'),
/* implementation_level */ '2;1');

FILE_NAME(
/* name */ 'export-DE162482-4235-411D-8B69-F7EB3DEB9D62',
/* time_stamp */ '2020-03-20T12:08:44+01:00',
/* author */ (''),
/* organization */ (''),
/* preprocessor_version */ 'ST-DEVELOPER v17',
/* originating_system */ 'Alibre',
/* authorisation */ '');

FILE_SCHEMA (('AUTOMOTIVE_DESIGN'));
ENDSEC;

DATA;
#10=STYLED_ITEM('NAME_0',(#18),#113);
#11=MECHANICAL_DESIGN_GEOMETRIC_PRESENTATION_REPRESENTATION('NAME_0',(#10),
#33);
#12=COLOUR_RGB('',0.882352941176471,0.882352941176471,0.882352941176471);
#13=FILL_AREA_STYLE_COLOUR('NAME_0',#12);
#14=FILL_AREA_STYLE('NAME_0',(#13));
#15=SURFACE_STYLE_FILL_AREA(#14);
#16=SURFACE_SIDE_STYLE('NAME_0',(#15));
#17=SURFACE_STYLE_USAGE(.POSITIVE.,#16);
#18=PRESENTATION_STYLE_ASSIGNMENT((#17));
#19=PRODUCT_DEFINITION_CONTEXT('part definition',#26,'design');
#20=SHAPE_DEFINITION_REPRESENTATION(#21,#114);
#21=PRODUCT_DEFINITION_SHAPE('PRODUCT_VERSION_ID',
'PRODUCT_VERSION_DESCR',#22);
#22=PRODUCT_DEFINITION('PRODUCT_VERSION_ID','PRODUCT_VERSION_DESCR',#23,
#19);
#23=PRODUCT_DEFINITION_FORMATION_WITH_SPECIFIED_SOURCE(
'PRODUCT_VERSION_ID','PRODUCT_VERSION_DESCR',#28,.MADE.);
#24=PRODUCT_RELATED_PRODUCT_CATEGORY('part','part',(#28));
#25=APPLICATION_PROTOCOL_DEFINITION('Draft International Standard',
'automotive_design',1994,#26);
#26=APPLICATION_CONTEXT('automotive_Design');
#27=PRODUCT_CONTEXT('3D Mechanical Parts',#26,'mechanical');
#28=PRODUCT('','1426 M12 Washer DIN-125A','',(#27));
#29=(
LENGTH_UNIT()
NAMED_UNIT(*)
SI_UNIT(.CENTI.,.METRE.)
);
#30=(
NAMED_UNIT(*)
PLANE_ANGLE_UNIT()
SI_UNIT($,.RADIAN.)
);
#31=(
NAMED_UNIT(*)
SI_UNIT($,.STERADIAN.)
SOLID_ANGLE_UNIT()
);
#32=UNCERTAINTY_MEASURE_WITH_UNIT(LENGTH_MEASURE(1.E-6),#29,
'DISTANCE_ACCURACY_VALUE',
'Maximum model space distance between geometric entities at asserted c
onnectivities');
#33=(
GEOMETRIC_REPRESENTATION_CONTEXT(3)
GLOBAL_UNCERTAINTY_ASSIGNED_CONTEXT((#32))
GLOBAL_UNIT_ASSIGNED_CONTEXT((#31,#30,#29))
REPRESENTATION_CONTEXT('ID1','3D')
);
#34=PLANE('',#82);
#35=PLANE('',#83);
#36=VERTEX_POINT('',#100);
#37=VERTEX_POINT('',#102);
#38=VERTEX_POINT('',#105);
#39=VERTEX_POINT('',#107);
#40=CIRCLE('',#77,1.2);
#41=CIRCLE('',#78,1.2);
#42=CIRCLE('',#80,0.65);
#43=CIRCLE('',#81,0.65);
#44=EDGE_CURVE('',#36,#36,#40,.T.);
#45=EDGE_CURVE('',#37,#37,#41,.T.);
#46=EDGE_CURVE('',#38,#38,#42,.T.);
#47=EDGE_CURVE('',#39,#39,#43,.T.);
#48=ORIENTED_EDGE('',*,*,#44,.T.);
#49=ORIENTED_EDGE('',*,*,#45,.T.);
#50=ORIENTED_EDGE('',*,*,#46,.T.);
#51=ORIENTED_EDGE('',*,*,#47,.F.);
#52=ORIENTED_EDGE('',*,*,#46,.F.);
#53=ORIENTED_EDGE('',*,*,#44,.F.);
#54=ORIENTED_EDGE('',*,*,#47,.T.);
#55=ORIENTED_EDGE('',*,*,#45,.F.);
#56=EDGE_LOOP('',(#48));
#57=EDGE_LOOP('',(#49));
#58=EDGE_LOOP('',(#50));
#59=EDGE_LOOP('',(#51));
#60=EDGE_LOOP('',(#52));
#61=EDGE_LOOP('',(#53));
#62=EDGE_LOOP('',(#54));
#63=EDGE_LOOP('',(#55));
#64=FACE_BOUND('',#56,.T.);
#65=FACE_BOUND('',#57,.T.);
#66=FACE_BOUND('',#58,.T.);
#67=FACE_BOUND('',#59,.T.);
#68=FACE_BOUND('',#60,.T.);
#69=FACE_BOUND('',#61,.T.);
#70=FACE_BOUND('',#62,.T.);
#71=FACE_BOUND('',#63,.T.);
#72=ADVANCED_FACE('',(#64,#65),#110,.T.);
#73=ADVANCED_FACE('',(#66,#67),#111,.F.);
#74=ADVANCED_FACE('',(#68,#69),#34,.T.);
#75=ADVANCED_FACE('',(#70,#71),#35,.F.);
#76=AXIS2_PLACEMENT_3D('',#98,#84,#85);
#77=AXIS2_PLACEMENT_3D('',#99,#86,#87);
#78=AXIS2_PLACEMENT_3D('',#101,#88,#89);
#79=AXIS2_PLACEMENT_3D('',#103,#90,#91);
#80=AXIS2_PLACEMENT_3D('',#104,#92,#93);
#81=AXIS2_PLACEMENT_3D('',#106,#94,#95);
#82=AXIS2_PLACEMENT_3D('',#108,#96,$);
#83=AXIS2_PLACEMENT_3D('',#109,#97,$);
#84=DIRECTION('',(0.,0.,1.));
#85=DIRECTION('',(1.2,0.,0.));
#86=DIRECTION('',(0.,0.,-1.));
#87=DIRECTION('',(1.2,0.,0.));
#88=DIRECTION('',(0.,0.,1.));
#89=DIRECTION('',(1.2,0.,0.));
#90=DIRECTION('',(0.,0.,1.));
#91=DIRECTION('',(0.65,0.,0.));
#92=DIRECTION('',(0.,0.,1.));
#93=DIRECTION('',(0.65,0.,0.));
#94=DIRECTION('',(0.,0.,1.));
#95=DIRECTION('',(0.65,0.,0.));
#96=DIRECTION('',(0.,0.,1.));
#97=DIRECTION('',(0.,0.,1.));
#98=CARTESIAN_POINT('',(0.,0.,0.));
#99=CARTESIAN_POINT('',(0.,0.,0.25));
#100=CARTESIAN_POINT('',(1.2,0.,0.25));
#101=CARTESIAN_POINT('',(0.,0.,0.));
#102=CARTESIAN_POINT('',(1.2,0.,0.));
#103=CARTESIAN_POINT('',(0.,0.,0.));
#104=CARTESIAN_POINT('',(0.,0.,0.25));
#105=CARTESIAN_POINT('',(0.65,0.,0.25));
#106=CARTESIAN_POINT('',(0.,0.,0.));
#107=CARTESIAN_POINT('',(0.65,0.,0.));
#108=CARTESIAN_POINT('',(0.,0.,0.25));
#109=CARTESIAN_POINT('',(0.,0.,0.));
#110=CYLINDRICAL_SURFACE('',#76,1.2);
#111=CYLINDRICAL_SURFACE('',#79,0.65);
#112=CLOSED_SHELL('',(#72,#73,#74,#75));
#113=MANIFOLD_SOLID_BREP('',#112);
#114=ADVANCED_BREP_SHAPE_REPRESENTATION('',(#113),#33);
ENDSEC;
END-ISO-10303-21;
