ISO-10303-21;
HEADER;

/* File generated by Alibre Version V22 */

FILE_DESCRIPTION(('HOOPS Exchange Step'),'2;1');

FILE_NAME('C:\\Users\\Gebruiker\\AppData\\Local\\Temp\\Alibre Design\\export-FC0CC0E5-90DC-4EF1-B9E0-47A2C9E2E41E.stp',
'2021-04-26T12:25:31+02:00',
('Engineering'),
('Alibre'),
'HOOPS Exchange 2020.1',
'Alibre',
'Unknown authorisation');

FILE_SCHEMA( ('AP242_MANAGED_MODEL_BASED_3D_ENGINEERING_MIM_LF {1 0 10303 442 1 1 4 }') );

ENDSEC;

DATA;
#3=(NAMED_UNIT(*)PLANE_ANGLE_UNIT()SI_UNIT($,.RADIAN.));
#4=PLANE_ANGLE_MEASURE_WITH_UNIT(PLANE_ANGLE_MEASURE(0.0174532925),#3);
#5=(CONVERSION_BASED_UNIT('DEGREE',#4)NAMED_UNIT(#6)PLANE_ANGLE_UNIT());
#6=DIMENSIONAL_EXPONENTS(0.,0.,0.,0.,0.,0.,0.);
#7=(NAMED_UNIT(*)SI_UNIT($,.STERADIAN.)SOLID_ANGLE_UNIT());
#8=(LENGTH_UNIT()NAMED_UNIT(*)SI_UNIT(.MILLI.,.METRE.));
#9=UNCERTAINTY_MEASURE_WITH_UNIT(LENGTH_MEASURE(1.000000E-06),#8,'DISTANCE_ACCURACY_VALUE','Maximum Tolerance applied to model');
#10=(GEOMETRIC_REPRESENTATION_CONTEXT(3)GLOBAL_UNCERTAINTY_ASSIGNED_CONTEXT((#9))GLOBAL_UNIT_ASSIGNED_CONTEXT((#8,#5,#7))REPRESENTATION_CONTEXT('','1650 Spacer 12x17x20mm voor BF20L Z axis'));
#12=CARTESIAN_POINT('',(0.,0.,0.));
#13=DIRECTION('',(0.,0.,1.));
#14=DIRECTION('',(1.,0.,0.));
#15=AXIS2_PLACEMENT_3D('',#12,#13,#14);
#27=CARTESIAN_POINT('',(0.904067755,0.,0.));
#28=DIRECTION('',(0.,0.,1.));
#29=DIRECTION('',(1.,0.,-0.));
#30=AXIS2_PLACEMENT_3D('',#27,#28,#29);
#31=CYLINDRICAL_SURFACE('',#30,8.5);
#32=CARTESIAN_POINT('',(-7.595932245,0.,20.));
#33=VERTEX_POINT('',#32);
#34=CARTESIAN_POINT('',(-7.595932245,0.,0.));
#35=VERTEX_POINT('',#34);
#36=CARTESIAN_POINT('',(-7.595932245,0.,20.));
#37=DIRECTION('',(-0.,-0.,-1.));
#38=VECTOR('',#37,20.);
#39=LINE('',#36,#38);
#40=EDGE_CURVE('',#33,#35,#39,.T.);
#41=ORIENTED_EDGE('',*,*,#40,.T.);
#42=CARTESIAN_POINT('',(9.404067755,0.,0.));
#43=VERTEX_POINT('',#42);
#44=CARTESIAN_POINT('',(0.904067755,0.,0.));
#45=DIRECTION('',(0.,0.,1.));
#46=DIRECTION('',(1.,0.,-0.));
#47=AXIS2_PLACEMENT_3D('',#44,#45,#46);
#48=CIRCLE('',#47,8.5);
#49=EDGE_CURVE('',#35,#43,#48,.T.);
#50=ORIENTED_EDGE('',*,*,#49,.T.);
#51=CARTESIAN_POINT('',(0.904067755,0.,0.));
#52=DIRECTION('',(0.,0.,1.));
#53=DIRECTION('',(1.,0.,-0.));
#54=AXIS2_PLACEMENT_3D('',#51,#52,#53);
#55=CIRCLE('',#54,8.5);
#56=EDGE_CURVE('',#43,#35,#55,.T.);
#57=ORIENTED_EDGE('',*,*,#56,.T.);
#58=ORIENTED_EDGE('',*,*,#40,.F.);
#59=CARTESIAN_POINT('',(9.404067755,0.,20.));
#60=VERTEX_POINT('',#59);
#61=CARTESIAN_POINT('',(0.904067755,0.,20.));
#62=DIRECTION('',(0.,0.,-1.));
#63=DIRECTION('',(1.,0.,0.));
#64=AXIS2_PLACEMENT_3D('',#61,#62,#63);
#65=CIRCLE('',#64,8.5);
#66=EDGE_CURVE('',#33,#60,#65,.T.);
#67=ORIENTED_EDGE('',*,*,#66,.T.);
#68=CARTESIAN_POINT('',(0.904067755,0.,20.));
#69=DIRECTION('',(0.,0.,-1.));
#70=DIRECTION('',(1.,0.,0.));
#71=AXIS2_PLACEMENT_3D('',#68,#69,#70);
#72=CIRCLE('',#71,8.5);
#73=EDGE_CURVE('',#60,#33,#72,.T.);
#74=ORIENTED_EDGE('',*,*,#73,.T.);
#75=EDGE_LOOP('',(#41,#50,#57,#58,#67,#74));
#76=FACE_BOUND('',#75,.T.);
#77=ADVANCED_FACE('',(#76),#31,.T.);
#78=CARTESIAN_POINT('',(0.904067755,0.,0.));
#79=DIRECTION('',(0.,0.,1.));
#80=DIRECTION('',(1.,0.,-0.));
#81=AXIS2_PLACEMENT_3D('',#78,#79,#80);
#82=CYLINDRICAL_SURFACE('',#81,6.);
#83=CARTESIAN_POINT('',(-5.095932245,0.,20.));
#84=VERTEX_POINT('',#83);
#85=CARTESIAN_POINT('',(-5.095932245,0.,0.));
#86=VERTEX_POINT('',#85);
#87=CARTESIAN_POINT('',(-5.095932245,0.,20.));
#88=DIRECTION('',(-0.,-0.,-1.));
#89=VECTOR('',#88,20.);
#90=LINE('',#87,#89);
#91=EDGE_CURVE('',#84,#86,#90,.T.);
#92=ORIENTED_EDGE('',*,*,#91,.F.);
#93=CARTESIAN_POINT('',(6.904067755,0.,20.));
#94=VERTEX_POINT('',#93);
#95=CARTESIAN_POINT('',(0.904067755,0.,20.));
#96=DIRECTION('',(0.,0.,1.));
#97=DIRECTION('',(1.,0.,-0.));
#98=AXIS2_PLACEMENT_3D('',#95,#96,#97);
#99=CIRCLE('',#98,6.);
#100=EDGE_CURVE('',#84,#94,#99,.T.);
#101=ORIENTED_EDGE('',*,*,#100,.T.);
#102=CARTESIAN_POINT('',(0.904067755,0.,20.));
#103=DIRECTION('',(0.,0.,1.));
#104=DIRECTION('',(1.,0.,-0.));
#105=AXIS2_PLACEMENT_3D('',#102,#103,#104);
#106=CIRCLE('',#105,6.);
#107=EDGE_CURVE('',#94,#84,#106,.T.);
#108=ORIENTED_EDGE('',*,*,#107,.T.);
#109=ORIENTED_EDGE('',*,*,#91,.T.);
#110=CARTESIAN_POINT('',(6.904067755,0.,0.));
#111=VERTEX_POINT('',#110);
#112=CARTESIAN_POINT('',(0.904067755,0.,0.));
#113=DIRECTION('',(0.,0.,1.));
#114=DIRECTION('',(1.,0.,-0.));
#115=AXIS2_PLACEMENT_3D('',#112,#113,#114);
#116=CIRCLE('',#115,6.);
#117=EDGE_CURVE('',#111,#86,#116,.T.);
#118=ORIENTED_EDGE('',*,*,#117,.F.);
#119=CARTESIAN_POINT('',(0.904067755,0.,0.));
#120=DIRECTION('',(0.,0.,1.));
#121=DIRECTION('',(1.,0.,-0.));
#122=AXIS2_PLACEMENT_3D('',#119,#120,#121);
#123=CIRCLE('',#122,6.);
#124=EDGE_CURVE('',#86,#111,#123,.T.);
#125=ORIENTED_EDGE('',*,*,#124,.F.);
#126=EDGE_LOOP('',(#92,#101,#108,#109,#118,#125));
#127=FACE_BOUND('',#126,.T.);
#128=ADVANCED_FACE('',(#127),#82,.F.);
#129=CARTESIAN_POINT('',(0.904067755,0.,20.));
#130=DIRECTION('',(0.,0.,1.));
#131=DIRECTION('',(1.,0.,0.));
#132=AXIS2_PLACEMENT_3D('',#129,#130,#131);
#133=PLANE('',#132);
#134=ORIENTED_EDGE('',*,*,#100,.F.);
#135=ORIENTED_EDGE('',*,*,#107,.F.);
#136=EDGE_LOOP('',(#134,#135));
#137=FACE_BOUND('',#136,.T.);
#138=ORIENTED_EDGE('',*,*,#66,.F.);
#139=ORIENTED_EDGE('',*,*,#73,.F.);
#140=EDGE_LOOP('',(#138,#139));
#141=FACE_BOUND('',#140,.T.);
#142=ADVANCED_FACE('',(#137,#141),#133,.T.);
#143=CARTESIAN_POINT('',(0.904067755,0.,0.));
#144=DIRECTION('',(0.,0.,1.));
#145=DIRECTION('',(1.,0.,0.));
#146=AXIS2_PLACEMENT_3D('',#143,#144,#145);
#147=PLANE('',#146);
#148=ORIENTED_EDGE('',*,*,#117,.T.);
#149=ORIENTED_EDGE('',*,*,#124,.T.);
#150=EDGE_LOOP('',(#148,#149));
#151=FACE_BOUND('',#150,.T.);
#152=ORIENTED_EDGE('',*,*,#49,.F.);
#153=ORIENTED_EDGE('',*,*,#56,.F.);
#154=EDGE_LOOP('',(#152,#153));
#155=FACE_BOUND('',#154,.T.);
#156=ADVANCED_FACE('',(#151,#155),#147,.F.);
#157=CLOSED_SHELL('',(#77,#128,#142,#156));
#158=MANIFOLD_SOLID_BREP('alibrePartClosedBody',#157);
#159=COLOUR_RGB('',0.501960814,0.501960814,0.501960814);
#160=FILL_AREA_STYLE_COLOUR('',#159);
#161=FILL_AREA_STYLE('',(#160));
#162=SURFACE_STYLE_FILL_AREA(#161);
#163=SURFACE_SIDE_STYLE('',(#162));
#164=SURFACE_STYLE_USAGE(.BOTH.,#163);
#165=PRESENTATION_STYLE_ASSIGNMENT((#164));
#26=STYLED_ITEM('',(#165),#158);
#16=SHAPE_REPRESENTATION('1650 Spacer 12x17x20mm voor BF20L Z axis',(#15),#10);
#17=ADVANCED_BREP_SHAPE_REPRESENTATION('1650 Spacer 12x17x20mm voor BF20L Z axis',(#158),#10);
#173=SHAPE_REPRESENTATION_RELATIONSHIP('','',#16,#17);
#174=CARTESIAN_POINT('',(0.,0.,0.));
#175=DIRECTION('',(0.,0.,1.));
#176=DIRECTION('',(1.,0.,0.));
#177=AXIS2_PLACEMENT_3D('',#174,#175,#176);
#179=MAPPED_ITEM('',#178,#177);
#178=REPRESENTATION_MAP(#177,#16);
#180=APPLICATION_CONTEXT('Managed model based 3d engineering');
#181=APPLICATION_PROTOCOL_DEFINITION('international standard','ap242_managed_model_based_3d_engineering',2013,#180);
#182=PRODUCT_CONTEXT('',#180,'mechanical');
#183=PRODUCT_DEFINITION_CONTEXT('part definition',#180,'design');
#24=PRODUCT('1650 Spacer 12x17x20mm voor BF20L Z axis','1650 Spacer 12x17x20mm voor BF20L Z axis','',(#182));
#184=PRODUCT_RELATED_PRODUCT_CATEGORY('part','',(#24));
#185=PRODUCT_DEFINITION_FORMATION_WITH_SPECIFIED_SOURCE('','',#24,.NOT_KNOWN.);
#25=PRODUCT_DEFINITION('design','',#185,#183);
#23=PRODUCT_DEFINITION_SHAPE('','',#25);
#186=SHAPE_DEFINITION_REPRESENTATION(#23,#16);
#11=DRAUGHTING_MODEL('',(#179),#10);
#1=MECHANICAL_DESIGN_GEOMETRIC_PRESENTATION_REPRESENTATION('',(#26),#10);
ENDSEC;
END-ISO-10303-21;
