ISO-10303-21;
HEADER;
/* Generated by software containing ST-Developer
 * from STEP Tools, Inc. (www.steptools.com) 
 */

FILE_DESCRIPTION(
/* description */ ('Alibre Inc.'),
/* implementation_level */ '2;1');

FILE_NAME(
/* name */ 'export-BDFA1BF3-D0A6-4016-B23B-B84B889E9CA4',
/* time_stamp */ '2021-07-27T11:17:46+02:00',
/* author */ (''),
/* organization */ (''),
/* preprocessor_version */ 'ST-DEVELOPER v17',
/* originating_system */ 'Alibre',
/* authorisation */ '');

FILE_SCHEMA (('AUTOMOTIVE_DESIGN'));
ENDSEC;

DATA;
#10=STYLED_ITEM('NAME_0',(#44),#576);
#11=STYLED_ITEM('NAME_0',(#45),#324);
#12=STYLED_ITEM('NAME_0',(#45),#325);
#13=STYLED_ITEM('NAME_0',(#45),#326);
#14=STYLED_ITEM('NAME_0',(#45),#327);
#15=STYLED_ITEM('NAME_0',(#45),#328);
#16=STYLED_ITEM('NAME_0',(#45),#329);
#17=STYLED_ITEM('NAME_0',(#45),#330);
#18=STYLED_ITEM('NAME_0',(#45),#331);
#19=STYLED_ITEM('NAME_0',(#45),#332);
#20=STYLED_ITEM('NAME_0',(#45),#333);
#21=STYLED_ITEM('NAME_0',(#45),#334);
#22=STYLED_ITEM('NAME_0',(#45),#335);
#23=STYLED_ITEM('NAME_0',(#45),#336);
#24=STYLED_ITEM('NAME_0',(#45),#337);
#25=STYLED_ITEM('NAME_0',(#45),#338);
#26=STYLED_ITEM('NAME_0',(#45),#339);
#27=STYLED_ITEM('NAME_0',(#45),#340);
#28=STYLED_ITEM('NAME_0',(#45),#341);
#29=STYLED_ITEM('NAME_0',(#45),#342);
#30=STYLED_ITEM('NAME_0',(#45),#343);
#31=MECHANICAL_DESIGN_GEOMETRIC_PRESENTATION_REPRESENTATION('NAME_0',(#10,
#11,#12,#13,#14,#15,#16,#17,#18,#19,#20,#21,#22,#23,#24,#25,#26,#27,#28,
#29,#30),#60);
#32=COLOUR_RGB('',0.882352941176471,0.882352941176471,0.882352941176471);
#33=COLOUR_RGB('',0.686274509803922,0.686274509803922,0.686274509803922);
#34=FILL_AREA_STYLE_COLOUR('NAME_0',#32);
#35=FILL_AREA_STYLE_COLOUR('NAME_0',#33);
#36=FILL_AREA_STYLE('NAME_0',(#34));
#37=FILL_AREA_STYLE('NAME_0',(#35));
#38=SURFACE_STYLE_FILL_AREA(#36);
#39=SURFACE_STYLE_FILL_AREA(#37);
#40=SURFACE_SIDE_STYLE('NAME_0',(#38));
#41=SURFACE_SIDE_STYLE('NAME_0',(#39));
#42=SURFACE_STYLE_USAGE(.POSITIVE.,#40);
#43=SURFACE_STYLE_USAGE(.POSITIVE.,#41);
#44=PRESENTATION_STYLE_ASSIGNMENT((#42));
#45=PRESENTATION_STYLE_ASSIGNMENT((#43));
#46=PRODUCT_DEFINITION_CONTEXT('part definition',#53,'design');
#47=SHAPE_DEFINITION_REPRESENTATION(#48,#577);
#48=PRODUCT_DEFINITION_SHAPE('PRODUCT_VERSION_ID',
'PRODUCT_VERSION_DESCR',#49);
#49=PRODUCT_DEFINITION('PRODUCT_VERSION_ID','PRODUCT_VERSION_DESCR',#50,
#46);
#50=PRODUCT_DEFINITION_FORMATION_WITH_SPECIFIED_SOURCE(
'PRODUCT_VERSION_ID','PRODUCT_VERSION_DESCR',#55,.MADE.);
#51=PRODUCT_RELATED_PRODUCT_CATEGORY('part','part',(#55));
#52=APPLICATION_PROTOCOL_DEFINITION('Draft International Standard',
'automotive_design',1994,#53);
#53=APPLICATION_CONTEXT('automotive_Design');
#54=PRODUCT_CONTEXT('3D Mechanical Parts',#53,'mechanical');
#55=PRODUCT(
'HI_Hexagon bolts  ISO4017/DIN933 M5x25 51010.050.025 (High)',
'1794 M5x25 - A2-70 - Bolt Hexagonal DIN-933 (full thread)','',(#54));
#56=(
LENGTH_UNIT()
NAMED_UNIT(*)
SI_UNIT(.MILLI.,.METRE.)
);
#57=(
NAMED_UNIT(*)
PLANE_ANGLE_UNIT()
SI_UNIT($,.RADIAN.)
);
#58=(
NAMED_UNIT(*)
SI_UNIT($,.STERADIAN.)
SOLID_ANGLE_UNIT()
);
#59=UNCERTAINTY_MEASURE_WITH_UNIT(LENGTH_MEASURE(1.E-6),#56,
'DISTANCE_ACCURACY_VALUE',
'Maximum model space distance between geometric entities at asserted c
onnectivities');
#60=(
GEOMETRIC_REPRESENTATION_CONTEXT(3)
GLOBAL_UNCERTAINTY_ASSIGNED_CONTEXT((#59))
GLOBAL_UNIT_ASSIGNED_CONTEXT((#58,#57,#56))
REPRESENTATION_CONTEXT('ID1','3D')
);
#61=CONICAL_SURFACE('',#361,2.5,0.7853981634);
#62=CONICAL_SURFACE('',#366,4.,1.0471975512);
#63=CONICAL_SURFACE('',#368,4.,1.0471975512);
#64=CONICAL_SURFACE('',#370,4.,1.0471975512);
#65=CONICAL_SURFACE('',#372,4.,1.0471975512);
#66=CONICAL_SURFACE('',#374,4.,1.0471975512);
#67=CONICAL_SURFACE('',#376,4.,1.0471975512);
#68=TOROIDAL_SURFACE('',#355,2.7,0.2);
#69=CYLINDRICAL_SURFACE('',#351,3.44);
#70=CYLINDRICAL_SURFACE('',#358,2.5);
#71=CIRCLE('',#350,3.44);
#72=CIRCLE('',#352,3.44);
#73=CIRCLE('',#354,2.7);
#74=CIRCLE('',#356,0.2);
#75=CIRCLE('',#357,2.5);
#76=CIRCLE('',#359,2.5);
#77=CIRCLE('',#360,2.5);
#78=CIRCLE('',#362,2.0094999999975);
#79=CIRCLE('',#363,2.0094999999975);
#80=CIRCLE('',#367,4.);
#81=CIRCLE('',#369,4.);
#82=CIRCLE('',#371,4.);
#83=CIRCLE('',#373,4.);
#84=CIRCLE('',#375,4.);
#85=CIRCLE('',#377,4.);
#86=VECTOR('',#380,1.);
#87=VECTOR('',#381,1.);
#88=VECTOR('',#382,1.);
#89=VECTOR('',#384,1.);
#90=VECTOR('',#385,1.);
#91=VECTOR('',#387,1.);
#92=VECTOR('',#388,1.);
#93=VECTOR('',#390,1.);
#94=VECTOR('',#391,1.);
#95=VECTOR('',#392,1.);
#96=VECTOR('',#394,1.);
#97=VECTOR('',#398,1.);
#98=VECTOR('',#401,1.);
#99=VECTOR('',#414,1.);
#100=VECTOR('',#421,1.);
#101=LINE('',#459,#86);
#102=LINE('',#461,#87);
#103=LINE('',#463,#88);
#104=LINE('',#473,#89);
#105=LINE('',#475,#90);
#106=LINE('',#485,#91);
#107=LINE('',#487,#92);
#108=LINE('',#498,#93);
#109=LINE('',#500,#94);
#110=LINE('',#502,#95);
#111=LINE('',#512,#96);
#112=LINE('',#519,#97);
#113=LINE('',#521,#98);
#114=LINE('',#532,#99);
#115=LINE('',#538,#100);
#116=VERTEX_POINT('',#457);
#117=VERTEX_POINT('',#458);
#118=VERTEX_POINT('',#460);
#119=VERTEX_POINT('',#462);
#120=VERTEX_POINT('',#464);
#121=VERTEX_POINT('',#472);
#122=VERTEX_POINT('',#474);
#123=VERTEX_POINT('',#476);
#124=VERTEX_POINT('',#484);
#125=VERTEX_POINT('',#486);
#126=VERTEX_POINT('',#488);
#127=VERTEX_POINT('',#496);
#128=VERTEX_POINT('',#497);
#129=VERTEX_POINT('',#499);
#130=VERTEX_POINT('',#501);
#131=VERTEX_POINT('',#503);
#132=VERTEX_POINT('',#511);
#133=VERTEX_POINT('',#518);
#134=VERTEX_POINT('',#522);
#135=VERTEX_POINT('',#526);
#136=VERTEX_POINT('',#529);
#137=VERTEX_POINT('',#533);
#138=VERTEX_POINT('',#535);
#139=VERTEX_POINT('',#539);
#140=VERTEX_POINT('',#541);
#141=VERTEX_POINT('',#548);
#142=(
BOUNDED_CURVE()
B_SPLINE_CURVE(2,(#454,#455,#456),.UNSPECIFIED.,.F.,.U.)
B_SPLINE_CURVE_WITH_KNOTS((3,3),(0.148848880607791,2.51301748097753),
 .UNSPECIFIED.)
CURVE()
GEOMETRIC_REPRESENTATION_ITEM()
RATIONAL_B_SPLINE_CURVE((1.01014857566397,1.0882838399131,1.0882838399131))
REPRESENTATION_ITEM('')
);
#143=(
BOUNDED_CURVE()
B_SPLINE_CURVE(2,(#465,#466,#467),.UNSPECIFIED.,.F.,.U.)
B_SPLINE_CURVE_WITH_KNOTS((3,3),(2.5130174809775,4.87718608134218),
 .UNSPECIFIED.)
CURVE()
GEOMETRIC_REPRESENTATION_ITEM()
RATIONAL_B_SPLINE_CURVE((1.08828383991309,1.08828383991309,1.0101485756643))
REPRESENTATION_ITEM('')
);
#144=(
BOUNDED_CURVE()
B_SPLINE_CURVE(2,(#469,#470,#471),.UNSPECIFIED.,.F.,.U.)
B_SPLINE_CURVE_WITH_KNOTS((3,3),(0.148848880605293,2.51301748097456),
 .UNSPECIFIED.)
CURVE()
GEOMETRIC_REPRESENTATION_ITEM()
RATIONAL_B_SPLINE_CURVE((1.0101485756638,1.08828383991291,1.08828383991291))
REPRESENTATION_ITEM('')
);
#145=(
BOUNDED_CURVE()
B_SPLINE_CURVE(2,(#477,#478,#479),.UNSPECIFIED.,.F.,.U.)
B_SPLINE_CURVE_WITH_KNOTS((3,3),(2.51301748097602,4.87718608134046),
 .UNSPECIFIED.)
CURVE()
GEOMETRIC_REPRESENTATION_ITEM()
RATIONAL_B_SPLINE_CURVE((1.088283839913,1.088283839913,1.01014857566422))
REPRESENTATION_ITEM('')
);
#146=(
BOUNDED_CURVE()
B_SPLINE_CURVE(2,(#481,#482,#483),.UNSPECIFIED.,.F.,.U.)
B_SPLINE_CURVE_WITH_KNOTS((3,3),(0.148848880605295,2.51301748097457),
 .UNSPECIFIED.)
CURVE()
GEOMETRIC_REPRESENTATION_ITEM()
RATIONAL_B_SPLINE_CURVE((1.0101485756638,1.08828383991291,1.08828383991291))
REPRESENTATION_ITEM('')
);
#147=(
BOUNDED_CURVE()
B_SPLINE_CURVE(2,(#489,#490,#491),.UNSPECIFIED.,.F.,.U.)
B_SPLINE_CURVE_WITH_KNOTS((3,3),(2.51301748097604,4.87718608134048),
 .UNSPECIFIED.)
CURVE()
GEOMETRIC_REPRESENTATION_ITEM()
RATIONAL_B_SPLINE_CURVE((1.088283839913,1.088283839913,1.01014857566422))
REPRESENTATION_ITEM('')
);
#148=(
BOUNDED_CURVE()
B_SPLINE_CURVE(2,(#493,#494,#495),.UNSPECIFIED.,.F.,.U.)
B_SPLINE_CURVE_WITH_KNOTS((3,3),(0.148848880605293,2.51301748097456),
 .UNSPECIFIED.)
CURVE()
GEOMETRIC_REPRESENTATION_ITEM()
RATIONAL_B_SPLINE_CURVE((1.0101485756638,1.08828383991291,1.08828383991291))
REPRESENTATION_ITEM('')
);
#149=(
BOUNDED_CURVE()
B_SPLINE_CURVE(2,(#504,#505,#506),.UNSPECIFIED.,.F.,.U.)
B_SPLINE_CURVE_WITH_KNOTS((3,3),(2.51301748097602,4.87718608134046),
 .UNSPECIFIED.)
CURVE()
GEOMETRIC_REPRESENTATION_ITEM()
RATIONAL_B_SPLINE_CURVE((1.088283839913,1.088283839913,1.01014857566422))
REPRESENTATION_ITEM('')
);
#150=(
BOUNDED_CURVE()
B_SPLINE_CURVE(2,(#508,#509,#510),.UNSPECIFIED.,.F.,.U.)
B_SPLINE_CURVE_WITH_KNOTS((3,3),(0.148848880607763,2.5130174809775),
 .UNSPECIFIED.)
CURVE()
GEOMETRIC_REPRESENTATION_ITEM()
RATIONAL_B_SPLINE_CURVE((1.01014857566397,1.08828383991309,1.08828383991309))
REPRESENTATION_ITEM('')
);
#151=(
BOUNDED_CURVE()
B_SPLINE_CURVE(2,(#513,#514,#515),.UNSPECIFIED.,.F.,.U.)
B_SPLINE_CURVE_WITH_KNOTS((3,3),(2.51301748097753,4.87718608134222),
 .UNSPECIFIED.)
CURVE()
GEOMETRIC_REPRESENTATION_ITEM()
RATIONAL_B_SPLINE_CURVE((1.0882838399131,1.0882838399131,1.01014857566431))
REPRESENTATION_ITEM('')
);
#152=(
BOUNDED_CURVE()
B_SPLINE_CURVE(2,(#545,#546,#547),.UNSPECIFIED.,.F.,.U.)
B_SPLINE_CURVE_WITH_KNOTS((3,3),(0.148848880605295,2.51301748097457),
 .UNSPECIFIED.)
CURVE()
GEOMETRIC_REPRESENTATION_ITEM()
RATIONAL_B_SPLINE_CURVE((1.0101485756638,1.08828383991291,1.08828383991291))
REPRESENTATION_ITEM('')
);
#153=(
BOUNDED_CURVE()
B_SPLINE_CURVE(2,(#549,#550,#551),.UNSPECIFIED.,.F.,.U.)
B_SPLINE_CURVE_WITH_KNOTS((3,3),(2.51301748097603,4.87718608134048),
 .UNSPECIFIED.)
CURVE()
GEOMETRIC_REPRESENTATION_ITEM()
RATIONAL_B_SPLINE_CURVE((1.088283839913,1.088283839913,1.01014857566422))
REPRESENTATION_ITEM('')
);
#154=EDGE_CURVE('',#116,#117,#142,.T.);
#155=EDGE_CURVE('',#116,#118,#101,.T.);
#156=EDGE_CURVE('',#119,#118,#102,.T.);
#157=EDGE_CURVE('',#120,#119,#103,.F.);
#158=EDGE_CURVE('',#117,#120,#143,.T.);
#159=EDGE_CURVE('',#120,#121,#144,.T.);
#160=EDGE_CURVE('',#122,#119,#104,.T.);
#161=EDGE_CURVE('',#123,#122,#105,.F.);
#162=EDGE_CURVE('',#121,#123,#145,.T.);
#163=EDGE_CURVE('',#123,#124,#146,.T.);
#164=EDGE_CURVE('',#125,#122,#106,.T.);
#165=EDGE_CURVE('',#126,#125,#107,.F.);
#166=EDGE_CURVE('',#124,#126,#147,.T.);
#167=EDGE_CURVE('',#127,#128,#148,.T.);
#168=EDGE_CURVE('',#127,#129,#108,.T.);
#169=EDGE_CURVE('',#130,#129,#109,.T.);
#170=EDGE_CURVE('',#131,#130,#110,.F.);
#171=EDGE_CURVE('',#128,#131,#149,.T.);
#172=EDGE_CURVE('',#126,#132,#150,.T.);
#173=EDGE_CURVE('',#129,#125,#111,.T.);
#174=EDGE_CURVE('',#132,#127,#151,.T.);
#175=EDGE_CURVE('',#133,#133,#71,.F.);
#176=EDGE_CURVE('',#118,#130,#112,.F.);
#177=EDGE_CURVE('',#133,#134,#113,.T.);
#178=EDGE_CURVE('',#134,#134,#72,.T.);
#179=EDGE_CURVE('',#135,#135,#73,.F.);
#180=EDGE_CURVE('',#135,#136,#74,.T.);
#181=EDGE_CURVE('',#136,#136,#75,.F.);
#182=EDGE_CURVE('',#136,#137,#114,.T.);
#183=EDGE_CURVE('',#138,#137,#76,.T.);
#184=EDGE_CURVE('',#137,#138,#77,.T.);
#185=EDGE_CURVE('',#138,#139,#115,.T.);
#186=EDGE_CURVE('',#140,#139,#78,.F.);
#187=EDGE_CURVE('',#139,#140,#79,.F.);
#188=EDGE_CURVE('',#131,#141,#152,.T.);
#189=EDGE_CURVE('',#141,#116,#153,.T.);
#190=EDGE_CURVE('',#128,#132,#80,.T.);
#191=EDGE_CURVE('',#132,#124,#81,.T.);
#192=EDGE_CURVE('',#141,#128,#82,.T.);
#193=EDGE_CURVE('',#117,#141,#83,.T.);
#194=EDGE_CURVE('',#121,#117,#84,.T.);
#195=EDGE_CURVE('',#124,#121,#85,.T.);
#196=ORIENTED_EDGE('',*,*,#154,.F.);
#197=ORIENTED_EDGE('',*,*,#155,.T.);
#198=ORIENTED_EDGE('',*,*,#156,.F.);
#199=ORIENTED_EDGE('',*,*,#157,.F.);
#200=ORIENTED_EDGE('',*,*,#158,.F.);
#201=ORIENTED_EDGE('',*,*,#159,.F.);
#202=ORIENTED_EDGE('',*,*,#157,.T.);
#203=ORIENTED_EDGE('',*,*,#160,.F.);
#204=ORIENTED_EDGE('',*,*,#161,.F.);
#205=ORIENTED_EDGE('',*,*,#162,.F.);
#206=ORIENTED_EDGE('',*,*,#163,.F.);
#207=ORIENTED_EDGE('',*,*,#161,.T.);
#208=ORIENTED_EDGE('',*,*,#164,.F.);
#209=ORIENTED_EDGE('',*,*,#165,.F.);
#210=ORIENTED_EDGE('',*,*,#166,.F.);
#211=ORIENTED_EDGE('',*,*,#167,.F.);
#212=ORIENTED_EDGE('',*,*,#168,.T.);
#213=ORIENTED_EDGE('',*,*,#169,.F.);
#214=ORIENTED_EDGE('',*,*,#170,.F.);
#215=ORIENTED_EDGE('',*,*,#171,.F.);
#216=ORIENTED_EDGE('',*,*,#172,.F.);
#217=ORIENTED_EDGE('',*,*,#165,.T.);
#218=ORIENTED_EDGE('',*,*,#173,.F.);
#219=ORIENTED_EDGE('',*,*,#168,.F.);
#220=ORIENTED_EDGE('',*,*,#174,.F.);
#221=ORIENTED_EDGE('',*,*,#175,.F.);
#222=ORIENTED_EDGE('',*,*,#173,.T.);
#223=ORIENTED_EDGE('',*,*,#164,.T.);
#224=ORIENTED_EDGE('',*,*,#160,.T.);
#225=ORIENTED_EDGE('',*,*,#156,.T.);
#226=ORIENTED_EDGE('',*,*,#176,.T.);
#227=ORIENTED_EDGE('',*,*,#169,.T.);
#228=ORIENTED_EDGE('',*,*,#177,.T.);
#229=ORIENTED_EDGE('',*,*,#178,.F.);
#230=ORIENTED_EDGE('',*,*,#177,.F.);
#231=ORIENTED_EDGE('',*,*,#175,.T.);
#232=ORIENTED_EDGE('',*,*,#179,.F.);
#233=ORIENTED_EDGE('',*,*,#178,.T.);
#234=ORIENTED_EDGE('',*,*,#180,.F.);
#235=ORIENTED_EDGE('',*,*,#179,.T.);
#236=ORIENTED_EDGE('',*,*,#180,.T.);
#237=ORIENTED_EDGE('',*,*,#181,.F.);
#238=ORIENTED_EDGE('',*,*,#182,.T.);
#239=ORIENTED_EDGE('',*,*,#183,.F.);
#240=ORIENTED_EDGE('',*,*,#184,.F.);
#241=ORIENTED_EDGE('',*,*,#182,.F.);
#242=ORIENTED_EDGE('',*,*,#181,.T.);
#243=ORIENTED_EDGE('',*,*,#185,.T.);
#244=ORIENTED_EDGE('',*,*,#186,.F.);
#245=ORIENTED_EDGE('',*,*,#187,.F.);
#246=ORIENTED_EDGE('',*,*,#185,.F.);
#247=ORIENTED_EDGE('',*,*,#183,.T.);
#248=ORIENTED_EDGE('',*,*,#184,.T.);
#249=ORIENTED_EDGE('',*,*,#186,.T.);
#250=ORIENTED_EDGE('',*,*,#187,.T.);
#251=ORIENTED_EDGE('',*,*,#188,.F.);
#252=ORIENTED_EDGE('',*,*,#170,.T.);
#253=ORIENTED_EDGE('',*,*,#176,.F.);
#254=ORIENTED_EDGE('',*,*,#155,.F.);
#255=ORIENTED_EDGE('',*,*,#189,.F.);
#256=ORIENTED_EDGE('',*,*,#167,.T.);
#257=ORIENTED_EDGE('',*,*,#190,.T.);
#258=ORIENTED_EDGE('',*,*,#174,.T.);
#259=ORIENTED_EDGE('',*,*,#166,.T.);
#260=ORIENTED_EDGE('',*,*,#172,.T.);
#261=ORIENTED_EDGE('',*,*,#191,.T.);
#262=ORIENTED_EDGE('',*,*,#188,.T.);
#263=ORIENTED_EDGE('',*,*,#192,.T.);
#264=ORIENTED_EDGE('',*,*,#171,.T.);
#265=ORIENTED_EDGE('',*,*,#154,.T.);
#266=ORIENTED_EDGE('',*,*,#193,.T.);
#267=ORIENTED_EDGE('',*,*,#189,.T.);
#268=ORIENTED_EDGE('',*,*,#158,.T.);
#269=ORIENTED_EDGE('',*,*,#159,.T.);
#270=ORIENTED_EDGE('',*,*,#194,.T.);
#271=ORIENTED_EDGE('',*,*,#162,.T.);
#272=ORIENTED_EDGE('',*,*,#163,.T.);
#273=ORIENTED_EDGE('',*,*,#195,.T.);
#274=ORIENTED_EDGE('',*,*,#192,.F.);
#275=ORIENTED_EDGE('',*,*,#193,.F.);
#276=ORIENTED_EDGE('',*,*,#194,.F.);
#277=ORIENTED_EDGE('',*,*,#195,.F.);
#278=ORIENTED_EDGE('',*,*,#191,.F.);
#279=ORIENTED_EDGE('',*,*,#190,.F.);
#280=EDGE_LOOP('',(#196,#197,#198,#199,#200));
#281=EDGE_LOOP('',(#201,#202,#203,#204,#205));
#282=EDGE_LOOP('',(#206,#207,#208,#209,#210));
#283=EDGE_LOOP('',(#211,#212,#213,#214,#215));
#284=EDGE_LOOP('',(#216,#217,#218,#219,#220));
#285=EDGE_LOOP('',(#221));
#286=EDGE_LOOP('',(#222,#223,#224,#225,#226,#227));
#287=EDGE_LOOP('',(#228,#229,#230,#231));
#288=EDGE_LOOP('',(#232));
#289=EDGE_LOOP('',(#233));
#290=EDGE_LOOP('',(#234,#235,#236,#237));
#291=EDGE_LOOP('',(#238,#239,#240,#241,#242));
#292=EDGE_LOOP('',(#243,#244,#245,#246,#247,#248));
#293=EDGE_LOOP('',(#249,#250));
#294=EDGE_LOOP('',(#251,#252,#253,#254,#255));
#295=EDGE_LOOP('',(#256,#257,#258));
#296=EDGE_LOOP('',(#259,#260,#261));
#297=EDGE_LOOP('',(#262,#263,#264));
#298=EDGE_LOOP('',(#265,#266,#267));
#299=EDGE_LOOP('',(#268,#269,#270));
#300=EDGE_LOOP('',(#271,#272,#273));
#301=EDGE_LOOP('',(#274,#275,#276,#277,#278,#279));
#302=FACE_BOUND('',#280,.T.);
#303=FACE_BOUND('',#281,.T.);
#304=FACE_BOUND('',#282,.T.);
#305=FACE_BOUND('',#283,.T.);
#306=FACE_BOUND('',#284,.T.);
#307=FACE_BOUND('',#285,.T.);
#308=FACE_BOUND('',#286,.T.);
#309=FACE_BOUND('',#287,.T.);
#310=FACE_BOUND('',#288,.T.);
#311=FACE_BOUND('',#289,.T.);
#312=FACE_BOUND('',#290,.T.);
#313=FACE_BOUND('',#291,.T.);
#314=FACE_BOUND('',#292,.T.);
#315=FACE_BOUND('',#293,.T.);
#316=FACE_BOUND('',#294,.T.);
#317=FACE_BOUND('',#295,.T.);
#318=FACE_BOUND('',#296,.T.);
#319=FACE_BOUND('',#297,.T.);
#320=FACE_BOUND('',#298,.T.);
#321=FACE_BOUND('',#299,.T.);
#322=FACE_BOUND('',#300,.T.);
#323=FACE_BOUND('',#301,.T.);
#324=ADVANCED_FACE('',(#302),#565,.T.);
#325=ADVANCED_FACE('',(#303),#566,.T.);
#326=ADVANCED_FACE('',(#304),#567,.T.);
#327=ADVANCED_FACE('',(#305),#568,.T.);
#328=ADVANCED_FACE('',(#306),#569,.T.);
#329=ADVANCED_FACE('',(#307,#308),#570,.F.);
#330=ADVANCED_FACE('',(#309),#69,.T.);
#331=ADVANCED_FACE('',(#310,#311),#571,.F.);
#332=ADVANCED_FACE('',(#312),#68,.F.);
#333=ADVANCED_FACE('',(#313),#70,.T.);
#334=ADVANCED_FACE('',(#314),#61,.T.);
#335=ADVANCED_FACE('',(#315),#572,.F.);
#336=ADVANCED_FACE('',(#316),#573,.T.);
#337=ADVANCED_FACE('',(#317),#62,.T.);
#338=ADVANCED_FACE('',(#318),#63,.T.);
#339=ADVANCED_FACE('',(#319),#64,.T.);
#340=ADVANCED_FACE('',(#320),#65,.T.);
#341=ADVANCED_FACE('',(#321),#66,.T.);
#342=ADVANCED_FACE('',(#322),#67,.T.);
#343=ADVANCED_FACE('',(#323),#574,.F.);
#344=AXIS2_PLACEMENT_3D('',#453,#379,$);
#345=AXIS2_PLACEMENT_3D('',#468,#383,$);
#346=AXIS2_PLACEMENT_3D('',#480,#386,$);
#347=AXIS2_PLACEMENT_3D('',#492,#389,$);
#348=AXIS2_PLACEMENT_3D('',#507,#393,$);
#349=AXIS2_PLACEMENT_3D('',#516,#395,$);
#350=AXIS2_PLACEMENT_3D('',#517,#396,#397);
#351=AXIS2_PLACEMENT_3D('',#520,#399,#400);
#352=AXIS2_PLACEMENT_3D('',#523,#402,#403);
#353=AXIS2_PLACEMENT_3D('',#524,#404,$);
#354=AXIS2_PLACEMENT_3D('',#525,#405,#406);
#355=AXIS2_PLACEMENT_3D('',#527,#407,$);
#356=AXIS2_PLACEMENT_3D('',#528,#408,#409);
#357=AXIS2_PLACEMENT_3D('',#530,#410,#411);
#358=AXIS2_PLACEMENT_3D('',#531,#412,#413);
#359=AXIS2_PLACEMENT_3D('',#534,#415,#416);
#360=AXIS2_PLACEMENT_3D('',#536,#417,#418);
#361=AXIS2_PLACEMENT_3D('',#537,#419,#420);
#362=AXIS2_PLACEMENT_3D('',#540,#422,#423);
#363=AXIS2_PLACEMENT_3D('',#542,#424,#425);
#364=AXIS2_PLACEMENT_3D('',#543,#426,$);
#365=AXIS2_PLACEMENT_3D('',#544,#427,$);
#366=AXIS2_PLACEMENT_3D('',#552,#428,#429);
#367=AXIS2_PLACEMENT_3D('',#553,#430,#431);
#368=AXIS2_PLACEMENT_3D('',#554,#432,#433);
#369=AXIS2_PLACEMENT_3D('',#555,#434,#435);
#370=AXIS2_PLACEMENT_3D('',#556,#436,#437);
#371=AXIS2_PLACEMENT_3D('',#557,#438,#439);
#372=AXIS2_PLACEMENT_3D('',#558,#440,#441);
#373=AXIS2_PLACEMENT_3D('',#559,#442,#443);
#374=AXIS2_PLACEMENT_3D('',#560,#444,#445);
#375=AXIS2_PLACEMENT_3D('',#561,#446,#447);
#376=AXIS2_PLACEMENT_3D('',#562,#448,#449);
#377=AXIS2_PLACEMENT_3D('',#563,#450,#451);
#378=AXIS2_PLACEMENT_3D('',#564,#452,$);
#379=DIRECTION('',(0.,0.,-1.));
#380=DIRECTION('',(1.,0.,0.));
#381=DIRECTION('',(0.,1.,0.));
#382=DIRECTION('',(-1.,0.,0.));
#383=DIRECTION('',(0.,-0.866025403784439,-0.5));
#384=DIRECTION('',(0.,0.5,-0.866025403784439));
#385=DIRECTION('',(-1.,0.,0.));
#386=DIRECTION('',(0.,-0.866025403784439,0.5));
#387=DIRECTION('',(0.,-0.5,-0.866025403784439));
#388=DIRECTION('',(-1.,0.,0.));
#389=DIRECTION('',(0.,0.866025403784439,0.5));
#390=DIRECTION('',(1.,0.,0.));
#391=DIRECTION('',(0.,-0.5,0.866025403784439));
#392=DIRECTION('',(-1.,0.,0.));
#393=DIRECTION('',(0.,0.,1.));
#394=DIRECTION('',(0.,-1.,0.));
#395=DIRECTION('',(-1.,0.,0.));
#396=DIRECTION('',(-1.,0.,0.));
#397=DIRECTION('',(0.,0.,-3.44));
#398=DIRECTION('',(0.,-0.5,-0.866025403784439));
#399=DIRECTION('',(-1.,0.,0.));
#400=DIRECTION('',(0.,0.,-3.44));
#401=DIRECTION('',(1.,0.,0.));
#402=DIRECTION('',(1.,0.,0.));
#403=DIRECTION('',(0.,0.,-3.44));
#404=DIRECTION('',(-1.,0.,0.));
#405=DIRECTION('',(-1.,0.,0.));
#406=DIRECTION('',(0.,0.,2.7));
#407=DIRECTION('',(1.,0.,0.));
#408=DIRECTION('',(0.,1.,0.));
#409=DIRECTION('',(0.,0.,-0.2));
#410=DIRECTION('',(-1.,0.,0.));
#411=DIRECTION('',(0.,0.,-2.5));
#412=DIRECTION('',(-1.,0.,0.));
#413=DIRECTION('',(0.,0.,-2.5));
#414=DIRECTION('',(1.,0.,0.));
#415=DIRECTION('',(1.,0.,0.));
#416=DIRECTION('',(0.,0.,-2.5));
#417=DIRECTION('',(1.,0.,0.));
#418=DIRECTION('',(0.,0.,-2.5));
#419=DIRECTION('',(-1.,0.,0.));
#420=DIRECTION('',(0.,0.,2.5));
#421=DIRECTION('',(0.707106781184743,0.,-0.707106781188352));
#422=DIRECTION('',(-1.,0.,0.));
#423=DIRECTION('',(0.,0.,2.0094999999975));
#424=DIRECTION('',(-1.,0.,0.));
#425=DIRECTION('',(0.,0.,2.0094999999975));
#426=DIRECTION('',(-1.,0.,0.));
#427=DIRECTION('',(0.,0.866025403784439,-0.5));
#428=DIRECTION('',(1.,0.,0.));
#429=DIRECTION('',(0.,0.,-4.));
#430=DIRECTION('',(1.,0.,0.));
#431=DIRECTION('',(0.,0.,-4.));
#432=DIRECTION('',(1.,0.,0.));
#433=DIRECTION('',(0.,0.,-4.));
#434=DIRECTION('',(1.,0.,0.));
#435=DIRECTION('',(0.,0.,-4.));
#436=DIRECTION('',(1.,0.,0.));
#437=DIRECTION('',(0.,0.,-4.));
#438=DIRECTION('',(1.,0.,0.));
#439=DIRECTION('',(0.,0.,-4.));
#440=DIRECTION('',(1.,0.,0.));
#441=DIRECTION('',(0.,0.,-4.));
#442=DIRECTION('',(1.,0.,0.));
#443=DIRECTION('',(0.,0.,-4.));
#444=DIRECTION('',(1.,0.,0.));
#445=DIRECTION('',(0.,0.,-4.));
#446=DIRECTION('',(1.,0.,0.));
#447=DIRECTION('',(0.,0.,-4.));
#448=DIRECTION('',(1.,0.,0.));
#449=DIRECTION('',(0.,0.,-4.));
#450=DIRECTION('',(1.,0.,0.));
#451=DIRECTION('',(0.,0.,-4.));
#452=DIRECTION('',(1.,0.,0.));
#453=CARTESIAN_POINT('',(-3.5,-2.3094010767585,-4.));
#454=CARTESIAN_POINT('',(-3.14273441009464,2.3094010767585,-4.));
#455=CARTESIAN_POINT('',(-3.5,1.07179676972449,-4.));
#456=CARTESIAN_POINT('',(-3.5,0.,-4.));
#457=CARTESIAN_POINT('',(-3.14273441009464,2.3094010767585,-4.));
#458=CARTESIAN_POINT('',(-3.5,-4.66526562999284E-16,-4.));
#459=CARTESIAN_POINT('',(-3.5,2.3094010767585,-4.));
#460=CARTESIAN_POINT('',(-0.5,2.3094010767585,-4.));
#461=CARTESIAN_POINT('',(-0.5,1.24529946162075,-4.));
#462=CARTESIAN_POINT('',(-0.5,-2.30940107675851,-4.));
#463=CARTESIAN_POINT('',(-3.5,-2.30940107675851,-4.));
#464=CARTESIAN_POINT('',(-3.14273441009464,-2.30940107675851,-4.));
#465=CARTESIAN_POINT('',(-3.5,0.,-4.));
#466=CARTESIAN_POINT('',(-3.5,-1.0717967697222,-4.));
#467=CARTESIAN_POINT('',(-3.14273441009629,-2.3094010767528,-4.));
#468=CARTESIAN_POINT('',(-3.5,-4.61880215351701,0.));
#469=CARTESIAN_POINT('',(-3.14273441009464,-2.30940107675851,-4.));
#470=CARTESIAN_POINT('',(-3.5,-2.92820323027551,-2.92820323027551));
#471=CARTESIAN_POINT('',(-3.5,-3.46410161513776,-2.));
#472=CARTESIAN_POINT('',(-3.5,-3.46410161513775,-2.));
#473=CARTESIAN_POINT('',(-0.5,-3.44145188432739,-2.03923048454133));
#474=CARTESIAN_POINT('',(-0.5,-4.61880215351701,-7.99360577730113E-15));
#475=CARTESIAN_POINT('',(-3.5,-4.61880215351701,-7.99360577730113E-15));
#476=CARTESIAN_POINT('',(-3.14273441009464,-4.618802153517,-9.09479630037125E-15));
#477=CARTESIAN_POINT('',(-3.5,-3.46410161513776,-2.00000000000001));
#478=CARTESIAN_POINT('',(-3.5,-3.99999999999885,-1.07179676972648));
#479=CARTESIAN_POINT('',(-3.14273441009629,-4.61880215351415,-4.95358659039059E-12));
#480=CARTESIAN_POINT('',(-3.5,-2.3094010767585,4.));
#481=CARTESIAN_POINT('',(-3.14273441009464,-4.61880215351701,-7.76217509019667E-15));
#482=CARTESIAN_POINT('',(-3.5,-4.,1.07179676972449));
#483=CARTESIAN_POINT('',(-3.5,-3.46410161513775,2.));
#484=CARTESIAN_POINT('',(-3.5,-3.46410161513776,2.));
#485=CARTESIAN_POINT('',(-0.5,-2.28675134594813,4.03923048454133));
#486=CARTESIAN_POINT('',(-0.5,-2.3094010767585,4.));
#487=CARTESIAN_POINT('',(-3.5,-2.3094010767585,4.));
#488=CARTESIAN_POINT('',(-3.14273441009464,-2.3094010767585,4.));
#489=CARTESIAN_POINT('',(-3.5,-3.46410161513775,2.));
#490=CARTESIAN_POINT('',(-3.5,-2.92820323027665,2.92820323027352));
#491=CARTESIAN_POINT('',(-3.14273441009629,-2.30940107676135,3.99999999999506));
#492=CARTESIAN_POINT('',(-3.5,4.61880215351701,0.));
#493=CARTESIAN_POINT('',(-3.14273441009464,2.30940107675851,4.));
#494=CARTESIAN_POINT('',(-3.5,2.92820323027551,2.92820323027551));
#495=CARTESIAN_POINT('',(-3.5,3.46410161513776,2.));
#496=CARTESIAN_POINT('',(-3.14273441009464,2.30940107675851,4.));
#497=CARTESIAN_POINT('',(-3.5,3.46410161513775,2.));
#498=CARTESIAN_POINT('',(-3.5,2.30940107675851,4.));
#499=CARTESIAN_POINT('',(-0.5,2.30940107675851,4.));
#500=CARTESIAN_POINT('',(-0.5,4.64145188432738,-0.0392304845413254));
#501=CARTESIAN_POINT('',(-0.5,4.61880215351701,7.99360577730113E-15));
#502=CARTESIAN_POINT('',(-3.5,4.61880215351701,7.99360577730113E-15));
#503=CARTESIAN_POINT('',(-3.14273441009464,4.618802153517,9.09479630037125E-15));
#504=CARTESIAN_POINT('',(-3.5,3.46410161513776,2.00000000000001));
#505=CARTESIAN_POINT('',(-3.5,3.99999999999885,1.07179676972648));
#506=CARTESIAN_POINT('',(-3.14273441009629,4.61880215351415,4.95358659039059E-12));
#507=CARTESIAN_POINT('',(-3.5,2.3094010767585,4.));
#508=CARTESIAN_POINT('',(-3.14273441009464,-2.3094010767585,4.));
#509=CARTESIAN_POINT('',(-3.5,-1.07179676972449,4.));
#510=CARTESIAN_POINT('',(-3.5,-4.08063773036936E-16,4.));
#511=CARTESIAN_POINT('',(-3.5,2.28847549044393E-17,4.));
#512=CARTESIAN_POINT('',(-0.5,3.55470053837925,4.));
#513=CARTESIAN_POINT('',(-3.5,-8.1612754607387E-16,4.));
#514=CARTESIAN_POINT('',(-3.5,1.0717967697222,4.));
#515=CARTESIAN_POINT('',(-3.14273441009629,2.3094010767528,4.));
#516=CARTESIAN_POINT('',(-0.5,4.8,0.));
#517=CARTESIAN_POINT('',(-0.5,8.88178419700125E-16,0.));
#518=CARTESIAN_POINT('',(-0.5,4.66899920793436E-16,-3.44));
#519=CARTESIAN_POINT('',(-0.5,3.48675134594813,-1.96076951545867));
#520=CARTESIAN_POINT('',(0.,8.88178419700125E-16,0.));
#521=CARTESIAN_POINT('',(-0.5,8.88178419700125E-16,-3.44));
#522=CARTESIAN_POINT('',(0.,4.66899920793436E-16,-3.44));
#523=CARTESIAN_POINT('',(0.,8.88178419700125E-16,0.));
#524=CARTESIAN_POINT('',(0.,4.8,0.));
#525=CARTESIAN_POINT('',(0.,0.,0.));
#526=CARTESIAN_POINT('',(5.4210108624275E-17,-4.44089209850063E-16,-2.7));
#527=CARTESIAN_POINT('',(0.2,0.,0.));
#528=CARTESIAN_POINT('',(0.2,0.,-2.7));
#529=CARTESIAN_POINT('',(0.199999999999999,-3.06161699786838E-16,-2.5));
#530=CARTESIAN_POINT('',(0.2,0.,0.));
#531=CARTESIAN_POINT('',(25.,0.,0.));
#532=CARTESIAN_POINT('',(-0.290500000000002,0.,-2.5));
#533=CARTESIAN_POINT('',(24.5095,-1.53080849893419E-16,-2.5));
#534=CARTESIAN_POINT('',(24.5095,0.,0.));
#535=CARTESIAN_POINT('',(24.5095,0.,2.5));
#536=CARTESIAN_POINT('',(24.5095,0.,0.));
#537=CARTESIAN_POINT('',(24.5095,0.,0.));
#538=CARTESIAN_POINT('',(25.04905,0.,1.96044999999725));
#539=CARTESIAN_POINT('',(24.9999999999994,2.22044604925031E-16,2.00949999999937));
#540=CARTESIAN_POINT('',(25.,0.,0.));
#541=CARTESIAN_POINT('',(24.9999999999994,-1.23046387144407E-16,-2.00949999999937));
#542=CARTESIAN_POINT('',(25.,0.,0.));
#543=CARTESIAN_POINT('',(25.,2.0095,0.));
#544=CARTESIAN_POINT('',(-3.5,2.3094010767585,-4.));
#545=CARTESIAN_POINT('',(-3.14273441009464,4.61880215351701,7.76217509019667E-15));
#546=CARTESIAN_POINT('',(-3.5,4.,-1.07179676972448));
#547=CARTESIAN_POINT('',(-3.5,3.46410161513775,-2.));
#548=CARTESIAN_POINT('',(-3.5,3.46410161513776,-2.));
#549=CARTESIAN_POINT('',(-3.5,3.46410161513775,-2.));
#550=CARTESIAN_POINT('',(-3.5,2.92820323027665,-2.92820323027352));
#551=CARTESIAN_POINT('',(-3.14273441009629,2.30940107676135,-3.99999999999506));
#552=CARTESIAN_POINT('',(-3.5,0.,0.));
#553=CARTESIAN_POINT('',(-3.5,0.,0.));
#554=CARTESIAN_POINT('',(-3.5,0.,0.));
#555=CARTESIAN_POINT('',(-3.5,0.,0.));
#556=CARTESIAN_POINT('',(-3.5,0.,0.));
#557=CARTESIAN_POINT('',(-3.5,0.,0.));
#558=CARTESIAN_POINT('',(-3.5,0.,0.));
#559=CARTESIAN_POINT('',(-3.5,0.,0.));
#560=CARTESIAN_POINT('',(-3.5,0.,0.));
#561=CARTESIAN_POINT('',(-3.5,0.,0.));
#562=CARTESIAN_POINT('',(-3.5,0.,0.));
#563=CARTESIAN_POINT('',(-3.5,0.,0.));
#564=CARTESIAN_POINT('',(-3.5,0.,0.));
#565=PLANE('',#344);
#566=PLANE('',#345);
#567=PLANE('',#346);
#568=PLANE('',#347);
#569=PLANE('',#348);
#570=PLANE('',#349);
#571=PLANE('',#353);
#572=PLANE('',#364);
#573=PLANE('',#365);
#574=PLANE('',#378);
#575=CLOSED_SHELL('',(#324,#325,#326,#327,#328,#329,#330,#331,#332,#333,
#334,#335,#336,#337,#338,#339,#340,#341,#342,#343));
#576=MANIFOLD_SOLID_BREP('',#575);
#577=ADVANCED_BREP_SHAPE_REPRESENTATION('',(#576),#60);
ENDSEC;
END-ISO-10303-21;
