ISO-10303-21;
HEADER;

/* File generated by Alibre Version V22 */

FILE_DESCRIPTION(('HOOPS Exchange Step'),'2;1');

FILE_NAME('C:\\Users\\Gebruiker\\AppData\\Local\\Temp\\Alibre Design\\export-63225582-4F68-4342-930C-908476758D7C.stp',
'2021-07-27T11:18:00+02:00',
('Engineering'),
('Alibre'),
'HOOPS Exchange 2020.1',
'Alibre',
'Unknown authorisation');

FILE_SCHEMA( ('AP242_MANAGED_MODEL_BASED_3D_ENGINEERING_MIM_LF {1 0 10303 442 1 1 4 }') );

ENDSEC;

DATA;
#3=(NAMED_UNIT(*)PLANE_ANGLE_UNIT()SI_UNIT($,.RADIAN.));
#4=PLANE_ANGLE_MEASURE_WITH_UNIT(PLANE_ANGLE_MEASURE(0.0174532925),#3);
#5=(CONVERSION_BASED_UNIT('DEGREE',#4)NAMED_UNIT(#6)PLANE_ANGLE_UNIT());
#6=DIMENSIONAL_EXPONENTS(0.,0.,0.,0.,0.,0.,0.);
#7=(NAMED_UNIT(*)SI_UNIT($,.STERADIAN.)SOLID_ANGLE_UNIT());
#8=(LENGTH_UNIT()NAMED_UNIT(*)SI_UNIT(.MILLI.,.METRE.));
#9=UNCERTAINTY_MEASURE_WITH_UNIT(LENGTH_MEASURE(1.000000E-06),#8,'DISTANCE_ACCURACY_VALUE','Maximum Tolerance applied to model');
#10=(GEOMETRIC_REPRESENTATION_CONTEXT(3)GLOBAL_UNCERTAINTY_ASSIGNED_CONTEXT((#9))GLOBAL_UNIT_ASSIGNED_CONTEXT((#8,#5,#7))REPRESENTATION_CONTEXT('','1794 M5x25 - A2-70 - Bolt Hexagonal DIN-933 (full thread)'));
#12=CARTESIAN_POINT('',(0.,0.,0.));
#13=DIRECTION('',(0.,0.,1.));
#14=DIRECTION('',(1.,0.,0.));
#15=AXIS2_PLACEMENT_3D('',#12,#13,#14);
#27=CARTESIAN_POINT('',(-3.5,-2.309401077,-4.));
#28=DIRECTION('',(0.,0.,-1.));
#29=DIRECTION('',(-1.,0.,0.));
#30=AXIS2_PLACEMENT_3D('',#27,#28,#29);
#31=PLANE('',#30);
#32=CARTESIAN_POINT('',(-3.14273441,2.309401077,-4.));
#33=VERTEX_POINT('',#32);
#34=CARTESIAN_POINT('',(-3.5,-0.,-4.));
#35=VERTEX_POINT('',#34);
#36=CARTESIAN_POINT('',(-3.14273441,2.309401077,-4.));
#37=CARTESIAN_POINT('',(-3.5,1.07179677,-4.));
#38=CARTESIAN_POINT('',(-3.5,0.,-4.));
#39=(BOUNDED_CURVE()
B_SPLINE_CURVE(2,(#36,#37,#38),.UNSPECIFIED.,.F.,.F.)
B_SPLINE_CURVE_WITH_KNOTS((3,3),(0.148848881,2.513017481),.UNSPECIFIED.)
CURVE()
GEOMETRIC_REPRESENTATION_ITEM()
RATIONAL_B_SPLINE_CURVE((1.010148576,1.08828384,1.08828384))
REPRESENTATION_ITEM(''));
#40=EDGE_CURVE('',#33,#35,#39,.T.);
#41=ORIENTED_EDGE('',*,*,#40,.F.);
#42=CARTESIAN_POINT('',(-0.5,2.309401077,-4.));
#43=VERTEX_POINT('',#42);
#44=CARTESIAN_POINT('',(-12348.5,2.309401077,-4.));
#45=DIRECTION('',(1.,0.,-0.));
#46=VECTOR('',#45,24690.);
#47=LINE('',#44,#46);
#48=EDGE_CURVE('',#33,#43,#47,.T.);
#49=ORIENTED_EDGE('',*,*,#48,.T.);
#50=CARTESIAN_POINT('',(-0.5,-2.309401077,-4.));
#51=VERTEX_POINT('',#50);
#52=CARTESIAN_POINT('',(-0.5,-12343.754700538,-4.));
#53=DIRECTION('',(0.,1.,0.));
#54=VECTOR('',#53,24690.);
#55=LINE('',#52,#54);
#56=EDGE_CURVE('',#51,#43,#55,.T.);
#57=ORIENTED_EDGE('',*,*,#56,.F.);
#58=CARTESIAN_POINT('',(-3.14273441,-2.309401077,-4.));
#59=VERTEX_POINT('',#58);
#60=CARTESIAN_POINT('',(-12348.5,-2.309401077,-4.));
#61=DIRECTION('',(1.,-0.,-0.));
#62=VECTOR('',#61,24690.);
#63=LINE('',#60,#62);
#64=EDGE_CURVE('',#59,#51,#63,.T.);
#65=ORIENTED_EDGE('',*,*,#64,.F.);
#66=CARTESIAN_POINT('',(-3.5,0.,-4.));
#67=CARTESIAN_POINT('',(-3.5,-1.07179677,-4.));
#68=CARTESIAN_POINT('',(-3.14273441,-2.309401077,-4.));
#69=(BOUNDED_CURVE()
B_SPLINE_CURVE(2,(#66,#67,#68),.UNSPECIFIED.,.F.,.F.)
B_SPLINE_CURVE_WITH_KNOTS((3,3),(2.513017481,4.877186081),.UNSPECIFIED.)
CURVE()
GEOMETRIC_REPRESENTATION_ITEM()
RATIONAL_B_SPLINE_CURVE((1.08828384,1.08828384,1.010148576))
REPRESENTATION_ITEM(''));
#70=EDGE_CURVE('',#35,#59,#69,.T.);
#71=ORIENTED_EDGE('',*,*,#70,.F.);
#72=EDGE_LOOP('',(#41,#49,#57,#65,#71));
#73=FACE_BOUND('',#72,.T.);
#74=ADVANCED_FACE('',(#73),#31,.T.);
#75=CARTESIAN_POINT('',(-3.5,-4.618802154,0.));
#76=DIRECTION('',(0.,-0.866025404,-0.5));
#77=DIRECTION('',(0.,0.5,-0.866025404));
#78=AXIS2_PLACEMENT_3D('',#75,#76,#77);
#79=PLANE('',#78);
#80=CARTESIAN_POINT('',(-3.5,-3.464101615,-2.));
#81=VERTEX_POINT('',#80);
#82=CARTESIAN_POINT('',(-3.14273441,-2.309401077,-4.));
#83=CARTESIAN_POINT('',(-3.5,-2.92820323,-2.92820323));
#84=CARTESIAN_POINT('',(-3.5,-3.464101615,-2.));
#85=(BOUNDED_CURVE()
B_SPLINE_CURVE(2,(#82,#83,#84),.UNSPECIFIED.,.F.,.F.)
B_SPLINE_CURVE_WITH_KNOTS((3,3),(0.148848881,2.513017481),.UNSPECIFIED.)
CURVE()
GEOMETRIC_REPRESENTATION_ITEM()
RATIONAL_B_SPLINE_CURVE((1.010148576,1.08828384,1.08828384))
REPRESENTATION_ITEM(''));
#86=EDGE_CURVE('',#59,#81,#85,.T.);
#87=ORIENTED_EDGE('',*,*,#86,.F.);
#88=ORIENTED_EDGE('',*,*,#64,.T.);
#89=CARTESIAN_POINT('',(-0.5,-4.618802154,-0.));
#90=VERTEX_POINT('',#89);
#91=CARTESIAN_POINT('',(-0.5,-6175.941451884,10689.044379234));
#92=DIRECTION('',(0.,0.5,-0.866025404));
#93=VECTOR('',#92,24690.);
#94=LINE('',#91,#93);
#95=EDGE_CURVE('',#90,#51,#94,.T.);
#96=ORIENTED_EDGE('',*,*,#95,.F.);
#97=CARTESIAN_POINT('',(-3.14273441,-4.618802154,-0.));
#98=VERTEX_POINT('',#97);
#99=CARTESIAN_POINT('',(-12348.5,-4.618802154,-0.));
#100=DIRECTION('',(1.,0.,-0.));
#101=VECTOR('',#100,24690.);
#102=LINE('',#99,#101);
#103=EDGE_CURVE('',#98,#90,#102,.T.);
#104=ORIENTED_EDGE('',*,*,#103,.F.);
#105=CARTESIAN_POINT('',(-3.5,-3.464101615,-2.));
#106=CARTESIAN_POINT('',(-3.5,-4.,-1.07179677));
#107=CARTESIAN_POINT('',(-3.14273441,-4.618802154,-0.));
#108=(BOUNDED_CURVE()
B_SPLINE_CURVE(2,(#105,#106,#107),.UNSPECIFIED.,.F.,.F.)
B_SPLINE_CURVE_WITH_KNOTS((3,3),(2.513017481,4.877186081),.UNSPECIFIED.)
CURVE()
GEOMETRIC_REPRESENTATION_ITEM()
RATIONAL_B_SPLINE_CURVE((1.08828384,1.08828384,1.010148576))
REPRESENTATION_ITEM(''));
#109=EDGE_CURVE('',#81,#98,#108,.T.);
#110=ORIENTED_EDGE('',*,*,#109,.F.);
#111=EDGE_LOOP('',(#87,#88,#96,#104,#110));
#112=FACE_BOUND('',#111,.T.);
#113=ADVANCED_FACE('',(#112),#79,.T.);
#114=CARTESIAN_POINT('',(-3.5,-2.309401077,4.));
#115=DIRECTION('',(0.,-0.866025404,0.5));
#116=DIRECTION('',(0.,-0.5,-0.866025404));
#117=AXIS2_PLACEMENT_3D('',#114,#115,#116);
#118=PLANE('',#117);
#119=CARTESIAN_POINT('',(-3.5,-3.464101615,2.));
#120=VERTEX_POINT('',#119);
#121=CARTESIAN_POINT('',(-3.14273441,-4.618802154,-0.));
#122=CARTESIAN_POINT('',(-3.5,-4.,1.07179677));
#123=CARTESIAN_POINT('',(-3.5,-3.464101615,2.));
#124=(BOUNDED_CURVE()
B_SPLINE_CURVE(2,(#121,#122,#123),.UNSPECIFIED.,.F.,.F.)
B_SPLINE_CURVE_WITH_KNOTS((3,3),(0.148848881,2.513017481),.UNSPECIFIED.)
CURVE()
GEOMETRIC_REPRESENTATION_ITEM()
RATIONAL_B_SPLINE_CURVE((1.010148576,1.08828384,1.08828384))
REPRESENTATION_ITEM(''));
#125=EDGE_CURVE('',#98,#120,#124,.T.);
#126=ORIENTED_EDGE('',*,*,#125,.F.);
#127=ORIENTED_EDGE('',*,*,#103,.T.);
#128=CARTESIAN_POINT('',(-0.5,-2.309401077,4.));
#129=VERTEX_POINT('',#128);
#130=CARTESIAN_POINT('',(-0.5,6170.213248654,10695.122840203));
#131=DIRECTION('',(-0.,-0.5,-0.866025404));
#132=VECTOR('',#131,24690.);
#133=LINE('',#130,#132);
#134=EDGE_CURVE('',#129,#90,#133,.T.);
#135=ORIENTED_EDGE('',*,*,#134,.F.);
#136=CARTESIAN_POINT('',(-3.14273441,-2.309401077,4.));
#137=VERTEX_POINT('',#136);
#138=CARTESIAN_POINT('',(-12348.5,-2.309401077,4.));
#139=DIRECTION('',(1.,0.,-0.));
#140=VECTOR('',#139,24690.);
#141=LINE('',#138,#140);
#142=EDGE_CURVE('',#137,#129,#141,.T.);
#143=ORIENTED_EDGE('',*,*,#142,.F.);
#144=CARTESIAN_POINT('',(-3.5,-3.464101615,2.));
#145=CARTESIAN_POINT('',(-3.5,-2.92820323,2.92820323));
#146=CARTESIAN_POINT('',(-3.14273441,-2.309401077,4.));
#147=(BOUNDED_CURVE()
B_SPLINE_CURVE(2,(#144,#145,#146),.UNSPECIFIED.,.F.,.F.)
B_SPLINE_CURVE_WITH_KNOTS((3,3),(2.513017481,4.877186081),.UNSPECIFIED.)
CURVE()
GEOMETRIC_REPRESENTATION_ITEM()
RATIONAL_B_SPLINE_CURVE((1.08828384,1.08828384,1.010148576))
REPRESENTATION_ITEM(''));
#148=EDGE_CURVE('',#120,#137,#147,.T.);
#149=ORIENTED_EDGE('',*,*,#148,.F.);
#150=EDGE_LOOP('',(#126,#127,#135,#143,#149));
#151=FACE_BOUND('',#150,.T.);
#152=ADVANCED_FACE('',(#151),#118,.T.);
#153=CARTESIAN_POINT('',(-3.5,4.618802154,0.));
#154=DIRECTION('',(0.,0.866025404,0.5));
#155=DIRECTION('',(0.,-0.5,0.866025404));
#156=AXIS2_PLACEMENT_3D('',#153,#154,#155);
#157=PLANE('',#156);
#158=CARTESIAN_POINT('',(-3.14273441,2.309401077,4.));
#159=VERTEX_POINT('',#158);
#160=CARTESIAN_POINT('',(-3.5,3.464101615,2.));
#161=VERTEX_POINT('',#160);
#162=CARTESIAN_POINT('',(-3.14273441,2.309401077,4.));
#163=CARTESIAN_POINT('',(-3.5,2.92820323,2.92820323));
#164=CARTESIAN_POINT('',(-3.5,3.464101615,2.));
#165=(BOUNDED_CURVE()
B_SPLINE_CURVE(2,(#162,#163,#164),.UNSPECIFIED.,.F.,.F.)
B_SPLINE_CURVE_WITH_KNOTS((3,3),(0.148848881,2.513017481),.UNSPECIFIED.)
CURVE()
GEOMETRIC_REPRESENTATION_ITEM()
RATIONAL_B_SPLINE_CURVE((1.010148576,1.08828384,1.08828384))
REPRESENTATION_ITEM(''));
#166=EDGE_CURVE('',#159,#161,#165,.T.);
#167=ORIENTED_EDGE('',*,*,#166,.F.);
#168=CARTESIAN_POINT('',(-0.5,2.309401077,4.));
#169=VERTEX_POINT('',#168);
#170=CARTESIAN_POINT('',(-12348.5,2.309401077,4.));
#171=DIRECTION('',(1.,0.,-0.));
#172=VECTOR('',#171,24690.);
#173=LINE('',#170,#172);
#174=EDGE_CURVE('',#159,#169,#173,.T.);
#175=ORIENTED_EDGE('',*,*,#174,.T.);
#176=CARTESIAN_POINT('',(-0.5,4.618802154,0.));
#177=VERTEX_POINT('',#176);
#178=CARTESIAN_POINT('',(-0.5,6177.141451884,-10691.122840203));
#179=DIRECTION('',(0.,-0.5,0.866025404));
#180=VECTOR('',#179,24690.);
#181=LINE('',#178,#180);
#182=EDGE_CURVE('',#177,#169,#181,.T.);
#183=ORIENTED_EDGE('',*,*,#182,.F.);
#184=CARTESIAN_POINT('',(-3.14273441,4.618802154,0.));
#185=VERTEX_POINT('',#184);
#186=CARTESIAN_POINT('',(-12348.5,4.618802154,0.));
#187=DIRECTION('',(1.,-0.,-0.));
#188=VECTOR('',#187,24690.);
#189=LINE('',#186,#188);
#190=EDGE_CURVE('',#185,#177,#189,.T.);
#191=ORIENTED_EDGE('',*,*,#190,.F.);
#192=CARTESIAN_POINT('',(-3.5,3.464101615,2.));
#193=CARTESIAN_POINT('',(-3.5,4.,1.07179677));
#194=CARTESIAN_POINT('',(-3.14273441,4.618802154,0.));
#195=(BOUNDED_CURVE()
B_SPLINE_CURVE(2,(#192,#193,#194),.UNSPECIFIED.,.F.,.F.)
B_SPLINE_CURVE_WITH_KNOTS((3,3),(2.513017481,4.877186081),.UNSPECIFIED.)
CURVE()
GEOMETRIC_REPRESENTATION_ITEM()
RATIONAL_B_SPLINE_CURVE((1.08828384,1.08828384,1.010148576))
REPRESENTATION_ITEM(''));
#196=EDGE_CURVE('',#161,#185,#195,.T.);
#197=ORIENTED_EDGE('',*,*,#196,.F.);
#198=EDGE_LOOP('',(#167,#175,#183,#191,#197));
#199=FACE_BOUND('',#198,.T.);
#200=ADVANCED_FACE('',(#199),#157,.T.);
#201=CARTESIAN_POINT('',(-3.5,2.309401077,4.));
#202=DIRECTION('',(0.,0.,1.));
#203=DIRECTION('',(1.,0.,0.));
#204=AXIS2_PLACEMENT_3D('',#201,#202,#203);
#205=PLANE('',#204);
#206=CARTESIAN_POINT('',(-3.5,0.,4.));
#207=VERTEX_POINT('',#206);
#208=CARTESIAN_POINT('',(-3.14273441,-2.309401077,4.));
#209=CARTESIAN_POINT('',(-3.5,-1.07179677,4.));
#210=CARTESIAN_POINT('',(-3.5,-0.,4.));
#211=(BOUNDED_CURVE()
B_SPLINE_CURVE(2,(#208,#209,#210),.UNSPECIFIED.,.F.,.F.)
B_SPLINE_CURVE_WITH_KNOTS((3,3),(0.148848881,2.513017481),.UNSPECIFIED.)
CURVE()
GEOMETRIC_REPRESENTATION_ITEM()
RATIONAL_B_SPLINE_CURVE((1.010148576,1.08828384,1.08828384))
REPRESENTATION_ITEM(''));
#212=EDGE_CURVE('',#137,#207,#211,.T.);
#213=ORIENTED_EDGE('',*,*,#212,.F.);
#214=ORIENTED_EDGE('',*,*,#142,.T.);
#215=CARTESIAN_POINT('',(-0.5,12348.554700538,4.));
#216=DIRECTION('',(0.,-1.,0.));
#217=VECTOR('',#216,24690.);
#218=LINE('',#215,#217);
#219=EDGE_CURVE('',#169,#129,#218,.T.);
#220=ORIENTED_EDGE('',*,*,#219,.F.);
#221=ORIENTED_EDGE('',*,*,#174,.F.);
#222=CARTESIAN_POINT('',(-3.5,-0.,4.));
#223=CARTESIAN_POINT('',(-3.5,1.07179677,4.));
#224=CARTESIAN_POINT('',(-3.14273441,2.309401077,4.));
#225=(BOUNDED_CURVE()
B_SPLINE_CURVE(2,(#222,#223,#224),.UNSPECIFIED.,.F.,.F.)
B_SPLINE_CURVE_WITH_KNOTS((3,3),(2.513017481,4.877186081),.UNSPECIFIED.)
CURVE()
GEOMETRIC_REPRESENTATION_ITEM()
RATIONAL_B_SPLINE_CURVE((1.08828384,1.08828384,1.010148576))
REPRESENTATION_ITEM(''));
#226=EDGE_CURVE('',#207,#159,#225,.T.);
#227=ORIENTED_EDGE('',*,*,#226,.F.);
#228=EDGE_LOOP('',(#213,#214,#220,#221,#227));
#229=FACE_BOUND('',#228,.T.);
#230=ADVANCED_FACE('',(#229),#205,.T.);
#231=CARTESIAN_POINT('',(-0.5,4.8,0.));
#232=DIRECTION('',(-1.,0.,0.));
#233=DIRECTION('',(0.,0.,1.));
#234=AXIS2_PLACEMENT_3D('',#231,#232,#233);
#235=PLANE('',#234);
#236=CARTESIAN_POINT('',(-0.5,0.,3.44));
#237=VERTEX_POINT('',#236);
#238=CARTESIAN_POINT('',(-0.5,0.,-3.44));
#239=VERTEX_POINT('',#238);
#240=CARTESIAN_POINT('',(-0.5,0.,0.));
#241=DIRECTION('',(1.,-0.,-0.));
#242=DIRECTION('',(0.,0.,-1.));
#243=AXIS2_PLACEMENT_3D('',#240,#241,#242);
#244=CIRCLE('',#243,3.44);
#245=EDGE_CURVE('',#237,#239,#244,.T.);
#246=ORIENTED_EDGE('',*,*,#245,.F.);
#247=CARTESIAN_POINT('',(-0.5,0.,0.));
#248=DIRECTION('',(1.,-0.,-0.));
#249=DIRECTION('',(0.,0.,-1.));
#250=AXIS2_PLACEMENT_3D('',#247,#248,#249);
#251=CIRCLE('',#250,3.44);
#252=EDGE_CURVE('',#239,#237,#251,.T.);
#253=ORIENTED_EDGE('',*,*,#252,.F.);
#254=EDGE_LOOP('',(#246,#253));
#255=FACE_BOUND('',#254,.T.);
#256=ORIENTED_EDGE('',*,*,#219,.T.);
#257=ORIENTED_EDGE('',*,*,#134,.T.);
#258=ORIENTED_EDGE('',*,*,#95,.T.);
#259=ORIENTED_EDGE('',*,*,#56,.T.);
#260=CARTESIAN_POINT('',(-0.5,-6169.013248654,-10693.044379234));
#261=DIRECTION('',(0.,0.5,0.866025404));
#262=VECTOR('',#261,24690.);
#263=LINE('',#260,#262);
#264=EDGE_CURVE('',#43,#177,#263,.T.);
#265=ORIENTED_EDGE('',*,*,#264,.T.);
#266=ORIENTED_EDGE('',*,*,#182,.T.);
#267=EDGE_LOOP('',(#256,#257,#258,#259,#265,#266));
#268=FACE_BOUND('',#267,.T.);
#269=ADVANCED_FACE('',(#255,#268),#235,.F.);
#270=CARTESIAN_POINT('',(0.,0.,0.));
#271=DIRECTION('',(-1.,-0.,0.));
#272=DIRECTION('',(-0.,0.,-1.));
#273=AXIS2_PLACEMENT_3D('',#270,#271,#272);
#274=CYLINDRICAL_SURFACE('',#273,3.44);
#275=CARTESIAN_POINT('',(0.,-0.,3.44));
#276=VERTEX_POINT('',#275);
#277=CARTESIAN_POINT('',(-0.5,0.,3.44));
#278=DIRECTION('',(1.,-0.,-0.));
#279=VECTOR('',#278,0.5);
#280=LINE('',#277,#279);
#281=EDGE_CURVE('',#237,#276,#280,.T.);
#282=ORIENTED_EDGE('',*,*,#281,.T.);
#283=CARTESIAN_POINT('',(0.,0.,-3.44));
#284=VERTEX_POINT('',#283);
#285=CARTESIAN_POINT('',(0.,0.,0.));
#286=DIRECTION('',(1.,0.,-0.));
#287=DIRECTION('',(-0.,0.,-1.));
#288=AXIS2_PLACEMENT_3D('',#285,#286,#287);
#289=CIRCLE('',#288,3.44);
#290=EDGE_CURVE('',#284,#276,#289,.T.);
#291=ORIENTED_EDGE('',*,*,#290,.F.);
#292=CARTESIAN_POINT('',(-0.5,0.,-3.44));
#293=DIRECTION('',(1.,0.,-0.));
#294=VECTOR('',#293,0.5);
#295=LINE('',#292,#294);
#296=EDGE_CURVE('',#239,#284,#295,.T.);
#297=ORIENTED_EDGE('',*,*,#296,.F.);
#298=ORIENTED_EDGE('',*,*,#252,.T.);
#299=EDGE_LOOP('',(#282,#291,#297,#298));
#300=FACE_BOUND('',#299,.T.);
#301=ADVANCED_FACE('',(#300),#274,.T.);
#302=CARTESIAN_POINT('',(0.,4.8,0.));
#303=DIRECTION('',(-1.,0.,0.));
#304=DIRECTION('',(0.,0.,1.));
#305=AXIS2_PLACEMENT_3D('',#302,#303,#304);
#306=PLANE('',#305);
#307=CARTESIAN_POINT('',(0.,0.,2.7));
#308=VERTEX_POINT('',#307);
#309=CARTESIAN_POINT('',(0.,-0.,-2.7));
#310=VERTEX_POINT('',#309);
#311=CARTESIAN_POINT('',(0.,0.,0.));
#312=DIRECTION('',(1.,-0.,-0.));
#313=DIRECTION('',(0.,0.,1.));
#314=AXIS2_PLACEMENT_3D('',#311,#312,#313);
#315=CIRCLE('',#314,2.7);
#316=EDGE_CURVE('',#308,#310,#315,.T.);
#317=ORIENTED_EDGE('',*,*,#316,.F.);
#318=CARTESIAN_POINT('',(0.,0.,0.));
#319=DIRECTION('',(1.,-0.,-0.));
#320=DIRECTION('',(0.,0.,1.));
#321=AXIS2_PLACEMENT_3D('',#318,#319,#320);
#322=CIRCLE('',#321,2.7);
#323=EDGE_CURVE('',#310,#308,#322,.T.);
#324=ORIENTED_EDGE('',*,*,#323,.F.);
#325=EDGE_LOOP('',(#317,#324));
#326=FACE_BOUND('',#325,.T.);
#327=ORIENTED_EDGE('',*,*,#290,.T.);
#328=CARTESIAN_POINT('',(0.,0.,0.));
#329=DIRECTION('',(1.,0.,-0.));
#330=DIRECTION('',(-0.,0.,-1.));
#331=AXIS2_PLACEMENT_3D('',#328,#329,#330);
#332=CIRCLE('',#331,3.44);
#333=EDGE_CURVE('',#276,#284,#332,.T.);
#334=ORIENTED_EDGE('',*,*,#333,.T.);
#335=EDGE_LOOP('',(#327,#334));
#336=FACE_BOUND('',#335,.T.);
#337=ADVANCED_FACE('',(#326,#336),#306,.F.);
#338=CARTESIAN_POINT('',(0.2,0.,0.));
#339=DIRECTION('',(1.,0.,-0.));
#340=DIRECTION('',(-0.,0.,-1.));
#341=AXIS2_PLACEMENT_3D('',#338,#339,#340);
#342=TOROIDAL_SURFACE('',#341,2.7,0.2);
#343=CARTESIAN_POINT('',(0.2,-0.,2.5));
#344=VERTEX_POINT('',#343);
#345=CARTESIAN_POINT('',(0.2,0.,2.7));
#346=DIRECTION('',(-0.,-1.,0.));
#347=DIRECTION('',(0.,0.,1.));
#348=AXIS2_PLACEMENT_3D('',#345,#346,#347);
#349=CIRCLE('',#348,0.2);
#350=EDGE_CURVE('',#308,#344,#349,.T.);
#351=ORIENTED_EDGE('',*,*,#350,.F.);
#352=ORIENTED_EDGE('',*,*,#316,.T.);
#353=CARTESIAN_POINT('',(0.2,-0.,-2.5));
#354=VERTEX_POINT('',#353);
#355=CARTESIAN_POINT('',(0.2,0.,-2.7));
#356=DIRECTION('',(0.,1.,0.));
#357=DIRECTION('',(0.,0.,-1.));
#358=AXIS2_PLACEMENT_3D('',#355,#356,#357);
#359=CIRCLE('',#358,0.2);
#360=EDGE_CURVE('',#310,#354,#359,.T.);
#361=ORIENTED_EDGE('',*,*,#360,.T.);
#362=CARTESIAN_POINT('',(0.2,0.,0.));
#363=DIRECTION('',(1.,0.,-0.));
#364=DIRECTION('',(-0.,0.,-1.));
#365=AXIS2_PLACEMENT_3D('',#362,#363,#364);
#366=CIRCLE('',#365,2.5);
#367=EDGE_CURVE('',#344,#354,#366,.T.);
#368=ORIENTED_EDGE('',*,*,#367,.F.);
#369=EDGE_LOOP('',(#351,#352,#361,#368));
#370=FACE_BOUND('',#369,.T.);
#371=ADVANCED_FACE('',(#370),#342,.F.);
#372=CARTESIAN_POINT('',(25.,0.,0.));
#373=DIRECTION('',(-1.,-0.,0.));
#374=DIRECTION('',(-0.,0.,-1.));
#375=AXIS2_PLACEMENT_3D('',#372,#373,#374);
#376=CYLINDRICAL_SURFACE('',#375,2.5);
#377=CARTESIAN_POINT('',(24.5095,0.,2.5));
#378=VERTEX_POINT('',#377);
#379=CARTESIAN_POINT('',(0.2,-0.,2.5));
#380=DIRECTION('',(1.,-0.,-0.));
#381=VECTOR('',#380,24.3095);
#382=LINE('',#379,#381);
#383=EDGE_CURVE('',#344,#378,#382,.T.);
#384=ORIENTED_EDGE('',*,*,#383,.T.);
#385=CARTESIAN_POINT('',(24.5095,-0.,-2.5));
#386=VERTEX_POINT('',#385);
#387=CARTESIAN_POINT('',(24.5095,0.,0.));
#388=DIRECTION('',(1.,0.,-0.));
#389=DIRECTION('',(-0.,0.,-1.));
#390=AXIS2_PLACEMENT_3D('',#387,#388,#389);
#391=CIRCLE('',#390,2.5);
#392=EDGE_CURVE('',#386,#378,#391,.T.);
#393=ORIENTED_EDGE('',*,*,#392,.F.);
#394=CARTESIAN_POINT('',(0.2,0.,-2.5));
#395=DIRECTION('',(1.,0.,-0.));
#396=VECTOR('',#395,24.3095);
#397=LINE('',#394,#396);
#398=EDGE_CURVE('',#354,#386,#397,.T.);
#399=ORIENTED_EDGE('',*,*,#398,.F.);
#400=CARTESIAN_POINT('',(0.2,0.,0.));
#401=DIRECTION('',(1.,0.,-0.));
#402=DIRECTION('',(-0.,0.,-1.));
#403=AXIS2_PLACEMENT_3D('',#400,#401,#402);
#404=CIRCLE('',#403,2.5);
#405=EDGE_CURVE('',#354,#344,#404,.T.);
#406=ORIENTED_EDGE('',*,*,#405,.T.);
#407=EDGE_LOOP('',(#384,#393,#399,#406));
#408=FACE_BOUND('',#407,.T.);
#409=ADVANCED_FACE('',(#408),#376,.T.);
#410=CARTESIAN_POINT('',(24.5095,0.,0.));
#411=DIRECTION('',(-1.,0.,0.));
#412=DIRECTION('',(0.,0.,1.));
#413=AXIS2_PLACEMENT_3D('',#410,#411,#412);
#414=CONICAL_SURFACE('',#413,2.5,45.);
#415=CARTESIAN_POINT('',(25.,-0.,-2.0095));
#416=VERTEX_POINT('',#415);
#417=CARTESIAN_POINT('',(24.5095,0.,-2.5));
#418=DIRECTION('',(0.707106781,-0.,0.707106781));
#419=VECTOR('',#418,0.693671752);
#420=LINE('',#417,#419);
#421=EDGE_CURVE('',#386,#416,#420,.T.);
#422=ORIENTED_EDGE('',*,*,#421,.T.);
#423=CARTESIAN_POINT('',(25.,0.,2.0095));
#424=VERTEX_POINT('',#423);
#425=CARTESIAN_POINT('',(25.,0.,0.));
#426=DIRECTION('',(1.,-0.,-0.));
#427=DIRECTION('',(0.,0.,1.));
#428=AXIS2_PLACEMENT_3D('',#425,#426,#427);
#429=CIRCLE('',#428,2.0095);
#430=EDGE_CURVE('',#424,#416,#429,.T.);
#431=ORIENTED_EDGE('',*,*,#430,.F.);
#432=CARTESIAN_POINT('',(24.5095,0.,2.5));
#433=DIRECTION('',(0.707106781,0.,-0.707106781));
#434=VECTOR('',#433,0.693671752);
#435=LINE('',#432,#434);
#436=EDGE_CURVE('',#378,#424,#435,.T.);
#437=ORIENTED_EDGE('',*,*,#436,.F.);
#438=CARTESIAN_POINT('',(24.5095,0.,0.));
#439=DIRECTION('',(1.,0.,-0.));
#440=DIRECTION('',(-0.,0.,-1.));
#441=AXIS2_PLACEMENT_3D('',#438,#439,#440);
#442=CIRCLE('',#441,2.5);
#443=EDGE_CURVE('',#378,#386,#442,.T.);
#444=ORIENTED_EDGE('',*,*,#443,.T.);
#445=EDGE_LOOP('',(#422,#431,#437,#444));
#446=FACE_BOUND('',#445,.T.);
#447=ADVANCED_FACE('',(#446),#414,.T.);
#448=CARTESIAN_POINT('',(25.,2.0095,0.));
#449=DIRECTION('',(-1.,0.,0.));
#450=DIRECTION('',(0.,0.,1.));
#451=AXIS2_PLACEMENT_3D('',#448,#449,#450);
#452=PLANE('',#451);
#453=CARTESIAN_POINT('',(25.,0.,0.));
#454=DIRECTION('',(1.,-0.,-0.));
#455=DIRECTION('',(0.,0.,1.));
#456=AXIS2_PLACEMENT_3D('',#453,#454,#455);
#457=CIRCLE('',#456,2.0095);
#458=EDGE_CURVE('',#416,#424,#457,.T.);
#459=ORIENTED_EDGE('',*,*,#458,.T.);
#460=ORIENTED_EDGE('',*,*,#430,.T.);
#461=EDGE_LOOP('',(#459,#460));
#462=FACE_BOUND('',#461,.T.);
#463=ADVANCED_FACE('',(#462),#452,.F.);
#464=CARTESIAN_POINT('',(-3.5,2.309401077,-4.));
#465=DIRECTION('',(0.,0.866025404,-0.5));
#466=DIRECTION('',(0.,0.5,0.866025404));
#467=AXIS2_PLACEMENT_3D('',#464,#465,#466);
#468=PLANE('',#467);
#469=CARTESIAN_POINT('',(-3.5,3.464101615,-2.));
#470=VERTEX_POINT('',#469);
#471=CARTESIAN_POINT('',(-3.14273441,4.618802154,0.));
#472=CARTESIAN_POINT('',(-3.5,4.,-1.07179677));
#473=CARTESIAN_POINT('',(-3.5,3.464101615,-2.));
#474=(BOUNDED_CURVE()
B_SPLINE_CURVE(2,(#471,#472,#473),.UNSPECIFIED.,.F.,.F.)
B_SPLINE_CURVE_WITH_KNOTS((3,3),(0.148848881,2.513017481),.UNSPECIFIED.)
CURVE()
GEOMETRIC_REPRESENTATION_ITEM()
RATIONAL_B_SPLINE_CURVE((1.010148576,1.08828384,1.08828384))
REPRESENTATION_ITEM(''));
#475=EDGE_CURVE('',#185,#470,#474,.T.);
#476=ORIENTED_EDGE('',*,*,#475,.F.);
#477=ORIENTED_EDGE('',*,*,#190,.T.);
#478=ORIENTED_EDGE('',*,*,#264,.F.);
#479=ORIENTED_EDGE('',*,*,#48,.F.);
#480=CARTESIAN_POINT('',(-3.5,3.464101615,-2.));
#481=CARTESIAN_POINT('',(-3.5,2.92820323,-2.92820323));
#482=CARTESIAN_POINT('',(-3.14273441,2.309401077,-4.));
#483=(BOUNDED_CURVE()
B_SPLINE_CURVE(2,(#480,#481,#482),.UNSPECIFIED.,.F.,.F.)
B_SPLINE_CURVE_WITH_KNOTS((3,3),(2.513017481,4.877186081),.UNSPECIFIED.)
CURVE()
GEOMETRIC_REPRESENTATION_ITEM()
RATIONAL_B_SPLINE_CURVE((1.08828384,1.08828384,1.010148576))
REPRESENTATION_ITEM(''));
#484=EDGE_CURVE('',#470,#33,#483,.T.);
#485=ORIENTED_EDGE('',*,*,#484,.F.);
#486=EDGE_LOOP('',(#476,#477,#478,#479,#485));
#487=FACE_BOUND('',#486,.T.);
#488=ADVANCED_FACE('',(#487),#468,.T.);
#489=CARTESIAN_POINT('',(-3.5,0.,0.));
#490=DIRECTION('',(1.,0.,-0.));
#491=DIRECTION('',(-0.,0.,-1.));
#492=AXIS2_PLACEMENT_3D('',#489,#490,#491);
#493=CONICAL_SURFACE('',#492,4.,60.);
#494=ORIENTED_EDGE('',*,*,#166,.T.);
#495=CARTESIAN_POINT('',(-3.5,0.,0.));
#496=DIRECTION('',(1.,0.,-0.));
#497=DIRECTION('',(-0.,0.,-1.));
#498=AXIS2_PLACEMENT_3D('',#495,#496,#497);
#499=CIRCLE('',#498,4.);
#500=EDGE_CURVE('',#161,#207,#499,.T.);
#501=ORIENTED_EDGE('',*,*,#500,.T.);
#502=ORIENTED_EDGE('',*,*,#226,.T.);
#503=EDGE_LOOP('',(#494,#501,#502));
#504=FACE_BOUND('',#503,.T.);
#505=ADVANCED_FACE('',(#504),#493,.T.);
#506=CARTESIAN_POINT('',(-3.5,0.,0.));
#507=DIRECTION('',(1.,0.,-0.));
#508=DIRECTION('',(-0.,0.,-1.));
#509=AXIS2_PLACEMENT_3D('',#506,#507,#508);
#510=CONICAL_SURFACE('',#509,4.,60.);
#511=ORIENTED_EDGE('',*,*,#148,.T.);
#512=ORIENTED_EDGE('',*,*,#212,.T.);
#513=CARTESIAN_POINT('',(-3.5,0.,0.));
#514=DIRECTION('',(1.,0.,-0.));
#515=DIRECTION('',(-0.,0.,-1.));
#516=AXIS2_PLACEMENT_3D('',#513,#514,#515);
#517=CIRCLE('',#516,4.);
#518=EDGE_CURVE('',#207,#120,#517,.T.);
#519=ORIENTED_EDGE('',*,*,#518,.T.);
#520=EDGE_LOOP('',(#511,#512,#519));
#521=FACE_BOUND('',#520,.T.);
#522=ADVANCED_FACE('',(#521),#510,.T.);
#523=CARTESIAN_POINT('',(-3.5,0.,0.));
#524=DIRECTION('',(1.,0.,-0.));
#525=DIRECTION('',(-0.,0.,-1.));
#526=AXIS2_PLACEMENT_3D('',#523,#524,#525);
#527=CONICAL_SURFACE('',#526,4.,60.);
#528=ORIENTED_EDGE('',*,*,#475,.T.);
#529=CARTESIAN_POINT('',(-3.5,0.,0.));
#530=DIRECTION('',(1.,0.,-0.));
#531=DIRECTION('',(-0.,0.,-1.));
#532=AXIS2_PLACEMENT_3D('',#529,#530,#531);
#533=CIRCLE('',#532,4.);
#534=EDGE_CURVE('',#470,#161,#533,.T.);
#535=ORIENTED_EDGE('',*,*,#534,.T.);
#536=ORIENTED_EDGE('',*,*,#196,.T.);
#537=EDGE_LOOP('',(#528,#535,#536));
#538=FACE_BOUND('',#537,.T.);
#539=ADVANCED_FACE('',(#538),#527,.T.);
#540=CARTESIAN_POINT('',(-3.5,0.,0.));
#541=DIRECTION('',(1.,0.,-0.));
#542=DIRECTION('',(-0.,0.,-1.));
#543=AXIS2_PLACEMENT_3D('',#540,#541,#542);
#544=CONICAL_SURFACE('',#543,4.,60.);
#545=ORIENTED_EDGE('',*,*,#40,.T.);
#546=CARTESIAN_POINT('',(-3.5,0.,0.));
#547=DIRECTION('',(1.,0.,-0.));
#548=DIRECTION('',(-0.,0.,-1.));
#549=AXIS2_PLACEMENT_3D('',#546,#547,#548);
#550=CIRCLE('',#549,4.);
#551=EDGE_CURVE('',#35,#470,#550,.T.);
#552=ORIENTED_EDGE('',*,*,#551,.T.);
#553=ORIENTED_EDGE('',*,*,#484,.T.);
#554=EDGE_LOOP('',(#545,#552,#553));
#555=FACE_BOUND('',#554,.T.);
#556=ADVANCED_FACE('',(#555),#544,.T.);
#557=CARTESIAN_POINT('',(-3.5,0.,0.));
#558=DIRECTION('',(1.,0.,-0.));
#559=DIRECTION('',(-0.,0.,-1.));
#560=AXIS2_PLACEMENT_3D('',#557,#558,#559);
#561=CONICAL_SURFACE('',#560,4.,60.);
#562=ORIENTED_EDGE('',*,*,#70,.T.);
#563=ORIENTED_EDGE('',*,*,#86,.T.);
#564=CARTESIAN_POINT('',(-3.5,0.,0.));
#565=DIRECTION('',(1.,0.,-0.));
#566=DIRECTION('',(-0.,0.,-1.));
#567=AXIS2_PLACEMENT_3D('',#564,#565,#566);
#568=CIRCLE('',#567,4.);
#569=EDGE_CURVE('',#81,#35,#568,.T.);
#570=ORIENTED_EDGE('',*,*,#569,.T.);
#571=EDGE_LOOP('',(#562,#563,#570));
#572=FACE_BOUND('',#571,.T.);
#573=ADVANCED_FACE('',(#572),#561,.T.);
#574=CARTESIAN_POINT('',(-3.5,0.,0.));
#575=DIRECTION('',(1.,0.,-0.));
#576=DIRECTION('',(-0.,0.,-1.));
#577=AXIS2_PLACEMENT_3D('',#574,#575,#576);
#578=CONICAL_SURFACE('',#577,4.,60.);
#579=ORIENTED_EDGE('',*,*,#109,.T.);
#580=ORIENTED_EDGE('',*,*,#125,.T.);
#581=CARTESIAN_POINT('',(-3.5,0.,0.));
#582=DIRECTION('',(1.,0.,-0.));
#583=DIRECTION('',(-0.,0.,-1.));
#584=AXIS2_PLACEMENT_3D('',#581,#582,#583);
#585=CIRCLE('',#584,4.);
#586=EDGE_CURVE('',#120,#81,#585,.T.);
#587=ORIENTED_EDGE('',*,*,#586,.T.);
#588=EDGE_LOOP('',(#579,#580,#587));
#589=FACE_BOUND('',#588,.T.);
#590=ADVANCED_FACE('',(#589),#578,.T.);
#591=CARTESIAN_POINT('',(-3.5,0.,0.));
#592=DIRECTION('',(1.,0.,0.));
#593=DIRECTION('',(0.,0.,-1.));
#594=AXIS2_PLACEMENT_3D('',#591,#592,#593);
#595=PLANE('',#594);
#596=ORIENTED_EDGE('',*,*,#534,.F.);
#597=ORIENTED_EDGE('',*,*,#551,.F.);
#598=ORIENTED_EDGE('',*,*,#569,.F.);
#599=ORIENTED_EDGE('',*,*,#586,.F.);
#600=ORIENTED_EDGE('',*,*,#518,.F.);
#601=ORIENTED_EDGE('',*,*,#500,.F.);
#602=EDGE_LOOP('',(#596,#597,#598,#599,#600,#601));
#603=FACE_BOUND('',#602,.T.);
#604=ADVANCED_FACE('',(#603),#595,.F.);
#605=CARTESIAN_POINT('',(0.,0.,0.));
#606=DIRECTION('',(-1.,-0.,0.));
#607=DIRECTION('',(-0.,0.,-1.));
#608=AXIS2_PLACEMENT_3D('',#605,#606,#607);
#609=CYLINDRICAL_SURFACE('',#608,3.44);
#610=ORIENTED_EDGE('',*,*,#281,.F.);
#611=ORIENTED_EDGE('',*,*,#245,.T.);
#612=ORIENTED_EDGE('',*,*,#296,.T.);
#613=ORIENTED_EDGE('',*,*,#333,.F.);
#614=EDGE_LOOP('',(#610,#611,#612,#613));
#615=FACE_BOUND('',#614,.T.);
#616=ADVANCED_FACE('',(#615),#609,.T.);
#617=CARTESIAN_POINT('',(0.2,0.,0.));
#618=DIRECTION('',(1.,0.,-0.));
#619=DIRECTION('',(-0.,0.,-1.));
#620=AXIS2_PLACEMENT_3D('',#617,#618,#619);
#621=TOROIDAL_SURFACE('',#620,2.7,0.2);
#622=ORIENTED_EDGE('',*,*,#350,.T.);
#623=ORIENTED_EDGE('',*,*,#405,.F.);
#624=ORIENTED_EDGE('',*,*,#360,.F.);
#625=ORIENTED_EDGE('',*,*,#323,.T.);
#626=EDGE_LOOP('',(#622,#623,#624,#625));
#627=FACE_BOUND('',#626,.T.);
#628=ADVANCED_FACE('',(#627),#621,.F.);
#629=CARTESIAN_POINT('',(25.,0.,0.));
#630=DIRECTION('',(-1.,-0.,0.));
#631=DIRECTION('',(-0.,0.,-1.));
#632=AXIS2_PLACEMENT_3D('',#629,#630,#631);
#633=CYLINDRICAL_SURFACE('',#632,2.5);
#634=ORIENTED_EDGE('',*,*,#383,.F.);
#635=ORIENTED_EDGE('',*,*,#367,.T.);
#636=ORIENTED_EDGE('',*,*,#398,.T.);
#637=ORIENTED_EDGE('',*,*,#443,.F.);
#638=EDGE_LOOP('',(#634,#635,#636,#637));
#639=FACE_BOUND('',#638,.T.);
#640=ADVANCED_FACE('',(#639),#633,.T.);
#641=CARTESIAN_POINT('',(24.5095,0.,0.));
#642=DIRECTION('',(-1.,0.,0.));
#643=DIRECTION('',(0.,0.,1.));
#644=AXIS2_PLACEMENT_3D('',#641,#642,#643);
#645=CONICAL_SURFACE('',#644,2.5,45.);
#646=ORIENTED_EDGE('',*,*,#421,.F.);
#647=ORIENTED_EDGE('',*,*,#392,.T.);
#648=ORIENTED_EDGE('',*,*,#436,.T.);
#649=ORIENTED_EDGE('',*,*,#458,.F.);
#650=EDGE_LOOP('',(#646,#647,#648,#649));
#651=FACE_BOUND('',#650,.T.);
#652=ADVANCED_FACE('',(#651),#645,.T.);
#653=CLOSED_SHELL('',(#74,#113,#152,#200,#230,#269,#301,#337,#371,#409,#447,#463,#488,#505,#522,#539,#556,#573,#590,#604,#616,#628,#640,#652));
#654=MANIFOLD_SOLID_BREP('HI_Hexagon bolts  ISO4017/DIN933 M5x25 51010.050.025 (High)',#653);
#655=COLOUR_RGB('',0.689999998,0.689999998,0.689999998);
#656=FILL_AREA_STYLE_COLOUR('',#655);
#657=FILL_AREA_STYLE('',(#656));
#658=SURFACE_STYLE_FILL_AREA(#657);
#659=SURFACE_SIDE_STYLE('',(#658));
#660=SURFACE_STYLE_USAGE(.BOTH.,#659);
#661=PRESENTATION_STYLE_ASSIGNMENT((#660));
#26=STYLED_ITEM('',(#661),#654);
#16=SHAPE_REPRESENTATION('1794 M5x25 - A2-70 - Bolt Hexagonal DIN-933 (full thread)',(#15),#10);
#17=ADVANCED_BREP_SHAPE_REPRESENTATION('1794 M5x25 - A2-70 - Bolt Hexagonal DIN-933 (full thread)',(#654),#10);
#669=SHAPE_REPRESENTATION_RELATIONSHIP('','',#16,#17);
#670=CARTESIAN_POINT('',(0.,0.,0.));
#671=DIRECTION('',(0.,0.,1.));
#672=DIRECTION('',(1.,0.,0.));
#673=AXIS2_PLACEMENT_3D('',#670,#671,#672);
#675=MAPPED_ITEM('',#674,#673);
#674=REPRESENTATION_MAP(#673,#16);
#676=APPLICATION_CONTEXT('Managed model based 3d engineering');
#677=APPLICATION_PROTOCOL_DEFINITION('international standard','ap242_managed_model_based_3d_engineering',2013,#676);
#678=PRODUCT_CONTEXT('',#676,'mechanical');
#679=PRODUCT_DEFINITION_CONTEXT('part definition',#676,'design');
#24=PRODUCT('1794 M5x25 - A2-70 - Bolt Hexagonal DIN-933 (full thread)','1794 M5x25 - A2-70 - Bolt Hexagonal DIN-933 (full thread)','',(#678));
#680=PRODUCT_RELATED_PRODUCT_CATEGORY('part','',(#24));
#681=PRODUCT_DEFINITION_FORMATION_WITH_SPECIFIED_SOURCE('','',#24,.NOT_KNOWN.);
#25=PRODUCT_DEFINITION('design','',#681,#679);
#23=PRODUCT_DEFINITION_SHAPE('','',#25);
#682=SHAPE_DEFINITION_REPRESENTATION(#23,#16);
#11=DRAUGHTING_MODEL('',(#675),#10);
#1=MECHANICAL_DESIGN_GEOMETRIC_PRESENTATION_REPRESENTATION('',(#26),#10);
ENDSEC;
END-ISO-10303-21;
