ISO-10303-21;
HEADER;
/* Generated by software containing ST-Developer
 * from STEP Tools, Inc. (www.steptools.com) 
 */

FILE_DESCRIPTION(
/* description */ ('Alibre Inc.'),
/* implementation_level */ '2;1');

FILE_NAME(
/* name */ 'export-CA979581-FDDD-4FA2-A255-1A6F072A10E3',
/* time_stamp */ '2023-03-11T17:55:53+01:00',
/* author */ (''),
/* organization */ (''),
/* preprocessor_version */ 'ST-DEVELOPER v17',
/* originating_system */ 'Alibre',
/* authorisation */ '');

FILE_SCHEMA (('AUTOMOTIVE_DESIGN'));
ENDSEC;

DATA;
#10=STYLED_ITEM('NAME_0',(#18),#674);
#11=MECHANICAL_DESIGN_GEOMETRIC_PRESENTATION_REPRESENTATION('NAME_0',(#10),
#33);
#12=COLOUR_RGB('',0.686274509803922,0.686274509803922,0.686274509803922);
#13=FILL_AREA_STYLE_COLOUR('NAME_0',#12);
#14=FILL_AREA_STYLE('NAME_0',(#13));
#15=SURFACE_STYLE_FILL_AREA(#14);
#16=SURFACE_SIDE_STYLE('NAME_0',(#15));
#17=SURFACE_STYLE_USAGE(.POSITIVE.,#16);
#18=PRESENTATION_STYLE_ASSIGNMENT((#17));
#19=PRODUCT_DEFINITION_CONTEXT('part definition',#26,'design');
#20=SHAPE_DEFINITION_REPRESENTATION(#21,#675);
#21=PRODUCT_DEFINITION_SHAPE('PRODUCT_VERSION_ID',
'PRODUCT_VERSION_DESCR',#22);
#22=PRODUCT_DEFINITION('PRODUCT_VERSION_ID','PRODUCT_VERSION_DESCR',#23,
#19);
#23=PRODUCT_DEFINITION_FORMATION_WITH_SPECIFIED_SOURCE(
'PRODUCT_VERSION_ID','PRODUCT_VERSION_DESCR',#28,.MADE.);
#24=PRODUCT_RELATED_PRODUCT_CATEGORY('part','part',(#28));
#25=APPLICATION_PROTOCOL_DEFINITION('Draft International Standard',
'automotive_design',1994,#26);
#26=APPLICATION_CONTEXT('automotive_Design');
#27=PRODUCT_CONTEXT('3D Mechanical Parts',#26,'mechanical');
#28=PRODUCT('Cylinder head screw DIN 912 M2x6 07000.020.006(High)',
'1958 M2x6 DIN 912 metric bolts','',(#27));
#29=(
LENGTH_UNIT()
NAMED_UNIT(*)
SI_UNIT(.MILLI.,.METRE.)
);
#30=(
NAMED_UNIT(*)
PLANE_ANGLE_UNIT()
SI_UNIT($,.RADIAN.)
);
#31=(
NAMED_UNIT(*)
SI_UNIT($,.STERADIAN.)
SOLID_ANGLE_UNIT()
);
#32=UNCERTAINTY_MEASURE_WITH_UNIT(LENGTH_MEASURE(1.E-6),#29,
'DISTANCE_ACCURACY_VALUE',
'Maximum model space distance between geometric entities at asserted c
onnectivities');
#33=(
GEOMETRIC_REPRESENTATION_CONTEXT(3)
GLOBAL_UNCERTAINTY_ASSIGNED_CONTEXT((#32))
GLOBAL_UNIT_ASSIGNED_CONTEXT((#31,#30,#29))
REPRESENTATION_CONTEXT('ID1','3D')
);
#34=CYLINDRICAL_SURFACE('',#416,1.);
#35=CYLINDRICAL_SURFACE('',#420,1.9);
#36=TOROIDAL_SURFACE('',#409,1.1,0.0999999999999974);
#37=TOROIDAL_SURFACE('',#417,1.3,0.100000000000001);
#38=TOROIDAL_SURFACE('',#424,1.7,0.200000000000001);
#39=B_SPLINE_CURVE_WITH_KNOTS('',3,(#569,#570,#571,#572),.UNSPECIFIED.,
 .F.,.U.,(4,4),(0.000944641138349997,0.00182547171029442),.UNSPECIFIED.);
#40=B_SPLINE_CURVE_WITH_KNOTS('',3,(#574,#575,#576,#577),.UNSPECIFIED.,
 .F.,.U.,(4,4),(2.38078915697328E-7,0.000874883716351648),.UNSPECIFIED.);
#41=B_SPLINE_CURVE_WITH_KNOTS('',3,(#579,#580,#581,#582),.UNSPECIFIED.,
 .F.,.U.,(4,4),(2.38078915697367E-7,0.000874883716351648),.UNSPECIFIED.);
#42=B_SPLINE_CURVE_WITH_KNOTS('',3,(#584,#585,#586,#587),.UNSPECIFIED.,
 .F.,.U.,(4,4),(0.000944641138349997,0.00182547171029442),.UNSPECIFIED.);
#43=B_SPLINE_CURVE_WITH_KNOTS('',3,(#589,#590,#591,#592),.UNSPECIFIED.,
 .F.,.U.,(4,4),(2.38078915697328E-7,0.000874883716351648),.UNSPECIFIED.);
#44=B_SPLINE_CURVE_WITH_KNOTS('',3,(#594,#595,#596,#597),.UNSPECIFIED.,
 .F.,.U.,(4,4),(2.38078915697367E-7,0.000874883716351648),.UNSPECIFIED.);
#45=CONICAL_SURFACE('',#403,0.885,1.0471975511966);
#46=CONICAL_SURFACE('',#406,1.01012315543561,0.453844001521511);
#47=CONICAL_SURFACE('',#414,1.,0.785398163397448);
#48=CONICAL_SURFACE('',#436,0.75,1.0471975511966);
#49=CIRCLE('',#394,0.75);
#50=CIRCLE('',#396,0.75);
#51=CIRCLE('',#398,0.75);
#52=CIRCLE('',#400,0.75);
#53=CIRCLE('',#402,0.75);
#54=CIRCLE('',#404,0.885);
#55=CIRCLE('',#405,0.885);
#56=CIRCLE('',#407,1.01012315543561);
#57=CIRCLE('',#408,1.21012315543561);
#58=CIRCLE('',#410,0.0999999999999974);
#59=CIRCLE('',#411,1.);
#60=CIRCLE('',#413,0.7545);
#61=CIRCLE('',#415,1.);
#62=CIRCLE('',#418,0.100000000000001);
#63=CIRCLE('',#419,1.3);
#64=CIRCLE('',#421,1.9);
#65=CIRCLE('',#422,1.9);
#66=CIRCLE('',#425,0.200000000000001);
#67=CIRCLE('',#426,1.7);
#68=CIRCLE('',#435,0.75);
#69=VERTEX_POINT('',#533);
#70=VERTEX_POINT('',#534);
#71=VERTEX_POINT('',#536);
#72=VERTEX_POINT('',#540);
#73=VERTEX_POINT('',#542);
#74=VERTEX_POINT('',#546);
#75=VERTEX_POINT('',#548);
#76=VERTEX_POINT('',#552);
#77=VERTEX_POINT('',#554);
#78=VERTEX_POINT('',#558);
#79=VERTEX_POINT('',#560);
#80=VERTEX_POINT('',#564);
#81=VERTEX_POINT('',#565);
#82=VERTEX_POINT('',#567);
#83=VERTEX_POINT('',#573);
#84=VERTEX_POINT('',#578);
#85=VERTEX_POINT('',#583);
#86=VERTEX_POINT('',#588);
#87=VERTEX_POINT('',#593);
#88=VERTEX_POINT('',#598);
#89=VERTEX_POINT('',#601);
#90=VERTEX_POINT('',#602);
#91=VERTEX_POINT('',#604);
#92=VERTEX_POINT('',#606);
#93=VERTEX_POINT('',#609);
#94=VERTEX_POINT('',#613);
#95=VERTEX_POINT('',#614);
#96=VERTEX_POINT('',#617);
#97=VERTEX_POINT('',#619);
#98=VERTEX_POINT('',#624);
#99=VERTEX_POINT('',#628);
#100=VERTEX_POINT('',#629);
#101=VERTEX_POINT('',#635);
#102=VERTEX_POINT('',#640);
#103=VERTEX_POINT('',#657);
#104=VECTOR('',#438,1.);
#105=VECTOR('',#441,1.);
#106=VECTOR('',#443,1.);
#107=VECTOR('',#446,1.);
#108=VECTOR('',#448,1.);
#109=VECTOR('',#451,1.);
#110=VECTOR('',#453,1.);
#111=VECTOR('',#456,1.);
#112=VECTOR('',#458,1.);
#113=VECTOR('',#461,1.);
#114=VECTOR('',#464,1.);
#115=VECTOR('',#471,1.);
#116=VECTOR('',#486,1.);
#117=VECTOR('',#491,1.);
#118=VECTOR('',#499,1.);
#119=VECTOR('',#512,1.);
#120=VECTOR('',#513,1.);
#121=VECTOR('',#514,1.);
#122=VECTOR('',#516,1.);
#123=VECTOR('',#518,1.);
#124=VECTOR('',#520,1.);
#125=VECTOR('',#522,1.);
#126=VECTOR('',#524,1.);
#127=VECTOR('',#530,1.);
#128=LINE('',#532,#104);
#129=LINE('',#537,#105);
#130=LINE('',#539,#106);
#131=LINE('',#543,#107);
#132=LINE('',#545,#108);
#133=LINE('',#549,#109);
#134=LINE('',#551,#110);
#135=LINE('',#555,#111);
#136=LINE('',#557,#112);
#137=LINE('',#561,#113);
#138=LINE('',#563,#114);
#139=LINE('',#600,#115);
#140=LINE('',#616,#116);
#141=LINE('',#621,#117);
#142=LINE('',#627,#118);
#143=LINE('',#639,#119);
#144=LINE('',#641,#120);
#145=LINE('',#642,#121);
#146=LINE('',#644,#122);
#147=LINE('',#646,#123);
#148=LINE('',#648,#124);
#149=LINE('',#650,#125);
#150=LINE('',#652,#126);
#151=LINE('',#656,#127);
#152=EDGE_CURVE('',#69,#70,#128,.T.);
#153=EDGE_CURVE('',#69,#71,#49,.T.);
#154=EDGE_CURVE('',#70,#71,#129,.T.);
#155=EDGE_CURVE('',#71,#72,#130,.T.);
#156=EDGE_CURVE('',#71,#73,#50,.T.);
#157=EDGE_CURVE('',#72,#73,#131,.T.);
#158=EDGE_CURVE('',#73,#74,#132,.T.);
#159=EDGE_CURVE('',#73,#75,#51,.T.);
#160=EDGE_CURVE('',#74,#75,#133,.T.);
#161=EDGE_CURVE('',#75,#76,#134,.T.);
#162=EDGE_CURVE('',#75,#77,#52,.T.);
#163=EDGE_CURVE('',#76,#77,#135,.T.);
#164=EDGE_CURVE('',#77,#78,#136,.T.);
#165=EDGE_CURVE('',#77,#79,#53,.T.);
#166=EDGE_CURVE('',#78,#79,#137,.T.);
#167=EDGE_CURVE('',#80,#81,#138,.T.);
#168=EDGE_CURVE('',#80,#82,#54,.T.);
#169=EDGE_CURVE('',#82,#80,#55,.T.);
#170=EDGE_CURVE('',#81,#83,#39,.T.);
#171=EDGE_CURVE('',#83,#84,#40,.T.);
#172=EDGE_CURVE('',#84,#85,#41,.T.);
#173=EDGE_CURVE('',#85,#86,#42,.T.);
#174=EDGE_CURVE('',#86,#87,#43,.T.);
#175=EDGE_CURVE('',#87,#88,#44,.T.);
#176=EDGE_CURVE('',#88,#81,#39,.T.);
#177=EDGE_CURVE('',#89,#90,#139,.T.);
#178=EDGE_CURVE('',#91,#90,#56,.T.);
#179=EDGE_CURVE('',#90,#91,#56,.T.);
#180=EDGE_CURVE('',#89,#92,#57,.T.);
#181=EDGE_CURVE('',#92,#89,#57,.T.);
#182=EDGE_CURVE('',#91,#93,#58,.T.);
#183=EDGE_CURVE('',#93,#93,#59,.T.);
#184=EDGE_CURVE('',#94,#95,#60,.T.);
#185=EDGE_CURVE('',#95,#94,#60,.T.);
#186=EDGE_CURVE('',#96,#95,#140,.T.);
#187=EDGE_CURVE('',#96,#97,#61,.T.);
#188=EDGE_CURVE('',#97,#96,#61,.T.);
#189=EDGE_CURVE('',#97,#93,#141,.T.);
#190=EDGE_CURVE('',#98,#92,#62,.T.);
#191=EDGE_CURVE('',#98,#98,#63,.T.);
#192=EDGE_CURVE('',#99,#100,#142,.T.);
#193=EDGE_CURVE('',#100,#100,#64,.T.);
#194=EDGE_CURVE('',#99,#99,#65,.T.);
#195=EDGE_CURVE('',#100,#101,#66,.T.);
#196=EDGE_CURVE('',#101,#101,#67,.T.);
#197=EDGE_CURVE('',#102,#88,#143,.T.);
#198=EDGE_CURVE('',#102,#69,#144,.T.);
#199=EDGE_CURVE('',#70,#83,#145,.T.);
#200=EDGE_CURVE('',#72,#84,#146,.T.);
#201=EDGE_CURVE('',#74,#85,#147,.T.);
#202=EDGE_CURVE('',#76,#86,#148,.T.);
#203=EDGE_CURVE('',#78,#87,#149,.T.);
#204=EDGE_CURVE('',#79,#102,#150,.T.);
#205=EDGE_CURVE('',#79,#69,#68,.T.);
#206=EDGE_CURVE('',#69,#103,#151,.T.);
#207=ORIENTED_EDGE('',*,*,#152,.F.);
#208=ORIENTED_EDGE('',*,*,#153,.T.);
#209=ORIENTED_EDGE('',*,*,#154,.F.);
#210=ORIENTED_EDGE('',*,*,#155,.F.);
#211=ORIENTED_EDGE('',*,*,#156,.T.);
#212=ORIENTED_EDGE('',*,*,#157,.F.);
#213=ORIENTED_EDGE('',*,*,#158,.F.);
#214=ORIENTED_EDGE('',*,*,#159,.T.);
#215=ORIENTED_EDGE('',*,*,#160,.F.);
#216=ORIENTED_EDGE('',*,*,#161,.F.);
#217=ORIENTED_EDGE('',*,*,#162,.T.);
#218=ORIENTED_EDGE('',*,*,#163,.F.);
#219=ORIENTED_EDGE('',*,*,#164,.F.);
#220=ORIENTED_EDGE('',*,*,#165,.T.);
#221=ORIENTED_EDGE('',*,*,#166,.F.);
#222=ORIENTED_EDGE('',*,*,#167,.F.);
#223=ORIENTED_EDGE('',*,*,#168,.T.);
#224=ORIENTED_EDGE('',*,*,#169,.T.);
#225=ORIENTED_EDGE('',*,*,#167,.T.);
#226=ORIENTED_EDGE('',*,*,#170,.T.);
#227=ORIENTED_EDGE('',*,*,#171,.T.);
#228=ORIENTED_EDGE('',*,*,#172,.T.);
#229=ORIENTED_EDGE('',*,*,#173,.T.);
#230=ORIENTED_EDGE('',*,*,#174,.T.);
#231=ORIENTED_EDGE('',*,*,#175,.T.);
#232=ORIENTED_EDGE('',*,*,#176,.T.);
#233=ORIENTED_EDGE('',*,*,#177,.T.);
#234=ORIENTED_EDGE('',*,*,#178,.F.);
#235=ORIENTED_EDGE('',*,*,#179,.F.);
#236=ORIENTED_EDGE('',*,*,#177,.F.);
#237=ORIENTED_EDGE('',*,*,#180,.T.);
#238=ORIENTED_EDGE('',*,*,#181,.T.);
#239=ORIENTED_EDGE('',*,*,#182,.F.);
#240=ORIENTED_EDGE('',*,*,#178,.T.);
#241=ORIENTED_EDGE('',*,*,#179,.T.);
#242=ORIENTED_EDGE('',*,*,#182,.T.);
#243=ORIENTED_EDGE('',*,*,#183,.T.);
#244=ORIENTED_EDGE('',*,*,#184,.T.);
#245=ORIENTED_EDGE('',*,*,#185,.T.);
#246=ORIENTED_EDGE('',*,*,#186,.T.);
#247=ORIENTED_EDGE('',*,*,#184,.F.);
#248=ORIENTED_EDGE('',*,*,#185,.F.);
#249=ORIENTED_EDGE('',*,*,#186,.F.);
#250=ORIENTED_EDGE('',*,*,#187,.T.);
#251=ORIENTED_EDGE('',*,*,#188,.T.);
#252=ORIENTED_EDGE('',*,*,#189,.T.);
#253=ORIENTED_EDGE('',*,*,#183,.F.);
#254=ORIENTED_EDGE('',*,*,#189,.F.);
#255=ORIENTED_EDGE('',*,*,#187,.F.);
#256=ORIENTED_EDGE('',*,*,#188,.F.);
#257=ORIENTED_EDGE('',*,*,#190,.F.);
#258=ORIENTED_EDGE('',*,*,#191,.T.);
#259=ORIENTED_EDGE('',*,*,#190,.T.);
#260=ORIENTED_EDGE('',*,*,#180,.F.);
#261=ORIENTED_EDGE('',*,*,#181,.F.);
#262=ORIENTED_EDGE('',*,*,#192,.T.);
#263=ORIENTED_EDGE('',*,*,#193,.T.);
#264=ORIENTED_EDGE('',*,*,#192,.F.);
#265=ORIENTED_EDGE('',*,*,#194,.F.);
#266=ORIENTED_EDGE('',*,*,#191,.F.);
#267=ORIENTED_EDGE('',*,*,#194,.T.);
#268=ORIENTED_EDGE('',*,*,#195,.T.);
#269=ORIENTED_EDGE('',*,*,#196,.T.);
#270=ORIENTED_EDGE('',*,*,#195,.F.);
#271=ORIENTED_EDGE('',*,*,#193,.F.);
#272=ORIENTED_EDGE('',*,*,#196,.F.);
#273=ORIENTED_EDGE('',*,*,#168,.F.);
#274=ORIENTED_EDGE('',*,*,#169,.F.);
#275=ORIENTED_EDGE('',*,*,#170,.F.);
#276=ORIENTED_EDGE('',*,*,#176,.F.);
#277=ORIENTED_EDGE('',*,*,#197,.F.);
#278=ORIENTED_EDGE('',*,*,#198,.T.);
#279=ORIENTED_EDGE('',*,*,#152,.T.);
#280=ORIENTED_EDGE('',*,*,#199,.T.);
#281=ORIENTED_EDGE('',*,*,#171,.F.);
#282=ORIENTED_EDGE('',*,*,#199,.F.);
#283=ORIENTED_EDGE('',*,*,#154,.T.);
#284=ORIENTED_EDGE('',*,*,#155,.T.);
#285=ORIENTED_EDGE('',*,*,#200,.T.);
#286=ORIENTED_EDGE('',*,*,#172,.F.);
#287=ORIENTED_EDGE('',*,*,#200,.F.);
#288=ORIENTED_EDGE('',*,*,#157,.T.);
#289=ORIENTED_EDGE('',*,*,#158,.T.);
#290=ORIENTED_EDGE('',*,*,#201,.T.);
#291=ORIENTED_EDGE('',*,*,#173,.F.);
#292=ORIENTED_EDGE('',*,*,#201,.F.);
#293=ORIENTED_EDGE('',*,*,#160,.T.);
#294=ORIENTED_EDGE('',*,*,#161,.T.);
#295=ORIENTED_EDGE('',*,*,#202,.T.);
#296=ORIENTED_EDGE('',*,*,#174,.F.);
#297=ORIENTED_EDGE('',*,*,#202,.F.);
#298=ORIENTED_EDGE('',*,*,#163,.T.);
#299=ORIENTED_EDGE('',*,*,#164,.T.);
#300=ORIENTED_EDGE('',*,*,#203,.T.);
#301=ORIENTED_EDGE('',*,*,#175,.F.);
#302=ORIENTED_EDGE('',*,*,#203,.F.);
#303=ORIENTED_EDGE('',*,*,#166,.T.);
#304=ORIENTED_EDGE('',*,*,#204,.T.);
#305=ORIENTED_EDGE('',*,*,#197,.T.);
#306=ORIENTED_EDGE('',*,*,#204,.F.);
#307=ORIENTED_EDGE('',*,*,#205,.T.);
#308=ORIENTED_EDGE('',*,*,#198,.F.);
#309=ORIENTED_EDGE('',*,*,#206,.F.);
#310=ORIENTED_EDGE('',*,*,#205,.F.);
#311=ORIENTED_EDGE('',*,*,#165,.F.);
#312=ORIENTED_EDGE('',*,*,#162,.F.);
#313=ORIENTED_EDGE('',*,*,#159,.F.);
#314=ORIENTED_EDGE('',*,*,#156,.F.);
#315=ORIENTED_EDGE('',*,*,#153,.F.);
#316=ORIENTED_EDGE('',*,*,#206,.T.);
#317=EDGE_LOOP('',(#207,#208,#209));
#318=EDGE_LOOP('',(#210,#211,#212));
#319=EDGE_LOOP('',(#213,#214,#215));
#320=EDGE_LOOP('',(#216,#217,#218));
#321=EDGE_LOOP('',(#219,#220,#221));
#322=EDGE_LOOP('',(#222,#223,#224,#225,#226,#227,#228,#229,#230,#231,#232));
#323=EDGE_LOOP('',(#233,#234,#235,#236,#237,#238));
#324=EDGE_LOOP('',(#239,#240,#241,#242,#243));
#325=EDGE_LOOP('',(#244,#245));
#326=EDGE_LOOP('',(#246,#247,#248,#249,#250,#251));
#327=EDGE_LOOP('',(#252,#253,#254,#255,#256));
#328=EDGE_LOOP('',(#257,#258,#259,#260,#261));
#329=EDGE_LOOP('',(#262,#263,#264,#265));
#330=EDGE_LOOP('',(#266));
#331=EDGE_LOOP('',(#267));
#332=EDGE_LOOP('',(#268,#269,#270,#271));
#333=EDGE_LOOP('',(#272));
#334=EDGE_LOOP('',(#273,#274));
#335=EDGE_LOOP('',(#275,#276,#277,#278,#279,#280));
#336=EDGE_LOOP('',(#281,#282,#283,#284,#285));
#337=EDGE_LOOP('',(#286,#287,#288,#289,#290));
#338=EDGE_LOOP('',(#291,#292,#293,#294,#295));
#339=EDGE_LOOP('',(#296,#297,#298,#299,#300));
#340=EDGE_LOOP('',(#301,#302,#303,#304,#305));
#341=EDGE_LOOP('',(#306,#307,#308));
#342=EDGE_LOOP('',(#309,#310,#311,#312,#313,#314,#315,#316));
#343=FACE_BOUND('',#317,.T.);
#344=FACE_BOUND('',#318,.T.);
#345=FACE_BOUND('',#319,.T.);
#346=FACE_BOUND('',#320,.T.);
#347=FACE_BOUND('',#321,.T.);
#348=FACE_BOUND('',#322,.T.);
#349=FACE_BOUND('',#323,.T.);
#350=FACE_BOUND('',#324,.T.);
#351=FACE_BOUND('',#325,.T.);
#352=FACE_BOUND('',#326,.T.);
#353=FACE_BOUND('',#327,.T.);
#354=FACE_BOUND('',#328,.T.);
#355=FACE_BOUND('',#329,.T.);
#356=FACE_BOUND('',#330,.T.);
#357=FACE_BOUND('',#331,.T.);
#358=FACE_BOUND('',#332,.T.);
#359=FACE_BOUND('',#333,.T.);
#360=FACE_BOUND('',#334,.T.);
#361=FACE_BOUND('',#335,.T.);
#362=FACE_BOUND('',#336,.T.);
#363=FACE_BOUND('',#337,.T.);
#364=FACE_BOUND('',#338,.T.);
#365=FACE_BOUND('',#339,.T.);
#366=FACE_BOUND('',#340,.T.);
#367=FACE_BOUND('',#341,.T.);
#368=FACE_BOUND('',#342,.T.);
#369=ADVANCED_FACE('',(#343),#658,.T.);
#370=ADVANCED_FACE('',(#344),#659,.T.);
#371=ADVANCED_FACE('',(#345),#660,.T.);
#372=ADVANCED_FACE('',(#346),#661,.T.);
#373=ADVANCED_FACE('',(#347),#662,.T.);
#374=ADVANCED_FACE('',(#348),#45,.F.);
#375=ADVANCED_FACE('',(#349),#46,.T.);
#376=ADVANCED_FACE('',(#350),#36,.F.);
#377=ADVANCED_FACE('',(#351),#663,.F.);
#378=ADVANCED_FACE('',(#352),#47,.T.);
#379=ADVANCED_FACE('',(#353),#34,.T.);
#380=ADVANCED_FACE('',(#354),#37,.F.);
#381=ADVANCED_FACE('',(#355),#35,.T.);
#382=ADVANCED_FACE('',(#356,#357),#664,.F.);
#383=ADVANCED_FACE('',(#358),#38,.T.);
#384=ADVANCED_FACE('',(#359,#360),#665,.F.);
#385=ADVANCED_FACE('',(#361),#666,.T.);
#386=ADVANCED_FACE('',(#362),#667,.T.);
#387=ADVANCED_FACE('',(#363),#668,.T.);
#388=ADVANCED_FACE('',(#364),#669,.T.);
#389=ADVANCED_FACE('',(#365),#670,.T.);
#390=ADVANCED_FACE('',(#366),#671,.T.);
#391=ADVANCED_FACE('',(#367),#672,.T.);
#392=ADVANCED_FACE('',(#368),#48,.F.);
#393=AXIS2_PLACEMENT_3D('',#531,#437,$);
#394=AXIS2_PLACEMENT_3D('',#535,#439,#440);
#395=AXIS2_PLACEMENT_3D('',#538,#442,$);
#396=AXIS2_PLACEMENT_3D('',#541,#444,#445);
#397=AXIS2_PLACEMENT_3D('',#544,#447,$);
#398=AXIS2_PLACEMENT_3D('',#547,#449,#450);
#399=AXIS2_PLACEMENT_3D('',#550,#452,$);
#400=AXIS2_PLACEMENT_3D('',#553,#454,#455);
#401=AXIS2_PLACEMENT_3D('',#556,#457,$);
#402=AXIS2_PLACEMENT_3D('',#559,#459,#460);
#403=AXIS2_PLACEMENT_3D('',#562,#462,#463);
#404=AXIS2_PLACEMENT_3D('',#566,#465,#466);
#405=AXIS2_PLACEMENT_3D('',#568,#467,#468);
#406=AXIS2_PLACEMENT_3D('',#599,#469,#470);
#407=AXIS2_PLACEMENT_3D('',#603,#472,#473);
#408=AXIS2_PLACEMENT_3D('',#605,#474,#475);
#409=AXIS2_PLACEMENT_3D('',#607,#476,$);
#410=AXIS2_PLACEMENT_3D('',#608,#477,#478);
#411=AXIS2_PLACEMENT_3D('',#610,#479,#480);
#412=AXIS2_PLACEMENT_3D('',#611,#481,$);
#413=AXIS2_PLACEMENT_3D('',#612,#482,#483);
#414=AXIS2_PLACEMENT_3D('',#615,#484,#485);
#415=AXIS2_PLACEMENT_3D('',#618,#487,#488);
#416=AXIS2_PLACEMENT_3D('',#620,#489,#490);
#417=AXIS2_PLACEMENT_3D('',#622,#492,$);
#418=AXIS2_PLACEMENT_3D('',#623,#493,#494);
#419=AXIS2_PLACEMENT_3D('',#625,#495,#496);
#420=AXIS2_PLACEMENT_3D('',#626,#497,#498);
#421=AXIS2_PLACEMENT_3D('',#630,#500,#501);
#422=AXIS2_PLACEMENT_3D('',#631,#502,#503);
#423=AXIS2_PLACEMENT_3D('',#632,#504,$);
#424=AXIS2_PLACEMENT_3D('',#633,#505,$);
#425=AXIS2_PLACEMENT_3D('',#634,#506,#507);
#426=AXIS2_PLACEMENT_3D('',#636,#508,#509);
#427=AXIS2_PLACEMENT_3D('',#637,#510,$);
#428=AXIS2_PLACEMENT_3D('',#638,#511,$);
#429=AXIS2_PLACEMENT_3D('',#643,#515,$);
#430=AXIS2_PLACEMENT_3D('',#645,#517,$);
#431=AXIS2_PLACEMENT_3D('',#647,#519,$);
#432=AXIS2_PLACEMENT_3D('',#649,#521,$);
#433=AXIS2_PLACEMENT_3D('',#651,#523,$);
#434=AXIS2_PLACEMENT_3D('',#653,#525,$);
#435=AXIS2_PLACEMENT_3D('',#654,#526,#527);
#436=AXIS2_PLACEMENT_3D('',#655,#528,#529);
#437=DIRECTION('',(-1.,0.,0.));
#438=DIRECTION('',(0.,-1.,0.));
#439=DIRECTION('',(1.,0.,0.));
#440=DIRECTION('',(0.,0.,0.75));
#441=DIRECTION('',(0.,-0.500000000000001,-0.866025403784438));
#442=DIRECTION('',(-1.,0.,0.));
#443=DIRECTION('',(0.,-0.500000000000001,-0.866025403784438));
#444=DIRECTION('',(1.,0.,0.));
#445=DIRECTION('',(0.,0.,0.75));
#446=DIRECTION('',(0.,0.500000000000001,-0.866025403784438));
#447=DIRECTION('',(-1.,0.,0.));
#448=DIRECTION('',(0.,0.500000000000001,-0.866025403784438));
#449=DIRECTION('',(1.,0.,0.));
#450=DIRECTION('',(0.,0.,0.75));
#451=DIRECTION('',(0.,1.,0.));
#452=DIRECTION('',(-1.,0.,0.));
#453=DIRECTION('',(0.,1.,0.));
#454=DIRECTION('',(1.,0.,0.));
#455=DIRECTION('',(0.,0.,0.75));
#456=DIRECTION('',(0.,0.500000000000001,0.866025403784438));
#457=DIRECTION('',(-1.,0.,0.));
#458=DIRECTION('',(0.,0.500000000000001,0.866025403784438));
#459=DIRECTION('',(1.,0.,0.));
#460=DIRECTION('',(0.,0.,0.75));
#461=DIRECTION('',(0.,-0.500000000000001,0.866025403784438));
#462=DIRECTION('',(-1.,0.,0.));
#463=DIRECTION('',(0.,0.,0.885));
#464=DIRECTION('',(0.499999999999998,0.,-0.86602540378444));
#465=DIRECTION('',(-1.,0.,0.));
#466=DIRECTION('',(0.,0.,-0.885));
#467=DIRECTION('',(-1.,0.,0.));
#468=DIRECTION('',(0.,0.,-0.885));
#469=DIRECTION('',(-1.,0.,0.));
#470=DIRECTION('',(0.,0.,1.01012315543561));
#471=DIRECTION('',(0.898768445643899,0.,-0.438423632021415));
#472=DIRECTION('',(1.,0.,0.));
#473=DIRECTION('',(0.,0.,-1.01012315543561));
#474=DIRECTION('',(1.,0.,0.));
#475=DIRECTION('',(0.,0.,-1.21012315543561));
#476=DIRECTION('',(1.,0.,0.));
#477=DIRECTION('',(0.,1.,0.));
#478=DIRECTION('',(0.,0.,-0.0999999999999974));
#479=DIRECTION('',(-1.,0.,0.));
#480=DIRECTION('',(0.,0.,-1.));
#481=DIRECTION('',(-1.,0.,0.));
#482=DIRECTION('',(1.,0.,0.));
#483=DIRECTION('',(0.,0.,-0.7545));
#484=DIRECTION('',(-1.,0.,0.));
#485=DIRECTION('',(0.,0.,1.));
#486=DIRECTION('',(0.707106781186548,0.,-0.707106781186547));
#487=DIRECTION('',(1.,0.,0.));
#488=DIRECTION('',(0.,0.,-1.));
#489=DIRECTION('',(1.,0.,0.));
#490=DIRECTION('',(0.,0.,-1.));
#491=DIRECTION('',(-1.,0.,0.));
#492=DIRECTION('',(1.,0.,0.));
#493=DIRECTION('',(0.,1.,0.));
#494=DIRECTION('',(0.,0.,-0.100000000000001));
#495=DIRECTION('',(1.,0.,0.));
#496=DIRECTION('',(0.,0.,-1.3));
#497=DIRECTION('',(1.,0.,0.));
#498=DIRECTION('',(0.,0.,-1.9));
#499=DIRECTION('',(-1.,0.,0.));
#500=DIRECTION('',(1.,0.,0.));
#501=DIRECTION('',(0.,0.,-1.9));
#502=DIRECTION('',(1.,0.,0.));
#503=DIRECTION('',(0.,0.,-1.9));
#504=DIRECTION('',(-1.,0.,0.));
#505=DIRECTION('',(1.,0.,0.));
#506=DIRECTION('',(0.,1.,0.));
#507=DIRECTION('',(0.,0.,-0.200000000000001));
#508=DIRECTION('',(1.,0.,0.));
#509=DIRECTION('',(0.,0.,-1.7));
#510=DIRECTION('',(1.,0.,0.));
#511=DIRECTION('',(0.,0.,-1.));
#512=DIRECTION('',(-1.,0.,0.));
#513=DIRECTION('',(0.,-1.,0.));
#514=DIRECTION('',(-1.,0.,0.));
#515=DIRECTION('',(0.,0.866025403784439,-0.5));
#516=DIRECTION('',(-1.,0.,0.));
#517=DIRECTION('',(0.,0.866025403784439,0.5));
#518=DIRECTION('',(-1.,0.,0.));
#519=DIRECTION('',(0.,0.,1.));
#520=DIRECTION('',(-1.,0.,0.));
#521=DIRECTION('',(0.,-0.866025403784439,0.5));
#522=DIRECTION('',(-1.,0.,0.));
#523=DIRECTION('',(0.,-0.866025403784439,-0.5));
#524=DIRECTION('',(0.,-0.500000000000001,0.866025403784438));
#525=DIRECTION('',(-1.,0.,0.));
#526=DIRECTION('',(1.,0.,0.));
#527=DIRECTION('',(0.,0.,0.75));
#528=DIRECTION('',(-1.,0.,0.));
#529=DIRECTION('',(0.,0.,0.75));
#530=DIRECTION('',(0.499999999999998,0.,-0.86602540378444));
#531=CARTESIAN_POINT('',(-1.,0.75,0.));
#532=CARTESIAN_POINT('',(-1.,0.,0.75));
#533=CARTESIAN_POINT('',(-1.,3.63373587047937E-17,0.75));
#534=CARTESIAN_POINT('',(-1.,-0.433012701892219,0.75));
#535=CARTESIAN_POINT('',(-1.,0.,0.));
#536=CARTESIAN_POINT('',(-1.,-0.649519052838329,0.375));
#537=CARTESIAN_POINT('',(-1.,-0.433012701892219,0.75));
#538=CARTESIAN_POINT('',(-1.,0.75,0.));
#539=CARTESIAN_POINT('',(-1.,-0.649519052838329,0.375));
#540=CARTESIAN_POINT('',(-1.,-0.866025403784439,-2.22044604925031E-16));
#541=CARTESIAN_POINT('',(-1.,0.,0.));
#542=CARTESIAN_POINT('',(-1.,-0.649519052838329,-0.375));
#543=CARTESIAN_POINT('',(-1.,-0.866025403784439,0.));
#544=CARTESIAN_POINT('',(-1.,0.75,0.));
#545=CARTESIAN_POINT('',(-1.,-0.649519052838329,-0.375));
#546=CARTESIAN_POINT('',(-1.,-0.433012701892219,-0.75));
#547=CARTESIAN_POINT('',(-1.,0.,0.));
#548=CARTESIAN_POINT('',(-1.,-1.66533453693773E-16,-0.75));
#549=CARTESIAN_POINT('',(-1.,-0.433012701892219,-0.75));
#550=CARTESIAN_POINT('',(-1.,0.75,0.));
#551=CARTESIAN_POINT('',(-1.,0.,-0.75));
#552=CARTESIAN_POINT('',(-1.,0.433012701892219,-0.75));
#553=CARTESIAN_POINT('',(-1.,0.,0.));
#554=CARTESIAN_POINT('',(-1.,0.649519052838329,-0.375));
#555=CARTESIAN_POINT('',(-1.,0.433012701892219,-0.75));
#556=CARTESIAN_POINT('',(-1.,0.75,0.));
#557=CARTESIAN_POINT('',(-1.,0.649519052838329,-0.375));
#558=CARTESIAN_POINT('',(-1.,0.866025403784439,2.22044604925031E-16));
#559=CARTESIAN_POINT('',(-1.,0.,0.));
#560=CARTESIAN_POINT('',(-1.,0.649519052838329,0.375));
#561=CARTESIAN_POINT('',(-1.,0.866025403784439,0.));
#562=CARTESIAN_POINT('',(-2.,0.,0.));
#563=CARTESIAN_POINT('',(-1.89803401302449,0.,0.708389729914506));
#564=CARTESIAN_POINT('',(-2.,0.,0.885));
#565=CARTESIAN_POINT('',(-1.92576835743118,3.44243344919883E-9,0.751285404708304));
#566=CARTESIAN_POINT('',(-2.,0.,0.));
#567=CARTESIAN_POINT('',(-2.,5.41906208622704E-17,-0.885));
#568=CARTESIAN_POINT('',(-2.,0.,0.));
#569=CARTESIAN_POINT('',(-1.98904501176718,0.433012701892221,0.75));
#570=CARTESIAN_POINT('',(-1.90761849055673,0.15094295825208,0.75));
#571=CARTESIAN_POINT('',(-1.90767082231702,-0.151124240787431,0.75));
#572=CARTESIAN_POINT('',(-1.98904501176717,-0.433012701892221,0.75));
#573=CARTESIAN_POINT('',(-1.98904501176477,-0.433012701891876,0.74999999999998));
#574=CARTESIAN_POINT('',(-1.98904501176255,-0.433012701891886,0.750000000000577));
#575=CARTESIAN_POINT('',(-1.90740517165375,-0.574417052881957,0.505080479674472));
#576=CARTESIAN_POINT('',(-1.90730364820408,-0.724445209017568,0.245224090681718));
#577=CARTESIAN_POINT('',(-1.98904501176482,-0.866025403784634,-3.39133469438755E-13));
#578=CARTESIAN_POINT('',(-1.98904501176477,-0.866025403783947,1.18914694282753E-13));
#579=CARTESIAN_POINT('',(-1.98904501176255,-0.866025403784772,5.76962858004261E-13));
#580=CARTESIAN_POINT('',(-1.90740517165375,-0.724621052794701,-0.244919520325528));
#581=CARTESIAN_POINT('',(-1.90730364820408,-0.57459289665909,-0.504775909318282));
#582=CARTESIAN_POINT('',(-1.98904501176482,-0.433012701892024,-0.750000000000339));
#583=CARTESIAN_POINT('',(-1.98904501176594,-0.433012701892037,-0.750000000000021));
#584=CARTESIAN_POINT('',(-1.98904501176717,-0.433012701892221,-0.75));
#585=CARTESIAN_POINT('',(-1.90761849055673,-0.15094295825208,-0.75));
#586=CARTESIAN_POINT('',(-1.90767082231702,0.151124240787431,-0.75));
#587=CARTESIAN_POINT('',(-1.98904501176717,0.433012701892221,-0.75));
#588=CARTESIAN_POINT('',(-1.98904501176477,0.433012701891876,-0.74999999999998));
#589=CARTESIAN_POINT('',(-1.98904501176255,0.433012701891886,-0.750000000000577));
#590=CARTESIAN_POINT('',(-1.90740517165375,0.574417052881957,-0.505080479674472));
#591=CARTESIAN_POINT('',(-1.90730364820408,0.724445209017568,-0.245224090681718));
#592=CARTESIAN_POINT('',(-1.98904501176482,0.866025403784634,3.39133469438755E-13));
#593=CARTESIAN_POINT('',(-1.98904501176477,0.866025403783947,-1.18914694282753E-13));
#594=CARTESIAN_POINT('',(-1.98904501176255,0.866025403784772,-5.76962858004261E-13));
#595=CARTESIAN_POINT('',(-1.90740517165375,0.724621052794701,0.244919520325528));
#596=CARTESIAN_POINT('',(-1.90730364820408,0.57459289665909,0.504775909318282));
#597=CARTESIAN_POINT('',(-1.98904501176482,0.433012701892024,0.750000000000339));
#598=CARTESIAN_POINT('',(-1.98904501176594,0.433012701892038,0.750000000000022));
#599=CARTESIAN_POINT('',(0.466157636797858,0.,0.));
#600=CARTESIAN_POINT('',(0.0971576367978585,0.,1.19012315543561));
#601=CARTESIAN_POINT('',(0.0561576367978585,-1.94602645515416E-16,1.21012315543561));
#602=CARTESIAN_POINT('',(0.466157636797859,1.85619138024705E-15,1.01012315543561));
#603=CARTESIAN_POINT('',(0.466157636797858,0.,0.));
#604=CARTESIAN_POINT('',(0.466157636797859,-1.85619138024705E-15,-1.01012315543561));
#605=CARTESIAN_POINT('',(0.0561576367978586,0.,0.));
#606=CARTESIAN_POINT('',(0.0561576367978585,-1.94602645515417E-16,-1.21012315543561));
#607=CARTESIAN_POINT('',(0.509999999999999,0.,0.));
#608=CARTESIAN_POINT('',(0.509999999999999,0.,-1.1));
#609=CARTESIAN_POINT('',(0.509999999999999,4.21884749357561E-15,-1.));
#610=CARTESIAN_POINT('',(0.509999999999999,0.,0.));
#611=CARTESIAN_POINT('',(6.,0.,-0.7545));
#612=CARTESIAN_POINT('',(6.,0.,0.));
#613=CARTESIAN_POINT('',(6.,-1.21332853918102E-16,-0.7545));
#614=CARTESIAN_POINT('',(6.,1.32736754019094E-9,0.7545));
#615=CARTESIAN_POINT('',(5.7545,0.,0.));
#616=CARTESIAN_POINT('',(6.02455,0.,0.72995));
#617=CARTESIAN_POINT('',(5.7545,6.12323399573677E-17,1.));
#618=CARTESIAN_POINT('',(5.7545,0.,0.));
#619=CARTESIAN_POINT('',(5.7545,-6.12323399573677E-17,-1.));
#620=CARTESIAN_POINT('',(6.,0.,0.));
#621=CARTESIAN_POINT('',(0.264499999999999,0.,-1.));
#622=CARTESIAN_POINT('',(0.1,0.,0.));
#623=CARTESIAN_POINT('',(0.1,0.,-1.3));
#624=CARTESIAN_POINT('',(-4.9960036108132E-16,-1.59204083889156E-16,-1.3));
#625=CARTESIAN_POINT('',(0.,0.,0.));
#626=CARTESIAN_POINT('',(6.,0.,0.));
#627=CARTESIAN_POINT('',(-7.8,0.,-1.9));
#628=CARTESIAN_POINT('',(0.,-2.32682891837997E-16,-1.9));
#629=CARTESIAN_POINT('',(-1.8,-1.92022188926824E-15,-1.9));
#630=CARTESIAN_POINT('',(-1.8,0.,0.));
#631=CARTESIAN_POINT('',(0.,0.,0.));
#632=CARTESIAN_POINT('',(0.,0.,-1.9));
#633=CARTESIAN_POINT('',(-1.8,0.,0.));
#634=CARTESIAN_POINT('',(-1.8,0.,-1.7));
#635=CARTESIAN_POINT('',(-2.,-2.0818995585505E-16,-1.7));
#636=CARTESIAN_POINT('',(-2.,0.,0.));
#637=CARTESIAN_POINT('',(-2.,0.,0.));
#638=CARTESIAN_POINT('',(-1.,0.433012701892219,0.75));
#639=CARTESIAN_POINT('',(-1.,0.433012701892219,0.75));
#640=CARTESIAN_POINT('',(-1.,0.433012701892219,0.75));
#641=CARTESIAN_POINT('',(-1.,0.433012701892219,0.75));
#642=CARTESIAN_POINT('',(-1.,-0.433012701892219,0.75));
#643=CARTESIAN_POINT('',(-1.,-0.433012701892219,0.75));
#644=CARTESIAN_POINT('',(-1.,-0.866025403784439,0.));
#645=CARTESIAN_POINT('',(-1.,-0.866025403784439,0.));
#646=CARTESIAN_POINT('',(-1.,-0.433012701892219,-0.75));
#647=CARTESIAN_POINT('',(-1.,-0.433012701892219,-0.75));
#648=CARTESIAN_POINT('',(-1.,0.433012701892219,-0.75));
#649=CARTESIAN_POINT('',(-1.,0.433012701892219,-0.75));
#650=CARTESIAN_POINT('',(-1.,0.866025403784439,0.));
#651=CARTESIAN_POINT('',(-1.,0.866025403784439,0.));
#652=CARTESIAN_POINT('',(-1.,0.649519052838329,0.375));
#653=CARTESIAN_POINT('',(-1.,0.75,0.));
#654=CARTESIAN_POINT('',(-1.,0.,0.));
#655=CARTESIAN_POINT('',(-1.,0.,0.));
#656=CARTESIAN_POINT('',(-0.566987298107783,0.,0.));
#657=CARTESIAN_POINT('',(-0.566987298107783,0.,0.));
#658=PLANE('',#393);
#659=PLANE('',#395);
#660=PLANE('',#397);
#661=PLANE('',#399);
#662=PLANE('',#401);
#663=PLANE('',#412);
#664=PLANE('',#423);
#665=PLANE('',#427);
#666=PLANE('',#428);
#667=PLANE('',#429);
#668=PLANE('',#430);
#669=PLANE('',#431);
#670=PLANE('',#432);
#671=PLANE('',#433);
#672=PLANE('',#434);
#673=CLOSED_SHELL('',(#369,#370,#371,#372,#373,#374,#375,#376,#377,#378,
#379,#380,#381,#382,#383,#384,#385,#386,#387,#388,#389,#390,#391,#392));
#674=MANIFOLD_SOLID_BREP('',#673);
#675=ADVANCED_BREP_SHAPE_REPRESENTATION('',(#674),#33);
ENDSEC;
END-ISO-10303-21;
