ISO-10303-21;
HEADER;
/* Generated by software containing ST-Developer
 * from STEP Tools, Inc. (www.steptools.com) 
 */

FILE_DESCRIPTION(
/* description */ ('Alibre Inc.'),
/* implementation_level */ '2;1');

FILE_NAME(
/* name */ 'export-359331E8-54D0-44AE-8A41-545A2AC8BF35',
/* time_stamp */ '2021-08-09T16:52:24+02:00',
/* author */ (''),
/* organization */ (''),
/* preprocessor_version */ 'ST-DEVELOPER v17',
/* originating_system */ 'Alibre',
/* authorisation */ '');

FILE_SCHEMA (('AUTOMOTIVE_DESIGN'));
ENDSEC;

DATA;
#10=CONTEXT_DEPENDENT_SHAPE_REPRESENTATION(#13,#29);
#11=NEXT_ASSEMBLY_USAGE_OCCURRENCE('NAUO_ID9','NAUO_NAME9',$,#31,#30,$);
#12=ITEM_DEFINED_TRANSFORMATION('ITD_NAME0',$,#148,#147);
#13=(
REPRESENTATION_RELATIONSHIP(
'2997-1 Snap-in markers - US-EMP (27X18) - 0828778',$,#42,#43)
REPRESENTATION_RELATIONSHIP_WITH_TRANSFORMATION(#12)
SHAPE_REPRESENTATION_RELATIONSHIP()
);
#14=STYLED_ITEM('NAME_0',(#22),#206);
#15=MECHANICAL_DESIGN_GEOMETRIC_PRESENTATION_REPRESENTATION('NAME_0',(#14),
#53);
#16=COLOUR_RGB('',0.980392156862745,1.,1.);
#17=FILL_AREA_STYLE_COLOUR('NAME_0',#16);
#18=FILL_AREA_STYLE('NAME_0',(#17));
#19=SURFACE_STYLE_FILL_AREA(#18);
#20=SURFACE_SIDE_STYLE('NAME_0',(#19));
#21=SURFACE_STYLE_USAGE(.POSITIVE.,#20);
#22=PRESENTATION_STYLE_ASSIGNMENT((#21));
#23=PRODUCT_DEFINITION_CONTEXT('part definition',#37,'design');
#24=PRODUCT_DEFINITION_CONTEXT('part definition',#37,'design');
#25=SHAPE_DEFINITION_REPRESENTATION(#27,#42);
#26=SHAPE_DEFINITION_REPRESENTATION(#28,#43);
#27=PRODUCT_DEFINITION_SHAPE('PRODUCT_VERSION_ID',
'PRODUCT_VERSION_DESCR',#30);
#28=PRODUCT_DEFINITION_SHAPE('PRODUCT_VERSION_ID',
'PRODUCT_VERSION_DESCR',#31);
#29=PRODUCT_DEFINITION_SHAPE('NAME_10',$,#11);
#30=PRODUCT_DEFINITION(
'2997-1 Snap-in markers - US-EMP (27X18) - 0828778',
'PRODUCT_VERSION_DESCR',#32,#23);
#31=PRODUCT_DEFINITION('PRODUCT_VERSION_ID','PRODUCT_VERSION_DESCR',#33,
#24);
#32=PRODUCT_DEFINITION_FORMATION_WITH_SPECIFIED_SOURCE(
'PRODUCT_VERSION_ID','PRODUCT_VERSION_DESCR',#40,.MADE.);
#33=PRODUCT_DEFINITION_FORMATION_WITH_SPECIFIED_SOURCE(
'PRODUCT_VERSION_ID','PRODUCT_VERSION_DESCR',#41,.MADE.);
#34=PRODUCT_RELATED_PRODUCT_CATEGORY('part','part',(#40));
#35=PRODUCT_RELATED_PRODUCT_CATEGORY('part','part',(#41));
#36=APPLICATION_PROTOCOL_DEFINITION('Draft International Standard',
'automotive_design',1994,#37);
#37=APPLICATION_CONTEXT('automotive_Design');
#38=PRODUCT_CONTEXT('3D Mechanical Parts',#37,'mechanical');
#39=PRODUCT_CONTEXT('3D Mechanical Parts',#37,'mechanical');
#40=PRODUCT('US-EMP_27x18-Select',
'2997-1 Snap-in markers - US-EMP (27X18) - 0828778','',(#38));
#41=PRODUCT('US-EMP_27x18-Select',
'2997 Snap-in markers - US-EMP (27X18) - 0828778','',(#39));
#42=SHAPE_REPRESENTATION(
'2997-1 Snap-in markers - US-EMP (27X18) - 0828778',(#148),#53);
#43=SHAPE_REPRESENTATION('NAME_0',(#147),#54);
#44=SHAPE_REPRESENTATION_RELATIONSHIP('NAME_0',$,#42,#207);
#45=(
LENGTH_UNIT()
NAMED_UNIT(*)
SI_UNIT(.MILLI.,.METRE.)
);
#46=(
LENGTH_UNIT()
NAMED_UNIT(*)
SI_UNIT(.MILLI.,.METRE.)
);
#47=(
NAMED_UNIT(*)
PLANE_ANGLE_UNIT()
SI_UNIT($,.RADIAN.)
);
#48=(
NAMED_UNIT(*)
PLANE_ANGLE_UNIT()
SI_UNIT($,.RADIAN.)
);
#49=(
NAMED_UNIT(*)
SI_UNIT($,.STERADIAN.)
SOLID_ANGLE_UNIT()
);
#50=(
NAMED_UNIT(*)
SI_UNIT($,.STERADIAN.)
SOLID_ANGLE_UNIT()
);
#51=UNCERTAINTY_MEASURE_WITH_UNIT(LENGTH_MEASURE(1.E-6),#45,
'DISTANCE_ACCURACY_VALUE',
'Maximum model space distance between geometric entities at asserted c
onnectivities');
#52=UNCERTAINTY_MEASURE_WITH_UNIT(LENGTH_MEASURE(1.E-6),#46,
'DISTANCE_ACCURACY_VALUE',
'Maximum model space distance between geometric entities at asserted c
onnectivities');
#53=(
GEOMETRIC_REPRESENTATION_CONTEXT(3)
GLOBAL_UNCERTAINTY_ASSIGNED_CONTEXT((#51))
GLOBAL_UNIT_ASSIGNED_CONTEXT((#49,#47,#45))
REPRESENTATION_CONTEXT('ID1','3D')
);
#54=(
GEOMETRIC_REPRESENTATION_CONTEXT(3)
GLOBAL_UNCERTAINTY_ASSIGNED_CONTEXT((#52))
GLOBAL_UNIT_ASSIGNED_CONTEXT((#50,#48,#46))
REPRESENTATION_CONTEXT('ID1','3D')
);
#55=VERTEX_POINT('',#173);
#56=VERTEX_POINT('',#174);
#57=VERTEX_POINT('',#176);
#58=VERTEX_POINT('',#178);
#59=VERTEX_POINT('',#182);
#60=VERTEX_POINT('',#183);
#61=VERTEX_POINT('',#185);
#62=VERTEX_POINT('',#187);
#63=VECTOR('',#150,1.);
#64=VECTOR('',#151,1.);
#65=VECTOR('',#152,1.);
#66=VECTOR('',#153,1.);
#67=VECTOR('',#155,1.);
#68=VECTOR('',#156,1.);
#69=VECTOR('',#157,1.);
#70=VECTOR('',#158,1.);
#71=VECTOR('',#160,1.);
#72=VECTOR('',#161,1.);
#73=VECTOR('',#163,1.);
#74=VECTOR('',#165,1.);
#75=LINE('',#172,#63);
#76=LINE('',#175,#64);
#77=LINE('',#177,#65);
#78=LINE('',#179,#66);
#79=LINE('',#181,#67);
#80=LINE('',#184,#68);
#81=LINE('',#186,#69);
#82=LINE('',#188,#70);
#83=LINE('',#190,#71);
#84=LINE('',#191,#72);
#85=LINE('',#193,#73);
#86=LINE('',#195,#74);
#87=EDGE_CURVE('',#55,#56,#75,.T.);
#88=EDGE_CURVE('',#57,#55,#76,.T.);
#89=EDGE_CURVE('',#58,#57,#77,.T.);
#90=EDGE_CURVE('',#56,#58,#78,.T.);
#91=EDGE_CURVE('',#59,#60,#79,.T.);
#92=EDGE_CURVE('',#60,#61,#80,.T.);
#93=EDGE_CURVE('',#61,#62,#81,.T.);
#94=EDGE_CURVE('',#62,#59,#82,.T.);
#95=EDGE_CURVE('',#60,#58,#83,.T.);
#96=EDGE_CURVE('',#59,#56,#84,.T.);
#97=EDGE_CURVE('',#61,#57,#85,.T.);
#98=EDGE_CURVE('',#62,#55,#86,.T.);
#99=ORIENTED_EDGE('',*,*,#87,.F.);
#100=ORIENTED_EDGE('',*,*,#88,.F.);
#101=ORIENTED_EDGE('',*,*,#89,.F.);
#102=ORIENTED_EDGE('',*,*,#90,.F.);
#103=ORIENTED_EDGE('',*,*,#91,.T.);
#104=ORIENTED_EDGE('',*,*,#92,.T.);
#105=ORIENTED_EDGE('',*,*,#93,.T.);
#106=ORIENTED_EDGE('',*,*,#94,.T.);
#107=ORIENTED_EDGE('',*,*,#90,.T.);
#108=ORIENTED_EDGE('',*,*,#95,.F.);
#109=ORIENTED_EDGE('',*,*,#91,.F.);
#110=ORIENTED_EDGE('',*,*,#96,.T.);
#111=ORIENTED_EDGE('',*,*,#89,.T.);
#112=ORIENTED_EDGE('',*,*,#97,.F.);
#113=ORIENTED_EDGE('',*,*,#92,.F.);
#114=ORIENTED_EDGE('',*,*,#95,.T.);
#115=ORIENTED_EDGE('',*,*,#88,.T.);
#116=ORIENTED_EDGE('',*,*,#98,.F.);
#117=ORIENTED_EDGE('',*,*,#93,.F.);
#118=ORIENTED_EDGE('',*,*,#97,.T.);
#119=ORIENTED_EDGE('',*,*,#87,.T.);
#120=ORIENTED_EDGE('',*,*,#96,.F.);
#121=ORIENTED_EDGE('',*,*,#94,.F.);
#122=ORIENTED_EDGE('',*,*,#98,.T.);
#123=EDGE_LOOP('',(#99,#100,#101,#102));
#124=EDGE_LOOP('',(#103,#104,#105,#106));
#125=EDGE_LOOP('',(#107,#108,#109,#110));
#126=EDGE_LOOP('',(#111,#112,#113,#114));
#127=EDGE_LOOP('',(#115,#116,#117,#118));
#128=EDGE_LOOP('',(#119,#120,#121,#122));
#129=FACE_BOUND('',#123,.T.);
#130=FACE_BOUND('',#124,.T.);
#131=FACE_BOUND('',#125,.T.);
#132=FACE_BOUND('',#126,.T.);
#133=FACE_BOUND('',#127,.T.);
#134=FACE_BOUND('',#128,.T.);
#135=ADVANCED_FACE('',(#129),#199,.T.);
#136=ADVANCED_FACE('',(#130),#200,.F.);
#137=ADVANCED_FACE('',(#131),#201,.F.);
#138=ADVANCED_FACE('',(#132),#202,.F.);
#139=ADVANCED_FACE('',(#133),#203,.F.);
#140=ADVANCED_FACE('',(#134),#204,.F.);
#141=AXIS2_PLACEMENT_3D('',#171,#149,$);
#142=AXIS2_PLACEMENT_3D('',#180,#154,$);
#143=AXIS2_PLACEMENT_3D('',#189,#159,$);
#144=AXIS2_PLACEMENT_3D('',#192,#162,$);
#145=AXIS2_PLACEMENT_3D('',#194,#164,$);
#146=AXIS2_PLACEMENT_3D('',#196,#166,$);
#147=AXIS2_PLACEMENT_3D('AXIS_PLACEMENT_1',#197,#167,#168);
#148=AXIS2_PLACEMENT_3D('AXIS_PLACEMENT_5',#198,#169,#170);
#149=DIRECTION('',(0.,0.,1.));
#150=DIRECTION('',(0.,1.,0.));
#151=DIRECTION('',(-1.,0.,0.));
#152=DIRECTION('',(0.,-1.,0.));
#153=DIRECTION('',(1.,0.,0.));
#154=DIRECTION('',(0.,0.,1.));
#155=DIRECTION('',(1.,0.,0.));
#156=DIRECTION('',(0.,-1.,0.));
#157=DIRECTION('',(-1.,0.,0.));
#158=DIRECTION('',(0.,1.,0.));
#159=DIRECTION('',(0.,-1.,0.));
#160=DIRECTION('',(0.,0.,1.));
#161=DIRECTION('',(0.,0.,1.));
#162=DIRECTION('',(-1.,0.,0.));
#163=DIRECTION('',(0.,0.,1.));
#164=DIRECTION('',(0.,1.,0.));
#165=DIRECTION('',(0.,0.,1.));
#166=DIRECTION('',(1.,0.,0.));
#167=DIRECTION('DIRECTION2',(0.,0.,1.));
#168=DIRECTION('DIRECTION3',(1.,0.,0.));
#169=DIRECTION('DIRECTION6',(0.,0.,1.));
#170=DIRECTION('DIRECTION7',(1.,0.,0.));
#171=CARTESIAN_POINT('',(75.4069442566925,5.17881937849171,0.5));
#172=CARTESIAN_POINT('',(90.,19.,0.5));
#173=CARTESIAN_POINT('',(90.,19.,0.5));
#174=CARTESIAN_POINT('',(90.,36.6,0.5));
#175=CARTESIAN_POINT('',(117.,19.,0.5));
#176=CARTESIAN_POINT('',(117.,19.,0.5));
#177=CARTESIAN_POINT('',(117.,36.6,0.5));
#178=CARTESIAN_POINT('',(117.,36.6,0.5));
#179=CARTESIAN_POINT('',(90.,36.6,0.5));
#180=CARTESIAN_POINT('',(109.391872404938,14.0383418330512,0.));
#181=CARTESIAN_POINT('',(90.,36.6,0.));
#182=CARTESIAN_POINT('',(90.,36.6,0.));
#183=CARTESIAN_POINT('',(117.,36.6,0.));
#184=CARTESIAN_POINT('',(117.,36.6,0.));
#185=CARTESIAN_POINT('',(117.,19.,0.));
#186=CARTESIAN_POINT('',(117.,19.,0.));
#187=CARTESIAN_POINT('',(90.,19.,0.));
#188=CARTESIAN_POINT('',(90.,19.,0.));
#189=CARTESIAN_POINT('',(110.,36.6,-0.0500023999999999));
#190=CARTESIAN_POINT('',(117.,36.6,0.));
#191=CARTESIAN_POINT('',(90.,36.6,0.));
#192=CARTESIAN_POINT('',(117.,19.,-0.0500023999999999));
#193=CARTESIAN_POINT('',(117.,19.,0.));
#194=CARTESIAN_POINT('',(90.,19.,-0.0500023999999999));
#195=CARTESIAN_POINT('',(90.,19.,0.));
#196=CARTESIAN_POINT('',(90.,28.,-0.0500023999999999));
#197=CARTESIAN_POINT('CARTESIAN_POINT4',(-90.,-19.,-2.77111666946439E-13));
#198=CARTESIAN_POINT('CARTESIAN_POINT8',(0.,0.,0.));
#199=PLANE('',#141);
#200=PLANE('',#142);
#201=PLANE('',#143);
#202=PLANE('',#144);
#203=PLANE('',#145);
#204=PLANE('',#146);
#205=CLOSED_SHELL('',(#135,#136,#137,#138,#139,#140));
#206=MANIFOLD_SOLID_BREP('',#205);
#207=ADVANCED_BREP_SHAPE_REPRESENTATION(
'2997-1 Snap-in markers - US-EMP (27X18) - 0828778',(#206),#53);
ENDSEC;
END-ISO-10303-21;
