ISO-10303-21;
HEADER;

/* File generated by Alibre Version V22 */

FILE_DESCRIPTION(('HOOPS Exchange Step'),'2;1');

FILE_NAME('C:\\Users\\Gebruiker\\AppData\\Local\\Temp\\Alibre Design\\export-2A18E091-6C08-4820-BD33-4B381336639F.stp',
'2021-08-09T16:52:33+02:00',
('Engineering'),
('Alibre'),
'HOOPS Exchange 2020.1',
'Alibre',
'Unknown authorisation');

FILE_SCHEMA( ('AP242_MANAGED_MODEL_BASED_3D_ENGINEERING_MIM_LF {1 0 10303 442 1 1 4 }') );

ENDSEC;

DATA;
#3=(NAMED_UNIT(*)PLANE_ANGLE_UNIT()SI_UNIT($,.RADIAN.));
#4=PLANE_ANGLE_MEASURE_WITH_UNIT(PLANE_ANGLE_MEASURE(0.0174532925),#3);
#5=(CONVERSION_BASED_UNIT('DEGREE',#4)NAMED_UNIT(#6)PLANE_ANGLE_UNIT());
#6=DIMENSIONAL_EXPONENTS(0.,0.,0.,0.,0.,0.,0.);
#7=(NAMED_UNIT(*)SI_UNIT($,.STERADIAN.)SOLID_ANGLE_UNIT());
#8=(LENGTH_UNIT()NAMED_UNIT(*)SI_UNIT(.MILLI.,.METRE.));
#9=UNCERTAINTY_MEASURE_WITH_UNIT(LENGTH_MEASURE(1.000000E-03),#8,'DISTANCE_ACCURACY_VALUE','Maximum Tolerance applied to model');
#10=(GEOMETRIC_REPRESENTATION_CONTEXT(3)GLOBAL_UNCERTAINTY_ASSIGNED_CONTEXT((#9))GLOBAL_UNIT_ASSIGNED_CONTEXT((#8,#5,#7))REPRESENTATION_CONTEXT('','2997 Snap-in markers - US-EMP (27X18) - 0828778'));
#12=CARTESIAN_POINT('',(0.,0.,0.));
#13=DIRECTION('',(0.,0.,1.));
#14=DIRECTION('',(1.,0.,0.));
#15=AXIS2_PLACEMENT_3D('',#12,#13,#14);
#26=(NAMED_UNIT(*)PLANE_ANGLE_UNIT()SI_UNIT($,.RADIAN.));
#27=PLANE_ANGLE_MEASURE_WITH_UNIT(PLANE_ANGLE_MEASURE(0.0174532925),#26);
#28=(CONVERSION_BASED_UNIT('DEGREE',#27)NAMED_UNIT(#29)PLANE_ANGLE_UNIT());
#29=DIMENSIONAL_EXPONENTS(0.,0.,0.,0.,0.,0.,0.);
#30=(NAMED_UNIT(*)SI_UNIT($,.STERADIAN.)SOLID_ANGLE_UNIT());
#31=(LENGTH_UNIT()NAMED_UNIT(*)SI_UNIT(.MILLI.,.METRE.));
#32=UNCERTAINTY_MEASURE_WITH_UNIT(LENGTH_MEASURE(1.000000E-06),#31,'DISTANCE_ACCURACY_VALUE','Maximum Tolerance applied to model');
#33=(GEOMETRIC_REPRESENTATION_CONTEXT(3)GLOBAL_UNCERTAINTY_ASSIGNED_CONTEXT((#32))GLOBAL_UNIT_ASSIGNED_CONTEXT((#31,#28,#30))REPRESENTATION_CONTEXT('','2997-1 Snap-in markers - US-EMP (27X18) - 0828778'));
#35=CARTESIAN_POINT('',(0.,0.,0.));
#36=DIRECTION('',(0.,0.,1.));
#37=DIRECTION('',(1.,0.,0.));
#38=AXIS2_PLACEMENT_3D('',#35,#36,#37);
#49=CARTESIAN_POINT('',(-90.,-19.,-0.));
#50=DIRECTION('',(0.,0.,1.));
#51=DIRECTION('',(1.,0.,-0.));
#52=AXIS2_PLACEMENT_3D('',#49,#50,#51);
#53=ITEM_DEFINED_TRANSFORMATION('','',#52,#38);
#54=(REPRESENTATION_RELATIONSHIP('','',#39,#16)REPRESENTATION_RELATIONSHIP_WITH_TRANSFORMATION(#53)SHAPE_REPRESENTATION_RELATIONSHIP());
#55=NEXT_ASSEMBLY_USAGE_OCCURRENCE('2997-1 Snap-in markers - US-EMP (27X18) - 0828778_1','2997-1 Snap-in markers - US-EMP (27X18) - 0828778','2997-1 Snap-in markers - US-EMP (27X18) - 0828778',#25,#48,$);
#56=PRODUCT_DEFINITION_SHAPE('','',#55);
#57=CONTEXT_DEPENDENT_SHAPE_REPRESENTATION(#54,#56);
#59=CARTESIAN_POINT('',(75.406944257,5.178819378,0.5));
#60=DIRECTION('',(0.,0.,1.));
#61=DIRECTION('',(1.,0.,0.));
#62=AXIS2_PLACEMENT_3D('',#59,#60,#61);
#63=PLANE('',#62);
#64=CARTESIAN_POINT('',(90.,19.,0.5));
#65=VERTEX_POINT('',#64);
#66=CARTESIAN_POINT('',(90.,36.6,0.5));
#67=VERTEX_POINT('',#66);
#68=CARTESIAN_POINT('',(90.,19.,0.5));
#69=DIRECTION('',(0.,1.,0.));
#70=VECTOR('',#69,17.6);
#71=LINE('',#68,#70);
#72=EDGE_CURVE('',#65,#67,#71,.T.);
#73=ORIENTED_EDGE('',*,*,#72,.F.);
#74=CARTESIAN_POINT('',(117.,19.,0.5));
#75=VERTEX_POINT('',#74);
#76=CARTESIAN_POINT('',(117.,19.,0.5));
#77=DIRECTION('',(-1.,0.,0.));
#78=VECTOR('',#77,27.);
#79=LINE('',#76,#78);
#80=EDGE_CURVE('',#75,#65,#79,.T.);
#81=ORIENTED_EDGE('',*,*,#80,.F.);
#82=CARTESIAN_POINT('',(117.,36.6,0.5));
#83=VERTEX_POINT('',#82);
#84=CARTESIAN_POINT('',(117.,36.6,0.5));
#85=DIRECTION('',(0.,-1.,0.));
#86=VECTOR('',#85,17.6);
#87=LINE('',#84,#86);
#88=EDGE_CURVE('',#83,#75,#87,.T.);
#89=ORIENTED_EDGE('',*,*,#88,.F.);
#90=CARTESIAN_POINT('',(90.,36.6,0.5));
#91=DIRECTION('',(1.,0.,-0.));
#92=VECTOR('',#91,27.);
#93=LINE('',#90,#92);
#94=EDGE_CURVE('',#67,#83,#93,.T.);
#95=ORIENTED_EDGE('',*,*,#94,.F.);
#96=EDGE_LOOP('',(#73,#81,#89,#95));
#97=FACE_BOUND('',#96,.T.);
#98=ADVANCED_FACE('',(#97),#63,.T.);
#99=CARTESIAN_POINT('',(109.391872405,14.038341833,0.));
#100=DIRECTION('',(0.,0.,1.));
#101=DIRECTION('',(1.,0.,0.));
#102=AXIS2_PLACEMENT_3D('',#99,#100,#101);
#103=PLANE('',#102);
#104=CARTESIAN_POINT('',(90.,36.6,0.));
#105=VERTEX_POINT('',#104);
#106=CARTESIAN_POINT('',(117.,36.6,0.));
#107=VERTEX_POINT('',#106);
#108=CARTESIAN_POINT('',(90.,36.6,0.));
#109=DIRECTION('',(1.,0.,-0.));
#110=VECTOR('',#109,27.);
#111=LINE('',#108,#110);
#112=EDGE_CURVE('',#105,#107,#111,.T.);
#113=ORIENTED_EDGE('',*,*,#112,.T.);
#114=CARTESIAN_POINT('',(117.,19.,0.));
#115=VERTEX_POINT('',#114);
#116=CARTESIAN_POINT('',(117.,36.6,0.));
#117=DIRECTION('',(0.,-1.,0.));
#118=VECTOR('',#117,17.6);
#119=LINE('',#116,#118);
#120=EDGE_CURVE('',#107,#115,#119,.T.);
#121=ORIENTED_EDGE('',*,*,#120,.T.);
#122=CARTESIAN_POINT('',(90.,19.,0.));
#123=VERTEX_POINT('',#122);
#124=CARTESIAN_POINT('',(117.,19.,0.));
#125=DIRECTION('',(-1.,0.,0.));
#126=VECTOR('',#125,27.);
#127=LINE('',#124,#126);
#128=EDGE_CURVE('',#115,#123,#127,.T.);
#129=ORIENTED_EDGE('',*,*,#128,.T.);
#130=CARTESIAN_POINT('',(90.,19.,0.));
#131=DIRECTION('',(0.,1.,0.));
#132=VECTOR('',#131,17.6);
#133=LINE('',#130,#132);
#134=EDGE_CURVE('',#123,#105,#133,.T.);
#135=ORIENTED_EDGE('',*,*,#134,.T.);
#136=EDGE_LOOP('',(#113,#121,#129,#135));
#137=FACE_BOUND('',#136,.T.);
#138=ADVANCED_FACE('',(#137),#103,.F.);
#139=CARTESIAN_POINT('',(110.,36.6,-0.0500024));
#140=DIRECTION('',(0.,-1.,0.));
#141=DIRECTION('',(-1.,0.,0.));
#142=AXIS2_PLACEMENT_3D('',#139,#140,#141);
#143=PLANE('',#142);
#144=ORIENTED_EDGE('',*,*,#94,.T.);
#145=CARTESIAN_POINT('',(117.,36.6,0.));
#146=DIRECTION('',(0.,0.,1.));
#147=VECTOR('',#146,0.5);
#148=LINE('',#145,#147);
#149=EDGE_CURVE('',#107,#83,#148,.T.);
#150=ORIENTED_EDGE('',*,*,#149,.F.);
#151=ORIENTED_EDGE('',*,*,#112,.F.);
#152=CARTESIAN_POINT('',(90.,36.6,0.));
#153=DIRECTION('',(0.,0.,1.));
#154=VECTOR('',#153,0.5);
#155=LINE('',#152,#154);
#156=EDGE_CURVE('',#105,#67,#155,.T.);
#157=ORIENTED_EDGE('',*,*,#156,.T.);
#158=EDGE_LOOP('',(#144,#150,#151,#157));
#159=FACE_BOUND('',#158,.T.);
#160=ADVANCED_FACE('',(#159),#143,.F.);
#161=CARTESIAN_POINT('',(117.,19.,-0.0500024));
#162=DIRECTION('',(-1.,0.,0.));
#163=DIRECTION('',(0.,1.,0.));
#164=AXIS2_PLACEMENT_3D('',#161,#162,#163);
#165=PLANE('',#164);
#166=ORIENTED_EDGE('',*,*,#88,.T.);
#167=CARTESIAN_POINT('',(117.,19.,0.));
#168=DIRECTION('',(0.,0.,1.));
#169=VECTOR('',#168,0.5);
#170=LINE('',#167,#169);
#171=EDGE_CURVE('',#115,#75,#170,.T.);
#172=ORIENTED_EDGE('',*,*,#171,.F.);
#173=ORIENTED_EDGE('',*,*,#120,.F.);
#174=ORIENTED_EDGE('',*,*,#149,.T.);
#175=EDGE_LOOP('',(#166,#172,#173,#174));
#176=FACE_BOUND('',#175,.T.);
#177=ADVANCED_FACE('',(#176),#165,.F.);
#178=CARTESIAN_POINT('',(90.,19.,-0.0500024));
#179=DIRECTION('',(0.,1.,0.));
#180=DIRECTION('',(1.,0.,0.));
#181=AXIS2_PLACEMENT_3D('',#178,#179,#180);
#182=PLANE('',#181);
#183=ORIENTED_EDGE('',*,*,#80,.T.);
#184=CARTESIAN_POINT('',(90.,19.,0.));
#185=DIRECTION('',(0.,0.,1.));
#186=VECTOR('',#185,0.5);
#187=LINE('',#184,#186);
#188=EDGE_CURVE('',#123,#65,#187,.T.);
#189=ORIENTED_EDGE('',*,*,#188,.F.);
#190=ORIENTED_EDGE('',*,*,#128,.F.);
#191=ORIENTED_EDGE('',*,*,#171,.T.);
#192=EDGE_LOOP('',(#183,#189,#190,#191));
#193=FACE_BOUND('',#192,.T.);
#194=ADVANCED_FACE('',(#193),#182,.F.);
#195=CARTESIAN_POINT('',(90.,28.,-0.0500024));
#196=DIRECTION('',(1.,0.,0.));
#197=DIRECTION('',(0.,-1.,0.));
#198=AXIS2_PLACEMENT_3D('',#195,#196,#197);
#199=PLANE('',#198);
#200=ORIENTED_EDGE('',*,*,#72,.T.);
#201=ORIENTED_EDGE('',*,*,#156,.F.);
#202=ORIENTED_EDGE('',*,*,#134,.F.);
#203=ORIENTED_EDGE('',*,*,#188,.T.);
#204=EDGE_LOOP('',(#200,#201,#202,#203));
#205=FACE_BOUND('',#204,.T.);
#206=ADVANCED_FACE('',(#205),#199,.F.);
#207=CLOSED_SHELL('',(#98,#138,#160,#177,#194,#206));
#208=MANIFOLD_SOLID_BREP('alibrePartClosedBody',#207);
#209=COLOUR_RGB('',0.980392158,1.,1.);
#210=FILL_AREA_STYLE_COLOUR('',#209);
#211=FILL_AREA_STYLE('',(#210));
#212=SURFACE_STYLE_FILL_AREA(#211);
#213=SURFACE_SIDE_STYLE('',(#212));
#214=SURFACE_STYLE_USAGE(.BOTH.,#213);
#215=PRESENTATION_STYLE_ASSIGNMENT((#214));
#58=STYLED_ITEM('',(#215),#208);
#39=SHAPE_REPRESENTATION('2997-1 Snap-in markers - US-EMP (27X18) - 0828778',(#38),#33);
#40=ADVANCED_BREP_SHAPE_REPRESENTATION('2997-1 Snap-in markers - US-EMP (27X18) - 0828778',(#208),#33);
#223=SHAPE_REPRESENTATION_RELATIONSHIP('','',#39,#40);
#224=CARTESIAN_POINT('',(0.,0.,0.));
#225=DIRECTION('',(0.,0.,1.));
#226=DIRECTION('',(1.,0.,0.));
#227=AXIS2_PLACEMENT_3D('',#224,#225,#226);
#229=MAPPED_ITEM('',#228,#227);
#228=REPRESENTATION_MAP(#227,#39);
#230=APPLICATION_CONTEXT('Managed model based 3d engineering');
#231=APPLICATION_PROTOCOL_DEFINITION('international standard','ap242_managed_model_based_3d_engineering',2013,#230);
#232=PRODUCT_CONTEXT('',#230,'mechanical');
#233=PRODUCT_DEFINITION_CONTEXT('part definition',#230,'design');
#47=PRODUCT('2997-1 Snap-in markers - US-EMP (27X18) - 0828778','2997-1 Snap-in markers - US-EMP (27X18) - 0828778','',(#232));
#234=PRODUCT_RELATED_PRODUCT_CATEGORY('part','',(#47));
#235=PRODUCT_DEFINITION_FORMATION_WITH_SPECIFIED_SOURCE('','',#47,.NOT_KNOWN.);
#48=PRODUCT_DEFINITION('design','',#235,#233);
#46=PRODUCT_DEFINITION_SHAPE('','',#48);
#236=SHAPE_DEFINITION_REPRESENTATION(#46,#39);
#34=DRAUGHTING_MODEL('',(#229),#33);
#16=SHAPE_REPRESENTATION('2997 Snap-in markers - US-EMP (27X18) - 0828778',(#15,#52),#10);
#237=CARTESIAN_POINT('',(0.,0.,0.));
#238=DIRECTION('',(0.,0.,1.));
#239=DIRECTION('',(1.,0.,0.));
#240=AXIS2_PLACEMENT_3D('',#237,#238,#239);
#242=MAPPED_ITEM('',#241,#240);
#241=REPRESENTATION_MAP(#240,#16);
#24=PRODUCT('2997 Snap-in markers - US-EMP (27X18) - 0828778','2997 Snap-in markers - US-EMP (27X18) - 0828778','',(#232));
#243=PRODUCT_RELATED_PRODUCT_CATEGORY('part','',(#24));
#244=PRODUCT_DEFINITION_FORMATION_WITH_SPECIFIED_SOURCE('','',#24,.NOT_KNOWN.);
#25=PRODUCT_DEFINITION('design','',#244,#233);
#23=PRODUCT_DEFINITION_SHAPE('','',#25);
#245=SHAPE_DEFINITION_REPRESENTATION(#23,#16);
#11=DRAUGHTING_MODEL('',(#242),#10);
#1=MECHANICAL_DESIGN_GEOMETRIC_PRESENTATION_REPRESENTATION('',(#58),#10);
ENDSEC;
END-ISO-10303-21;
