ISO-10303-21;
HEADER;

/* File generated by Alibre Version V23 */

FILE_DESCRIPTION(('HOOPS Exchange Step'),'2;1');

FILE_NAME('C:\\Users\\Gebruiker\\AppData\\Local\\Temp\\Alibre Design\\export-76B7D62C-F900-4151-92EA-6C457798A14A.stp',
'2023-08-03T08:56:11+02:00',
('Engineering'),
('Alibre'),
'HOOPS Exchange 2021.0',
'Alibre',
'Unknown authorisation');

FILE_SCHEMA( ('AP242_MANAGED_MODEL_BASED_3D_ENGINEERING_MIM_LF {1 0 10303 442 1 1 4 }') );

ENDSEC;

DATA;
#3=(NAMED_UNIT(*)PLANE_ANGLE_UNIT()SI_UNIT($,.RADIAN.));
#4=PLANE_ANGLE_MEASURE_WITH_UNIT(PLANE_ANGLE_MEASURE(0.0174532925),#3);
#5=(CONVERSION_BASED_UNIT('DEGREE',#4)NAMED_UNIT(#6)PLANE_ANGLE_UNIT());
#6=DIMENSIONAL_EXPONENTS(0.,0.,0.,0.,0.,0.,0.);
#7=(NAMED_UNIT(*)SI_UNIT($,.STERADIAN.)SOLID_ANGLE_UNIT());
#8=(LENGTH_UNIT()NAMED_UNIT(*)SI_UNIT(.MILLI.,.METRE.));
#9=UNCERTAINTY_MEASURE_WITH_UNIT(LENGTH_MEASURE(1.000000E-06),#8,'DISTANCE_ACCURACY_VALUE','Maximum Tolerance applied to model');
#10=(GEOMETRIC_REPRESENTATION_CONTEXT(3)GLOBAL_UNCERTAINTY_ASSIGNED_CONTEXT((#9))GLOBAL_UNIT_ASSIGNED_CONTEXT((#8,#5,#7))REPRESENTATION_CONTEXT('','3739 VHM-Endmill SPEEDCUT Alu-XXL 8.00mm (0729000800100)'));
#12=CARTESIAN_POINT('',(0.,0.,0.));
#13=DIRECTION('',(0.,0.,1.));
#14=DIRECTION('',(1.,0.,0.));
#15=AXIS2_PLACEMENT_3D('',#12,#13,#14);
#27=CARTESIAN_POINT('',(0.,0.,0.));
#28=DIRECTION('',(-0.,1.,0.));
#29=DIRECTION('',(1.,0.,0.));
#30=AXIS2_PLACEMENT_3D('',#27,#28,#29);
#31=CONICAL_SURFACE('',#30,3.9,45.);
#32=CARTESIAN_POINT('',(-3.9,0.,0.));
#33=VERTEX_POINT('',#32);
#34=CARTESIAN_POINT('',(-4.,0.1,-0.));
#35=VERTEX_POINT('',#34);
#36=CARTESIAN_POINT('',(-3.9,0.,-0.));
#37=DIRECTION('',(-0.707106781,0.707106781,-0.));
#38=VECTOR('',#37,0.141421356);
#39=LINE('',#36,#38);
#40=EDGE_CURVE('',#33,#35,#39,.T.);
#41=ORIENTED_EDGE('',*,*,#40,.T.);
#42=CARTESIAN_POINT('',(4.,0.1,0.));
#43=VERTEX_POINT('',#42);
#44=CARTESIAN_POINT('',(0.,0.1,0.));
#45=DIRECTION('',(0.,-1.,0.));
#46=DIRECTION('',(1.,0.,0.));
#47=AXIS2_PLACEMENT_3D('',#44,#45,#46);
#48=CIRCLE('',#47,4.);
#49=EDGE_CURVE('',#35,#43,#48,.T.);
#50=ORIENTED_EDGE('',*,*,#49,.T.);
#51=CARTESIAN_POINT('',(0.,0.1,0.));
#52=DIRECTION('',(0.,-1.,0.));
#53=DIRECTION('',(1.,0.,0.));
#54=AXIS2_PLACEMENT_3D('',#51,#52,#53);
#55=CIRCLE('',#54,4.);
#56=EDGE_CURVE('',#43,#35,#55,.T.);
#57=ORIENTED_EDGE('',*,*,#56,.T.);
#58=ORIENTED_EDGE('',*,*,#40,.F.);
#59=CARTESIAN_POINT('',(0.,0.,0.));
#60=DIRECTION('',(-0.,1.,0.));
#61=DIRECTION('',(1.,0.,0.));
#62=AXIS2_PLACEMENT_3D('',#59,#60,#61);
#63=CIRCLE('',#62,3.9);
#64=EDGE_CURVE('',#33,#33,#63,.T.);
#65=ORIENTED_EDGE('',*,*,#64,.T.);
#66=EDGE_LOOP('',(#41,#50,#57,#58,#65));
#67=FACE_BOUND('',#66,.T.);
#68=ADVANCED_FACE('',(#67),#31,.T.);
#69=CARTESIAN_POINT('',(-2.,0.,0.));
#70=DIRECTION('',(0.,-1.,0.));
#71=DIRECTION('',(1.,0.,0.));
#72=AXIS2_PLACEMENT_3D('',#69,#70,#71);
#73=PLANE('',#72);
#74=ORIENTED_EDGE('',*,*,#64,.F.);
#75=EDGE_LOOP('',(#74));
#76=FACE_BOUND('',#75,.T.);
#77=ADVANCED_FACE('',(#76),#73,.T.);
#78=CARTESIAN_POINT('',(0.,9.5,0.));
#79=DIRECTION('',(0.,1.,0.));
#80=DIRECTION('',(-1.,0.,0.));
#81=AXIS2_PLACEMENT_3D('',#78,#79,#80);
#82=CYLINDRICAL_SURFACE('',#81,4.);
#83=CARTESIAN_POINT('',(4.,19.,0.));
#84=VERTEX_POINT('',#83);
#85=CARTESIAN_POINT('',(4.,19.,0.));
#86=DIRECTION('',(0.,-1.,-0.));
#87=VECTOR('',#86,18.9);
#88=LINE('',#85,#87);
#89=EDGE_CURVE('',#84,#43,#88,.T.);
#90=ORIENTED_EDGE('',*,*,#89,.T.);
#91=ORIENTED_EDGE('',*,*,#49,.F.);
#92=ORIENTED_EDGE('',*,*,#56,.F.);
#93=ORIENTED_EDGE('',*,*,#89,.F.);
#94=CARTESIAN_POINT('',(-4.,19.,0.));
#95=VERTEX_POINT('',#94);
#96=CARTESIAN_POINT('',(0.,19.,0.));
#97=DIRECTION('',(0.,1.,0.));
#98=DIRECTION('',(-1.,0.,0.));
#99=AXIS2_PLACEMENT_3D('',#96,#97,#98);
#100=CIRCLE('',#99,4.);
#101=EDGE_CURVE('',#95,#84,#100,.T.);
#102=ORIENTED_EDGE('',*,*,#101,.F.);
#103=CARTESIAN_POINT('',(0.,19.,0.));
#104=DIRECTION('',(0.,1.,0.));
#105=DIRECTION('',(-1.,0.,0.));
#106=AXIS2_PLACEMENT_3D('',#103,#104,#105);
#107=CIRCLE('',#106,4.);
#108=EDGE_CURVE('',#84,#95,#107,.T.);
#109=ORIENTED_EDGE('',*,*,#108,.F.);
#110=EDGE_LOOP('',(#90,#91,#92,#93,#102,#109));
#111=FACE_BOUND('',#110,.T.);
#112=ADVANCED_FACE('',(#111),#82,.T.);
#113=CARTESIAN_POINT('',(0.,100.,0.));
#114=DIRECTION('',(-0.,-1.,0.));
#115=DIRECTION('',(1.,-0.,0.));
#116=AXIS2_PLACEMENT_3D('',#113,#114,#115);
#117=CONICAL_SURFACE('',#116,3.6,45.);
#118=CARTESIAN_POINT('',(-3.6,100.,-0.));
#119=VERTEX_POINT('',#118);
#120=CARTESIAN_POINT('',(-4.,99.6,0.));
#121=VERTEX_POINT('',#120);
#122=CARTESIAN_POINT('',(-3.6,100.,0.));
#123=DIRECTION('',(-0.707106781,-0.707106781,0.));
#124=VECTOR('',#123,0.565685425);
#125=LINE('',#122,#124);
#126=EDGE_CURVE('',#119,#121,#125,.T.);
#127=ORIENTED_EDGE('',*,*,#126,.T.);
#128=CARTESIAN_POINT('',(4.,99.6,0.));
#129=VERTEX_POINT('',#128);
#130=CARTESIAN_POINT('',(0.,99.6,0.));
#131=DIRECTION('',(0.,1.,0.));
#132=DIRECTION('',(1.,-0.,0.));
#133=AXIS2_PLACEMENT_3D('',#130,#131,#132);
#134=CIRCLE('',#133,4.);
#135=EDGE_CURVE('',#121,#129,#134,.T.);
#136=ORIENTED_EDGE('',*,*,#135,.T.);
#137=CARTESIAN_POINT('',(0.,99.6,0.));
#138=DIRECTION('',(0.,1.,0.));
#139=DIRECTION('',(1.,-0.,0.));
#140=AXIS2_PLACEMENT_3D('',#137,#138,#139);
#141=CIRCLE('',#140,4.);
#142=EDGE_CURVE('',#129,#121,#141,.T.);
#143=ORIENTED_EDGE('',*,*,#142,.T.);
#144=ORIENTED_EDGE('',*,*,#126,.F.);
#145=CARTESIAN_POINT('',(0.,100.,0.));
#146=DIRECTION('',(-0.,-1.,0.));
#147=DIRECTION('',(1.,-0.,0.));
#148=AXIS2_PLACEMENT_3D('',#145,#146,#147);
#149=CIRCLE('',#148,3.6);
#150=EDGE_CURVE('',#119,#119,#149,.T.);
#151=ORIENTED_EDGE('',*,*,#150,.T.);
#152=EDGE_LOOP('',(#127,#136,#143,#144,#151));
#153=FACE_BOUND('',#152,.T.);
#154=ADVANCED_FACE('',(#153),#117,.T.);
#155=CARTESIAN_POINT('',(0.,81.,0.));
#156=DIRECTION('',(0.,1.,0.));
#157=DIRECTION('',(-1.,0.,0.));
#158=AXIS2_PLACEMENT_3D('',#155,#156,#157);
#159=CYLINDRICAL_SURFACE('',#158,4.);
#160=CARTESIAN_POINT('',(4.,62.,0.));
#161=VERTEX_POINT('',#160);
#162=CARTESIAN_POINT('',(4.,99.6,0.));
#163=DIRECTION('',(0.,-1.,-0.));
#164=VECTOR('',#163,37.6);
#165=LINE('',#162,#164);
#166=EDGE_CURVE('',#129,#161,#165,.T.);
#167=ORIENTED_EDGE('',*,*,#166,.T.);
#168=CARTESIAN_POINT('',(-4.,62.,0.));
#169=VERTEX_POINT('',#168);
#170=CARTESIAN_POINT('',(0.,62.,0.));
#171=DIRECTION('',(0.,1.,0.));
#172=DIRECTION('',(-1.,0.,0.));
#173=AXIS2_PLACEMENT_3D('',#170,#171,#172);
#174=CIRCLE('',#173,4.);
#175=EDGE_CURVE('',#161,#169,#174,.T.);
#176=ORIENTED_EDGE('',*,*,#175,.T.);
#177=CARTESIAN_POINT('',(0.,62.,0.));
#178=DIRECTION('',(0.,1.,0.));
#179=DIRECTION('',(-1.,0.,0.));
#180=AXIS2_PLACEMENT_3D('',#177,#178,#179);
#181=CIRCLE('',#180,4.);
#182=EDGE_CURVE('',#169,#161,#181,.T.);
#183=ORIENTED_EDGE('',*,*,#182,.T.);
#184=ORIENTED_EDGE('',*,*,#166,.F.);
#185=ORIENTED_EDGE('',*,*,#135,.F.);
#186=ORIENTED_EDGE('',*,*,#142,.F.);
#187=EDGE_LOOP('',(#167,#176,#183,#184,#185,#186));
#188=FACE_BOUND('',#187,.T.);
#189=ADVANCED_FACE('',(#188),#159,.T.);
#190=CARTESIAN_POINT('',(-2.,100.,0.));
#191=DIRECTION('',(0.,1.,0.));
#192=DIRECTION('',(-1.,0.,0.));
#193=AXIS2_PLACEMENT_3D('',#190,#191,#192);
#194=PLANE('',#193);
#195=ORIENTED_EDGE('',*,*,#150,.F.);
#196=EDGE_LOOP('',(#195));
#197=FACE_BOUND('',#196,.T.);
#198=ADVANCED_FACE('',(#197),#194,.T.);
#199=CARTESIAN_POINT('',(0.,19.,0.));
#200=DIRECTION('',(0.,-1.,0.));
#201=DIRECTION('',(1.,0.,0.));
#202=AXIS2_PLACEMENT_3D('',#199,#200,#201);
#203=CONICAL_SURFACE('',#202,3.95,45.);
#204=CARTESIAN_POINT('',(-3.75,19.2,-0.));
#205=VERTEX_POINT('',#204);
#206=CARTESIAN_POINT('',(-3.95,19.,0.));
#207=VERTEX_POINT('',#206);
#208=CARTESIAN_POINT('',(-3.75,19.2,0.));
#209=DIRECTION('',(-0.707106781,-0.707106781,0.));
#210=VECTOR('',#209,0.282842712);
#211=LINE('',#208,#210);
#212=EDGE_CURVE('',#205,#207,#211,.T.);
#213=ORIENTED_EDGE('',*,*,#212,.T.);
#214=CARTESIAN_POINT('',(0.,19.,0.));
#215=DIRECTION('',(-0.,1.,0.));
#216=DIRECTION('',(1.,0.,0.));
#217=AXIS2_PLACEMENT_3D('',#214,#215,#216);
#218=CIRCLE('',#217,3.95);
#219=EDGE_CURVE('',#207,#207,#218,.T.);
#220=ORIENTED_EDGE('',*,*,#219,.T.);
#221=ORIENTED_EDGE('',*,*,#212,.F.);
#222=CARTESIAN_POINT('',(3.75,19.2,0.));
#223=VERTEX_POINT('',#222);
#224=CARTESIAN_POINT('',(0.,19.2,0.));
#225=DIRECTION('',(0.,-1.,0.));
#226=DIRECTION('',(1.,0.,0.));
#227=AXIS2_PLACEMENT_3D('',#224,#225,#226);
#228=CIRCLE('',#227,3.75);
#229=EDGE_CURVE('',#205,#223,#228,.T.);
#230=ORIENTED_EDGE('',*,*,#229,.T.);
#231=CARTESIAN_POINT('',(0.,19.2,0.));
#232=DIRECTION('',(0.,-1.,0.));
#233=DIRECTION('',(1.,0.,0.));
#234=AXIS2_PLACEMENT_3D('',#231,#232,#233);
#235=CIRCLE('',#234,3.75);
#236=EDGE_CURVE('',#223,#205,#235,.T.);
#237=ORIENTED_EDGE('',*,*,#236,.T.);
#238=EDGE_LOOP('',(#213,#220,#221,#230,#237));
#239=FACE_BOUND('',#238,.T.);
#240=ADVANCED_FACE('',(#239),#203,.T.);
#241=CARTESIAN_POINT('',(0.,40.5,0.));
#242=DIRECTION('',(0.,1.,0.));
#243=DIRECTION('',(-1.,0.,0.));
#244=AXIS2_PLACEMENT_3D('',#241,#242,#243);
#245=CYLINDRICAL_SURFACE('',#244,3.75);
#246=CARTESIAN_POINT('',(3.75,61.8,0.));
#247=VERTEX_POINT('',#246);
#248=CARTESIAN_POINT('',(3.75,61.8,0.));
#249=DIRECTION('',(0.,-1.,-0.));
#250=VECTOR('',#249,42.6);
#251=LINE('',#248,#250);
#252=EDGE_CURVE('',#247,#223,#251,.T.);
#253=ORIENTED_EDGE('',*,*,#252,.T.);
#254=ORIENTED_EDGE('',*,*,#229,.F.);
#255=ORIENTED_EDGE('',*,*,#236,.F.);
#256=ORIENTED_EDGE('',*,*,#252,.F.);
#257=CARTESIAN_POINT('',(-3.75,61.8,0.));
#258=VERTEX_POINT('',#257);
#259=CARTESIAN_POINT('',(-0.,61.8,0.));
#260=DIRECTION('',(-0.,1.,0.));
#261=DIRECTION('',(1.,0.,0.));
#262=AXIS2_PLACEMENT_3D('',#259,#260,#261);
#263=CIRCLE('',#262,3.75);
#264=EDGE_CURVE('',#258,#247,#263,.T.);
#265=ORIENTED_EDGE('',*,*,#264,.F.);
#266=CARTESIAN_POINT('',(-0.,61.8,0.));
#267=DIRECTION('',(-0.,1.,0.));
#268=DIRECTION('',(1.,0.,0.));
#269=AXIS2_PLACEMENT_3D('',#266,#267,#268);
#270=CIRCLE('',#269,3.75);
#271=EDGE_CURVE('',#247,#258,#270,.T.);
#272=ORIENTED_EDGE('',*,*,#271,.F.);
#273=EDGE_LOOP('',(#253,#254,#255,#256,#265,#272));
#274=FACE_BOUND('',#273,.T.);
#275=ADVANCED_FACE('',(#274),#245,.T.);
#276=CARTESIAN_POINT('',(-3.875,19.,0.));
#277=DIRECTION('',(0.,1.,0.));
#278=DIRECTION('',(-1.,0.,0.));
#279=AXIS2_PLACEMENT_3D('',#276,#277,#278);
#280=PLANE('',#279);
#281=ORIENTED_EDGE('',*,*,#101,.T.);
#282=ORIENTED_EDGE('',*,*,#108,.T.);
#283=EDGE_LOOP('',(#281,#282));
#284=FACE_BOUND('',#283,.T.);
#285=ORIENTED_EDGE('',*,*,#219,.F.);
#286=EDGE_LOOP('',(#285));
#287=FACE_BOUND('',#286,.T.);
#288=ADVANCED_FACE('',(#284,#287),#280,.T.);
#289=CARTESIAN_POINT('',(-0.,62.,0.));
#290=DIRECTION('',(-0.,1.,0.));
#291=DIRECTION('',(1.,0.,0.));
#292=AXIS2_PLACEMENT_3D('',#289,#290,#291);
#293=CONICAL_SURFACE('',#292,3.95,45.);
#294=CARTESIAN_POINT('',(-3.95,62.,-0.));
#295=VERTEX_POINT('',#294);
#296=CARTESIAN_POINT('',(-3.75,61.8,-0.));
#297=DIRECTION('',(-0.707106781,0.707106781,-0.));
#298=VECTOR('',#297,0.282842712);
#299=LINE('',#296,#298);
#300=EDGE_CURVE('',#258,#295,#299,.T.);
#301=ORIENTED_EDGE('',*,*,#300,.T.);
#302=CARTESIAN_POINT('',(-0.,62.,0.));
#303=DIRECTION('',(0.,-1.,0.));
#304=DIRECTION('',(1.,0.,0.));
#305=AXIS2_PLACEMENT_3D('',#302,#303,#304);
#306=CIRCLE('',#305,3.95);
#307=EDGE_CURVE('',#295,#295,#306,.T.);
#308=ORIENTED_EDGE('',*,*,#307,.T.);
#309=ORIENTED_EDGE('',*,*,#300,.F.);
#310=ORIENTED_EDGE('',*,*,#264,.T.);
#311=ORIENTED_EDGE('',*,*,#271,.T.);
#312=EDGE_LOOP('',(#301,#308,#309,#310,#311));
#313=FACE_BOUND('',#312,.T.);
#314=ADVANCED_FACE('',(#313),#293,.T.);
#315=CARTESIAN_POINT('',(-3.875,62.,0.));
#316=DIRECTION('',(0.,-1.,0.));
#317=DIRECTION('',(1.,0.,0.));
#318=AXIS2_PLACEMENT_3D('',#315,#316,#317);
#319=PLANE('',#318);
#320=ORIENTED_EDGE('',*,*,#175,.F.);
#321=ORIENTED_EDGE('',*,*,#182,.F.);
#322=EDGE_LOOP('',(#320,#321));
#323=FACE_BOUND('',#322,.T.);
#324=ORIENTED_EDGE('',*,*,#307,.F.);
#325=EDGE_LOOP('',(#324));
#326=FACE_BOUND('',#325,.T.);
#327=ADVANCED_FACE('',(#323,#326),#319,.T.);
#328=CLOSED_SHELL('',(#68,#77,#112,#154,#189,#198,#240,#275,#288,#314,#327));
#329=MANIFOLD_SOLID_BREP('alibrePartClosedBody',#328);
#330=COLOUR_RGB('',0.882352948,0.882352948,0.882352948);
#331=FILL_AREA_STYLE_COLOUR('',#330);
#332=FILL_AREA_STYLE('',(#331));
#333=SURFACE_STYLE_FILL_AREA(#332);
#334=SURFACE_SIDE_STYLE('',(#333));
#335=SURFACE_STYLE_USAGE(.BOTH.,#334);
#336=PRESENTATION_STYLE_ASSIGNMENT((#335));
#26=STYLED_ITEM('',(#336),#329);
#16=SHAPE_REPRESENTATION('3739 VHM-Endmill SPEEDCUT Alu-XXL 8.00mm (0729000800100)',(#15),#10);
#17=ADVANCED_BREP_SHAPE_REPRESENTATION('3739 VHM-Endmill SPEEDCUT Alu-XXL 8.00mm (0729000800100)',(#329),#10);
#344=SHAPE_REPRESENTATION_RELATIONSHIP('','',#16,#17);
#345=CARTESIAN_POINT('',(0.,0.,0.));
#346=DIRECTION('',(0.,0.,1.));
#347=DIRECTION('',(1.,0.,0.));
#348=AXIS2_PLACEMENT_3D('',#345,#346,#347);
#350=MAPPED_ITEM('',#349,#348);
#349=REPRESENTATION_MAP(#348,#16);
#351=APPLICATION_CONTEXT('Managed model based 3d engineering');
#352=APPLICATION_PROTOCOL_DEFINITION('international standard','ap242_managed_model_based_3d_engineering',2013,#351);
#353=PRODUCT_CONTEXT('',#351,'mechanical');
#354=PRODUCT_DEFINITION_CONTEXT('part definition',#351,'design');
#24=PRODUCT('3739 VHM-Endmill SPEEDCUT Alu-XXL 8.00mm (0729000800100)','3739 VHM-Endmill SPEEDCUT Alu-XXL 8.00mm (0729000800100)','',(#353));
#355=PRODUCT_RELATED_PRODUCT_CATEGORY('part','',(#24));
#356=PRODUCT_DEFINITION_FORMATION_WITH_SPECIFIED_SOURCE('','',#24,.NOT_KNOWN.);
#25=PRODUCT_DEFINITION('design','',#356,#354);
#23=PRODUCT_DEFINITION_SHAPE('','',#25);
#357=SHAPE_DEFINITION_REPRESENTATION(#23,#16);
#11=DRAUGHTING_MODEL('',(#350),#10);
#1=MECHANICAL_DESIGN_GEOMETRIC_PRESENTATION_REPRESENTATION('',(#26),#10);
ENDSEC;
END-ISO-10303-21;
