ISO-10303-21;
HEADER;
/* Generated by software containing ST-Developer
 * from STEP Tools, Inc. (www.steptools.com) 
 */

FILE_DESCRIPTION(
/* description */ ('Alibre Inc.'),
/* implementation_level */ '2;1');

FILE_NAME(
/* name */ 'export-5DE5C5C3-1897-4365-8754-7CE7AF1A1DC1',
/* time_stamp */ '2020-08-15T17:11:22+02:00',
/* author */ (''),
/* organization */ (''),
/* preprocessor_version */ 'ST-DEVELOPER v17',
/* originating_system */ 'Alibre',
/* authorisation */ '');

FILE_SCHEMA (('AUTOMOTIVE_DESIGN'));
ENDSEC;

DATA;
#10=STYLED_ITEM('NAME_0',(#18),#655);
#11=MECHANICAL_DESIGN_GEOMETRIC_PRESENTATION_REPRESENTATION('NAME_0',(#10),
#33);
#12=COLOUR_RGB('',0.882352941176471,0.882352941176471,0.882352941176471);
#13=FILL_AREA_STYLE_COLOUR('NAME_0',#12);
#14=FILL_AREA_STYLE('NAME_0',(#13));
#15=SURFACE_STYLE_FILL_AREA(#14);
#16=SURFACE_SIDE_STYLE('NAME_0',(#15));
#17=SURFACE_STYLE_USAGE(.POSITIVE.,#16);
#18=PRESENTATION_STYLE_ASSIGNMENT((#17));
#19=PRODUCT_DEFINITION_CONTEXT('part definition',#26,'design');
#20=SHAPE_DEFINITION_REPRESENTATION(#21,#656);
#21=PRODUCT_DEFINITION_SHAPE('PRODUCT_VERSION_ID',
'PRODUCT_VERSION_DESCR',#22);
#22=PRODUCT_DEFINITION('PRODUCT_VERSION_ID','PRODUCT_VERSION_DESCR',#23,
#19);
#23=PRODUCT_DEFINITION_FORMATION_WITH_SPECIFIED_SOURCE(
'PRODUCT_VERSION_ID','PRODUCT_VERSION_DESCR',#28,.MADE.);
#24=PRODUCT_RELATED_PRODUCT_CATEGORY('part','part',(#28));
#25=APPLICATION_PROTOCOL_DEFINITION('Draft International Standard',
'automotive_design',1994,#26);
#26=APPLICATION_CONTEXT('automotive_Design');
#27=PRODUCT_CONTEXT('3D Mechanical Parts',#26,'mechanical');
#28=PRODUCT('','388 DCNC-Shearplates 180-4040 including Tnuts&bolts','',
(#27));
#29=(
LENGTH_UNIT()
NAMED_UNIT(*)
SI_UNIT(.MILLI.,.METRE.)
);
#30=(
NAMED_UNIT(*)
PLANE_ANGLE_UNIT()
SI_UNIT($,.RADIAN.)
);
#31=(
NAMED_UNIT(*)
SI_UNIT($,.STERADIAN.)
SOLID_ANGLE_UNIT()
);
#32=UNCERTAINTY_MEASURE_WITH_UNIT(LENGTH_MEASURE(1.E-6),#29,
'DISTANCE_ACCURACY_VALUE',
'Maximum model space distance between geometric entities at asserted c
onnectivities');
#33=(
GEOMETRIC_REPRESENTATION_CONTEXT(3)
GLOBAL_UNCERTAINTY_ASSIGNED_CONTEXT((#32))
GLOBAL_UNIT_ASSIGNED_CONTEXT((#31,#30,#29))
REPRESENTATION_CONTEXT('ID1','3D')
);
#34=PLANE('',#393);
#35=PLANE('',#397);
#36=PLANE('',#401);
#37=PLANE('',#405);
#38=PLANE('',#409);
#39=PLANE('',#413);
#40=PLANE('',#432);
#41=PLANE('',#433);
#42=VECTOR('',#438,1.);
#43=VECTOR('',#441,1.);
#44=VECTOR('',#443,1.);
#45=VECTOR('',#444,1.);
#46=VECTOR('',#445,1.);
#47=VECTOR('',#450,1.);
#48=VECTOR('',#454,1.);
#49=VECTOR('',#455,1.);
#50=VECTOR('',#456,1.);
#51=VECTOR('',#461,1.);
#52=VECTOR('',#465,1.);
#53=VECTOR('',#466,1.);
#54=VECTOR('',#467,1.);
#55=VECTOR('',#472,1.);
#56=VECTOR('',#476,1.);
#57=VECTOR('',#477,1.);
#58=VECTOR('',#478,1.);
#59=VECTOR('',#483,1.);
#60=VECTOR('',#487,1.);
#61=VECTOR('',#488,1.);
#62=VECTOR('',#489,1.);
#63=VECTOR('',#494,1.);
#64=VECTOR('',#498,1.);
#65=VECTOR('',#499,1.);
#66=LINE('',#542,#42);
#67=LINE('',#546,#43);
#68=LINE('',#548,#44);
#69=LINE('',#550,#45);
#70=LINE('',#552,#46);
#71=LINE('',#556,#47);
#72=LINE('',#560,#48);
#73=LINE('',#562,#49);
#74=LINE('',#564,#50);
#75=LINE('',#568,#51);
#76=LINE('',#572,#52);
#77=LINE('',#574,#53);
#78=LINE('',#576,#54);
#79=LINE('',#580,#55);
#80=LINE('',#584,#56);
#81=LINE('',#586,#57);
#82=LINE('',#588,#58);
#83=LINE('',#592,#59);
#84=LINE('',#596,#60);
#85=LINE('',#598,#61);
#86=LINE('',#600,#62);
#87=LINE('',#604,#63);
#88=LINE('',#608,#64);
#89=LINE('',#609,#65);
#90=VERTEX_POINT('',#540);
#91=VERTEX_POINT('',#541);
#92=VERTEX_POINT('',#543);
#93=VERTEX_POINT('',#545);
#94=VERTEX_POINT('',#549);
#95=VERTEX_POINT('',#551);
#96=VERTEX_POINT('',#555);
#97=VERTEX_POINT('',#557);
#98=VERTEX_POINT('',#561);
#99=VERTEX_POINT('',#563);
#100=VERTEX_POINT('',#567);
#101=VERTEX_POINT('',#569);
#102=VERTEX_POINT('',#573);
#103=VERTEX_POINT('',#575);
#104=VERTEX_POINT('',#579);
#105=VERTEX_POINT('',#581);
#106=VERTEX_POINT('',#585);
#107=VERTEX_POINT('',#587);
#108=VERTEX_POINT('',#591);
#109=VERTEX_POINT('',#593);
#110=VERTEX_POINT('',#597);
#111=VERTEX_POINT('',#599);
#112=VERTEX_POINT('',#603);
#113=VERTEX_POINT('',#605);
#114=VERTEX_POINT('',#612);
#115=VERTEX_POINT('',#614);
#116=VERTEX_POINT('',#617);
#117=VERTEX_POINT('',#619);
#118=VERTEX_POINT('',#622);
#119=VERTEX_POINT('',#624);
#120=VERTEX_POINT('',#627);
#121=VERTEX_POINT('',#629);
#122=VERTEX_POINT('',#632);
#123=VERTEX_POINT('',#634);
#124=VERTEX_POINT('',#637);
#125=VERTEX_POINT('',#639);
#126=CIRCLE('',#391,4.00000000099999);
#127=CIRCLE('',#392,4.00000000099999);
#128=CIRCLE('',#395,4.000000001);
#129=CIRCLE('',#396,4.000000001);
#130=CIRCLE('',#399,4.00000000100002);
#131=CIRCLE('',#400,4.00000000100002);
#132=CIRCLE('',#403,4.00000000100002);
#133=CIRCLE('',#404,4.00000000100002);
#134=CIRCLE('',#407,4.000000001);
#135=CIRCLE('',#408,4.000000001);
#136=CIRCLE('',#411,4.000000001);
#137=CIRCLE('',#412,4.000000001);
#138=CIRCLE('',#415,4.09999999912);
#139=CIRCLE('',#416,4.09999999912);
#140=CIRCLE('',#418,4.09999999912);
#141=CIRCLE('',#419,4.09999999912);
#142=CIRCLE('',#421,4.09999999912);
#143=CIRCLE('',#422,4.09999999912);
#144=CIRCLE('',#424,4.09999999911999);
#145=CIRCLE('',#425,4.09999999911999);
#146=CIRCLE('',#427,4.09999999912);
#147=CIRCLE('',#428,4.09999999912);
#148=CIRCLE('',#430,4.09999999912);
#149=CIRCLE('',#431,4.09999999912);
#150=EDGE_CURVE('',#90,#91,#126,.T.);
#151=EDGE_CURVE('',#92,#91,#66,.T.);
#152=EDGE_CURVE('',#92,#93,#127,.T.);
#153=EDGE_CURVE('',#93,#90,#67,.T.);
#154=EDGE_CURVE('',#91,#94,#68,.T.);
#155=EDGE_CURVE('',#95,#94,#69,.T.);
#156=EDGE_CURVE('',#95,#92,#70,.T.);
#157=EDGE_CURVE('',#94,#96,#128,.T.);
#158=EDGE_CURVE('',#97,#96,#71,.T.);
#159=EDGE_CURVE('',#97,#95,#129,.T.);
#160=EDGE_CURVE('',#96,#98,#72,.T.);
#161=EDGE_CURVE('',#99,#98,#73,.T.);
#162=EDGE_CURVE('',#99,#97,#74,.T.);
#163=EDGE_CURVE('',#98,#100,#130,.T.);
#164=EDGE_CURVE('',#101,#100,#75,.T.);
#165=EDGE_CURVE('',#101,#99,#131,.T.);
#166=EDGE_CURVE('',#100,#102,#76,.T.);
#167=EDGE_CURVE('',#103,#102,#77,.T.);
#168=EDGE_CURVE('',#103,#101,#78,.T.);
#169=EDGE_CURVE('',#102,#104,#132,.T.);
#170=EDGE_CURVE('',#105,#104,#79,.T.);
#171=EDGE_CURVE('',#105,#103,#133,.T.);
#172=EDGE_CURVE('',#104,#106,#80,.T.);
#173=EDGE_CURVE('',#107,#106,#81,.T.);
#174=EDGE_CURVE('',#107,#105,#82,.T.);
#175=EDGE_CURVE('',#106,#108,#134,.T.);
#176=EDGE_CURVE('',#109,#108,#83,.T.);
#177=EDGE_CURVE('',#109,#107,#135,.T.);
#178=EDGE_CURVE('',#108,#110,#84,.T.);
#179=EDGE_CURVE('',#111,#110,#85,.T.);
#180=EDGE_CURVE('',#111,#109,#86,.T.);
#181=EDGE_CURVE('',#110,#112,#136,.T.);
#182=EDGE_CURVE('',#113,#112,#87,.T.);
#183=EDGE_CURVE('',#113,#111,#137,.T.);
#184=EDGE_CURVE('',#112,#90,#88,.T.);
#185=EDGE_CURVE('',#93,#113,#89,.T.);
#186=EDGE_CURVE('',#114,#114,#138,.T.);
#187=EDGE_CURVE('',#115,#115,#139,.T.);
#188=EDGE_CURVE('',#116,#116,#140,.T.);
#189=EDGE_CURVE('',#117,#117,#141,.T.);
#190=EDGE_CURVE('',#118,#118,#142,.T.);
#191=EDGE_CURVE('',#119,#119,#143,.T.);
#192=EDGE_CURVE('',#120,#120,#144,.T.);
#193=EDGE_CURVE('',#121,#121,#145,.T.);
#194=EDGE_CURVE('',#122,#122,#146,.T.);
#195=EDGE_CURVE('',#123,#123,#147,.T.);
#196=EDGE_CURVE('',#124,#124,#148,.T.);
#197=EDGE_CURVE('',#125,#125,#149,.T.);
#198=ORIENTED_EDGE('',*,*,#150,.T.);
#199=ORIENTED_EDGE('',*,*,#151,.F.);
#200=ORIENTED_EDGE('',*,*,#152,.T.);
#201=ORIENTED_EDGE('',*,*,#153,.T.);
#202=ORIENTED_EDGE('',*,*,#154,.T.);
#203=ORIENTED_EDGE('',*,*,#155,.F.);
#204=ORIENTED_EDGE('',*,*,#156,.T.);
#205=ORIENTED_EDGE('',*,*,#151,.T.);
#206=ORIENTED_EDGE('',*,*,#157,.T.);
#207=ORIENTED_EDGE('',*,*,#158,.F.);
#208=ORIENTED_EDGE('',*,*,#159,.T.);
#209=ORIENTED_EDGE('',*,*,#155,.T.);
#210=ORIENTED_EDGE('',*,*,#160,.T.);
#211=ORIENTED_EDGE('',*,*,#161,.F.);
#212=ORIENTED_EDGE('',*,*,#162,.T.);
#213=ORIENTED_EDGE('',*,*,#158,.T.);
#214=ORIENTED_EDGE('',*,*,#163,.T.);
#215=ORIENTED_EDGE('',*,*,#164,.F.);
#216=ORIENTED_EDGE('',*,*,#165,.T.);
#217=ORIENTED_EDGE('',*,*,#161,.T.);
#218=ORIENTED_EDGE('',*,*,#166,.T.);
#219=ORIENTED_EDGE('',*,*,#167,.F.);
#220=ORIENTED_EDGE('',*,*,#168,.T.);
#221=ORIENTED_EDGE('',*,*,#164,.T.);
#222=ORIENTED_EDGE('',*,*,#169,.T.);
#223=ORIENTED_EDGE('',*,*,#170,.F.);
#224=ORIENTED_EDGE('',*,*,#171,.T.);
#225=ORIENTED_EDGE('',*,*,#167,.T.);
#226=ORIENTED_EDGE('',*,*,#172,.T.);
#227=ORIENTED_EDGE('',*,*,#173,.F.);
#228=ORIENTED_EDGE('',*,*,#174,.T.);
#229=ORIENTED_EDGE('',*,*,#170,.T.);
#230=ORIENTED_EDGE('',*,*,#175,.T.);
#231=ORIENTED_EDGE('',*,*,#176,.F.);
#232=ORIENTED_EDGE('',*,*,#177,.T.);
#233=ORIENTED_EDGE('',*,*,#173,.T.);
#234=ORIENTED_EDGE('',*,*,#178,.T.);
#235=ORIENTED_EDGE('',*,*,#179,.F.);
#236=ORIENTED_EDGE('',*,*,#180,.T.);
#237=ORIENTED_EDGE('',*,*,#176,.T.);
#238=ORIENTED_EDGE('',*,*,#181,.T.);
#239=ORIENTED_EDGE('',*,*,#182,.F.);
#240=ORIENTED_EDGE('',*,*,#183,.T.);
#241=ORIENTED_EDGE('',*,*,#179,.T.);
#242=ORIENTED_EDGE('',*,*,#184,.T.);
#243=ORIENTED_EDGE('',*,*,#153,.F.);
#244=ORIENTED_EDGE('',*,*,#185,.T.);
#245=ORIENTED_EDGE('',*,*,#182,.T.);
#246=ORIENTED_EDGE('',*,*,#186,.T.);
#247=ORIENTED_EDGE('',*,*,#187,.F.);
#248=ORIENTED_EDGE('',*,*,#188,.T.);
#249=ORIENTED_EDGE('',*,*,#189,.F.);
#250=ORIENTED_EDGE('',*,*,#190,.T.);
#251=ORIENTED_EDGE('',*,*,#191,.F.);
#252=ORIENTED_EDGE('',*,*,#192,.T.);
#253=ORIENTED_EDGE('',*,*,#193,.F.);
#254=ORIENTED_EDGE('',*,*,#194,.T.);
#255=ORIENTED_EDGE('',*,*,#195,.F.);
#256=ORIENTED_EDGE('',*,*,#196,.T.);
#257=ORIENTED_EDGE('',*,*,#197,.F.);
#258=ORIENTED_EDGE('',*,*,#196,.F.);
#259=ORIENTED_EDGE('',*,*,#194,.F.);
#260=ORIENTED_EDGE('',*,*,#192,.F.);
#261=ORIENTED_EDGE('',*,*,#190,.F.);
#262=ORIENTED_EDGE('',*,*,#188,.F.);
#263=ORIENTED_EDGE('',*,*,#186,.F.);
#264=ORIENTED_EDGE('',*,*,#150,.F.);
#265=ORIENTED_EDGE('',*,*,#184,.F.);
#266=ORIENTED_EDGE('',*,*,#181,.F.);
#267=ORIENTED_EDGE('',*,*,#178,.F.);
#268=ORIENTED_EDGE('',*,*,#175,.F.);
#269=ORIENTED_EDGE('',*,*,#172,.F.);
#270=ORIENTED_EDGE('',*,*,#169,.F.);
#271=ORIENTED_EDGE('',*,*,#166,.F.);
#272=ORIENTED_EDGE('',*,*,#163,.F.);
#273=ORIENTED_EDGE('',*,*,#160,.F.);
#274=ORIENTED_EDGE('',*,*,#157,.F.);
#275=ORIENTED_EDGE('',*,*,#154,.F.);
#276=ORIENTED_EDGE('',*,*,#197,.T.);
#277=ORIENTED_EDGE('',*,*,#195,.T.);
#278=ORIENTED_EDGE('',*,*,#193,.T.);
#279=ORIENTED_EDGE('',*,*,#191,.T.);
#280=ORIENTED_EDGE('',*,*,#189,.T.);
#281=ORIENTED_EDGE('',*,*,#187,.T.);
#282=ORIENTED_EDGE('',*,*,#185,.F.);
#283=ORIENTED_EDGE('',*,*,#152,.F.);
#284=ORIENTED_EDGE('',*,*,#156,.F.);
#285=ORIENTED_EDGE('',*,*,#159,.F.);
#286=ORIENTED_EDGE('',*,*,#162,.F.);
#287=ORIENTED_EDGE('',*,*,#165,.F.);
#288=ORIENTED_EDGE('',*,*,#168,.F.);
#289=ORIENTED_EDGE('',*,*,#171,.F.);
#290=ORIENTED_EDGE('',*,*,#174,.F.);
#291=ORIENTED_EDGE('',*,*,#177,.F.);
#292=ORIENTED_EDGE('',*,*,#180,.F.);
#293=ORIENTED_EDGE('',*,*,#183,.F.);
#294=EDGE_LOOP('',(#198,#199,#200,#201));
#295=EDGE_LOOP('',(#202,#203,#204,#205));
#296=EDGE_LOOP('',(#206,#207,#208,#209));
#297=EDGE_LOOP('',(#210,#211,#212,#213));
#298=EDGE_LOOP('',(#214,#215,#216,#217));
#299=EDGE_LOOP('',(#218,#219,#220,#221));
#300=EDGE_LOOP('',(#222,#223,#224,#225));
#301=EDGE_LOOP('',(#226,#227,#228,#229));
#302=EDGE_LOOP('',(#230,#231,#232,#233));
#303=EDGE_LOOP('',(#234,#235,#236,#237));
#304=EDGE_LOOP('',(#238,#239,#240,#241));
#305=EDGE_LOOP('',(#242,#243,#244,#245));
#306=EDGE_LOOP('',(#246));
#307=EDGE_LOOP('',(#247));
#308=EDGE_LOOP('',(#248));
#309=EDGE_LOOP('',(#249));
#310=EDGE_LOOP('',(#250));
#311=EDGE_LOOP('',(#251));
#312=EDGE_LOOP('',(#252));
#313=EDGE_LOOP('',(#253));
#314=EDGE_LOOP('',(#254));
#315=EDGE_LOOP('',(#255));
#316=EDGE_LOOP('',(#256));
#317=EDGE_LOOP('',(#257));
#318=EDGE_LOOP('',(#258));
#319=EDGE_LOOP('',(#259));
#320=EDGE_LOOP('',(#260));
#321=EDGE_LOOP('',(#261));
#322=EDGE_LOOP('',(#262));
#323=EDGE_LOOP('',(#263));
#324=EDGE_LOOP('',(#264,#265,#266,#267,#268,#269,#270,#271,#272,#273,#274,
#275));
#325=EDGE_LOOP('',(#276));
#326=EDGE_LOOP('',(#277));
#327=EDGE_LOOP('',(#278));
#328=EDGE_LOOP('',(#279));
#329=EDGE_LOOP('',(#280));
#330=EDGE_LOOP('',(#281));
#331=EDGE_LOOP('',(#282,#283,#284,#285,#286,#287,#288,#289,#290,#291,#292,
#293));
#332=FACE_BOUND('',#294,.T.);
#333=FACE_BOUND('',#295,.T.);
#334=FACE_BOUND('',#296,.T.);
#335=FACE_BOUND('',#297,.T.);
#336=FACE_BOUND('',#298,.T.);
#337=FACE_BOUND('',#299,.T.);
#338=FACE_BOUND('',#300,.T.);
#339=FACE_BOUND('',#301,.T.);
#340=FACE_BOUND('',#302,.T.);
#341=FACE_BOUND('',#303,.T.);
#342=FACE_BOUND('',#304,.T.);
#343=FACE_BOUND('',#305,.T.);
#344=FACE_BOUND('',#306,.T.);
#345=FACE_BOUND('',#307,.T.);
#346=FACE_BOUND('',#308,.T.);
#347=FACE_BOUND('',#309,.T.);
#348=FACE_BOUND('',#310,.T.);
#349=FACE_BOUND('',#311,.T.);
#350=FACE_BOUND('',#312,.T.);
#351=FACE_BOUND('',#313,.T.);
#352=FACE_BOUND('',#314,.T.);
#353=FACE_BOUND('',#315,.T.);
#354=FACE_BOUND('',#316,.T.);
#355=FACE_BOUND('',#317,.T.);
#356=FACE_BOUND('',#318,.T.);
#357=FACE_BOUND('',#319,.T.);
#358=FACE_BOUND('',#320,.T.);
#359=FACE_BOUND('',#321,.T.);
#360=FACE_BOUND('',#322,.T.);
#361=FACE_BOUND('',#323,.T.);
#362=FACE_BOUND('',#324,.T.);
#363=FACE_BOUND('',#325,.T.);
#364=FACE_BOUND('',#326,.T.);
#365=FACE_BOUND('',#327,.T.);
#366=FACE_BOUND('',#328,.T.);
#367=FACE_BOUND('',#329,.T.);
#368=FACE_BOUND('',#330,.T.);
#369=FACE_BOUND('',#331,.T.);
#370=ADVANCED_FACE('',(#332),#642,.T.);
#371=ADVANCED_FACE('',(#333),#34,.T.);
#372=ADVANCED_FACE('',(#334),#643,.T.);
#373=ADVANCED_FACE('',(#335),#35,.T.);
#374=ADVANCED_FACE('',(#336),#644,.T.);
#375=ADVANCED_FACE('',(#337),#36,.T.);
#376=ADVANCED_FACE('',(#338),#645,.T.);
#377=ADVANCED_FACE('',(#339),#37,.T.);
#378=ADVANCED_FACE('',(#340),#646,.T.);
#379=ADVANCED_FACE('',(#341),#38,.T.);
#380=ADVANCED_FACE('',(#342),#647,.T.);
#381=ADVANCED_FACE('',(#343),#39,.T.);
#382=ADVANCED_FACE('',(#344,#345),#648,.F.);
#383=ADVANCED_FACE('',(#346,#347),#649,.F.);
#384=ADVANCED_FACE('',(#348,#349),#650,.F.);
#385=ADVANCED_FACE('',(#350,#351),#651,.F.);
#386=ADVANCED_FACE('',(#352,#353),#652,.F.);
#387=ADVANCED_FACE('',(#354,#355),#653,.F.);
#388=ADVANCED_FACE('',(#356,#357,#358,#359,#360,#361,#362),#40,.T.);
#389=ADVANCED_FACE('',(#363,#364,#365,#366,#367,#368,#369),#41,.F.);
#390=AXIS2_PLACEMENT_3D('',#538,#434,#435);
#391=AXIS2_PLACEMENT_3D('',#539,#436,#437);
#392=AXIS2_PLACEMENT_3D('',#544,#439,#440);
#393=AXIS2_PLACEMENT_3D('',#547,#442,$);
#394=AXIS2_PLACEMENT_3D('',#553,#446,#447);
#395=AXIS2_PLACEMENT_3D('',#554,#448,#449);
#396=AXIS2_PLACEMENT_3D('',#558,#451,#452);
#397=AXIS2_PLACEMENT_3D('',#559,#453,$);
#398=AXIS2_PLACEMENT_3D('',#565,#457,#458);
#399=AXIS2_PLACEMENT_3D('',#566,#459,#460);
#400=AXIS2_PLACEMENT_3D('',#570,#462,#463);
#401=AXIS2_PLACEMENT_3D('',#571,#464,$);
#402=AXIS2_PLACEMENT_3D('',#577,#468,#469);
#403=AXIS2_PLACEMENT_3D('',#578,#470,#471);
#404=AXIS2_PLACEMENT_3D('',#582,#473,#474);
#405=AXIS2_PLACEMENT_3D('',#583,#475,$);
#406=AXIS2_PLACEMENT_3D('',#589,#479,#480);
#407=AXIS2_PLACEMENT_3D('',#590,#481,#482);
#408=AXIS2_PLACEMENT_3D('',#594,#484,#485);
#409=AXIS2_PLACEMENT_3D('',#595,#486,$);
#410=AXIS2_PLACEMENT_3D('',#601,#490,#491);
#411=AXIS2_PLACEMENT_3D('',#602,#492,#493);
#412=AXIS2_PLACEMENT_3D('',#606,#495,#496);
#413=AXIS2_PLACEMENT_3D('',#607,#497,$);
#414=AXIS2_PLACEMENT_3D('',#610,#500,#501);
#415=AXIS2_PLACEMENT_3D('',#611,#502,#503);
#416=AXIS2_PLACEMENT_3D('',#613,#504,#505);
#417=AXIS2_PLACEMENT_3D('',#615,#506,#507);
#418=AXIS2_PLACEMENT_3D('',#616,#508,#509);
#419=AXIS2_PLACEMENT_3D('',#618,#510,#511);
#420=AXIS2_PLACEMENT_3D('',#620,#512,#513);
#421=AXIS2_PLACEMENT_3D('',#621,#514,#515);
#422=AXIS2_PLACEMENT_3D('',#623,#516,#517);
#423=AXIS2_PLACEMENT_3D('',#625,#518,#519);
#424=AXIS2_PLACEMENT_3D('',#626,#520,#521);
#425=AXIS2_PLACEMENT_3D('',#628,#522,#523);
#426=AXIS2_PLACEMENT_3D('',#630,#524,#525);
#427=AXIS2_PLACEMENT_3D('',#631,#526,#527);
#428=AXIS2_PLACEMENT_3D('',#633,#528,#529);
#429=AXIS2_PLACEMENT_3D('',#635,#530,#531);
#430=AXIS2_PLACEMENT_3D('',#636,#532,#533);
#431=AXIS2_PLACEMENT_3D('',#638,#534,#535);
#432=AXIS2_PLACEMENT_3D('',#640,#536,$);
#433=AXIS2_PLACEMENT_3D('',#641,#537,$);
#434=DIRECTION('',(0.,0.,1.));
#435=DIRECTION('',(4.00000000099999,0.,0.));
#436=DIRECTION('',(0.,0.,-1.));
#437=DIRECTION('',(4.00000000099999,0.,0.));
#438=DIRECTION('',(0.,0.,1.));
#439=DIRECTION('',(0.,0.,1.));
#440=DIRECTION('',(4.00000000099999,0.,0.));
#441=DIRECTION('',(0.,0.,1.));
#442=DIRECTION('',(1.,0.,0.));
#443=DIRECTION('',(0.,-1.,0.));
#444=DIRECTION('',(0.,0.,1.));
#445=DIRECTION('',(0.,1.,0.));
#446=DIRECTION('',(0.,0.,1.));
#447=DIRECTION('',(4.000000001,0.,0.));
#448=DIRECTION('',(0.,0.,-1.));
#449=DIRECTION('',(4.000000001,0.,0.));
#450=DIRECTION('',(0.,0.,1.));
#451=DIRECTION('',(0.,0.,1.));
#452=DIRECTION('',(4.000000001,0.,0.));
#453=DIRECTION('',(0.,-1.,0.));
#454=DIRECTION('',(-1.,0.,0.));
#455=DIRECTION('',(0.,0.,1.));
#456=DIRECTION('',(1.,0.,0.));
#457=DIRECTION('',(0.,0.,1.));
#458=DIRECTION('',(4.00000000100002,0.,0.));
#459=DIRECTION('',(0.,0.,-1.));
#460=DIRECTION('',(4.00000000100002,0.,0.));
#461=DIRECTION('',(0.,0.,1.));
#462=DIRECTION('',(0.,0.,1.));
#463=DIRECTION('',(4.00000000100002,0.,0.));
#464=DIRECTION('',(-1.,0.,0.));
#465=DIRECTION('',(0.,1.,0.));
#466=DIRECTION('',(0.,0.,1.));
#467=DIRECTION('',(0.,-1.,0.));
#468=DIRECTION('',(0.,0.,1.));
#469=DIRECTION('',(4.00000000100002,0.,0.));
#470=DIRECTION('',(0.,0.,-1.));
#471=DIRECTION('',(4.00000000100002,0.,0.));
#472=DIRECTION('',(0.,0.,1.));
#473=DIRECTION('',(0.,0.,1.));
#474=DIRECTION('',(4.00000000100002,0.,0.));
#475=DIRECTION('',(-0.707106781186548,0.707106781186548,0.));
#476=DIRECTION('',(0.707106781186548,0.707106781186548,0.));
#477=DIRECTION('',(0.,0.,1.));
#478=DIRECTION('',(-0.707106781186548,-0.707106781186548,0.));
#479=DIRECTION('',(0.,0.,1.));
#480=DIRECTION('',(4.000000001,0.,0.));
#481=DIRECTION('',(0.,0.,-1.));
#482=DIRECTION('',(4.000000001,0.,0.));
#483=DIRECTION('',(0.,0.,1.));
#484=DIRECTION('',(0.,0.,1.));
#485=DIRECTION('',(4.000000001,0.,0.));
#486=DIRECTION('',(0.,1.,0.));
#487=DIRECTION('',(1.,0.,0.));
#488=DIRECTION('',(0.,0.,1.));
#489=DIRECTION('',(-1.,0.,0.));
#490=DIRECTION('',(0.,0.,1.));
#491=DIRECTION('',(4.000000001,0.,0.));
#492=DIRECTION('',(0.,0.,-1.));
#493=DIRECTION('',(4.000000001,0.,0.));
#494=DIRECTION('',(0.,0.,1.));
#495=DIRECTION('',(0.,0.,1.));
#496=DIRECTION('',(4.000000001,0.,0.));
#497=DIRECTION('',(0.707106781186548,0.707106781186547,0.));
#498=DIRECTION('',(0.707106781186547,-0.707106781186548,0.));
#499=DIRECTION('',(-0.707106781186547,0.707106781186548,0.));
#500=DIRECTION('',(0.,0.,1.));
#501=DIRECTION('',(4.09999999912,0.,0.));
#502=DIRECTION('',(0.,0.,1.));
#503=DIRECTION('',(4.09999999912,0.,0.));
#504=DIRECTION('',(0.,0.,1.));
#505=DIRECTION('',(4.09999999912,0.,0.));
#506=DIRECTION('',(0.,0.,1.));
#507=DIRECTION('',(4.09999999912,0.,0.));
#508=DIRECTION('',(0.,0.,1.));
#509=DIRECTION('',(4.09999999912,0.,0.));
#510=DIRECTION('',(0.,0.,1.));
#511=DIRECTION('',(4.09999999912,0.,0.));
#512=DIRECTION('',(0.,0.,1.));
#513=DIRECTION('',(4.09999999912,0.,0.));
#514=DIRECTION('',(0.,0.,1.));
#515=DIRECTION('',(4.09999999912,0.,0.));
#516=DIRECTION('',(0.,0.,1.));
#517=DIRECTION('',(4.09999999912,0.,0.));
#518=DIRECTION('',(0.,0.,1.));
#519=DIRECTION('',(4.09999999911999,0.,0.));
#520=DIRECTION('',(0.,0.,1.));
#521=DIRECTION('',(4.09999999911999,0.,0.));
#522=DIRECTION('',(0.,0.,1.));
#523=DIRECTION('',(4.09999999911999,0.,0.));
#524=DIRECTION('',(0.,0.,1.));
#525=DIRECTION('',(4.09999999912,0.,0.));
#526=DIRECTION('',(0.,0.,1.));
#527=DIRECTION('',(4.09999999912,0.,0.));
#528=DIRECTION('',(0.,0.,1.));
#529=DIRECTION('',(4.09999999912,0.,0.));
#530=DIRECTION('',(0.,0.,1.));
#531=DIRECTION('',(4.09999999912,0.,0.));
#532=DIRECTION('',(0.,0.,1.));
#533=DIRECTION('',(4.09999999912,0.,0.));
#534=DIRECTION('',(0.,0.,1.));
#535=DIRECTION('',(4.09999999912,0.,0.));
#536=DIRECTION('',(0.,0.,1.));
#537=DIRECTION('',(0.,0.,1.));
#538=CARTESIAN_POINT('',(96.0000000001268,-65.7609187532334,0.));
#539=CARTESIAN_POINT('',(96.0000000001268,-65.7609187532334,1.5));
#540=CARTESIAN_POINT('',(98.82842712558,-62.93249162778,1.5));
#541=CARTESIAN_POINT('',(100.000000001127,-65.7609187532334,1.5));
#542=CARTESIAN_POINT('',(100.000000001127,-65.7609187532334,0.));
#543=CARTESIAN_POINT('',(100.000000001127,-65.7609187532334,0.));
#544=CARTESIAN_POINT('',(96.0000000001268,-65.7609187532334,0.));
#545=CARTESIAN_POINT('',(98.82842712558,-62.93249162778,0.));
#546=CARTESIAN_POINT('',(98.82842712558,-62.93249162778,0.));
#547=CARTESIAN_POINT('',(100.000000001127,-80.8804593764234,0.));
#548=CARTESIAN_POINT('',(100.000000001127,-95.9999999996134,1.5));
#549=CARTESIAN_POINT('',(100.000000001127,-95.9999999996134,1.5));
#550=CARTESIAN_POINT('',(100.000000001127,-95.9999999996134,0.));
#551=CARTESIAN_POINT('',(100.000000001127,-95.9999999996134,0.));
#552=CARTESIAN_POINT('',(100.000000001127,-95.9999999996134,0.));
#553=CARTESIAN_POINT('',(96.0000000001268,-95.9999999996134,0.));
#554=CARTESIAN_POINT('',(96.0000000001268,-95.9999999996134,1.5));
#555=CARTESIAN_POINT('',(96.0000000001268,-100.000000000613,1.5));
#556=CARTESIAN_POINT('',(96.0000000001268,-100.000000000613,0.));
#557=CARTESIAN_POINT('',(96.0000000001268,-100.000000000613,0.));
#558=CARTESIAN_POINT('',(96.0000000001268,-95.9999999996134,0.));
#559=CARTESIAN_POINT('',(-48.0000000015832,-100.000000000613,0.));
#560=CARTESIAN_POINT('',(-1.0132339411939E-9,-100.000000000613,1.5));
#561=CARTESIAN_POINT('',(-96.0000000021532,-100.000000000613,1.5));
#562=CARTESIAN_POINT('',(-96.0000000021532,-100.000000000613,0.));
#563=CARTESIAN_POINT('',(-96.0000000021532,-100.000000000613,0.));
#564=CARTESIAN_POINT('',(-96.0000000021532,-100.000000000613,0.));
#565=CARTESIAN_POINT('',(-96.0000000021532,-95.9999999996134,0.));
#566=CARTESIAN_POINT('',(-96.0000000021532,-95.9999999996134,1.5));
#567=CARTESIAN_POINT('',(-100.000000003153,-95.9999999996134,1.5));
#568=CARTESIAN_POINT('',(-100.000000003153,-95.9999999996134,0.));
#569=CARTESIAN_POINT('',(-100.000000003153,-95.9999999996134,0.));
#570=CARTESIAN_POINT('',(-96.0000000021532,-95.9999999996134,0.));
#571=CARTESIAN_POINT('',(-100.000000003153,-80.8804593764233,0.));
#572=CARTESIAN_POINT('',(-100.000000003153,-65.7609187532333,1.5));
#573=CARTESIAN_POINT('',(-100.000000003153,-65.7609187532333,1.5));
#574=CARTESIAN_POINT('',(-100.000000003153,-65.7609187532333,0.));
#575=CARTESIAN_POINT('',(-100.000000003153,-65.7609187532333,0.));
#576=CARTESIAN_POINT('',(-100.000000003153,-65.7609187532333,0.));
#577=CARTESIAN_POINT('',(-96.0000000021532,-65.7609187532333,0.));
#578=CARTESIAN_POINT('',(-96.0000000021532,-65.7609187532333,1.5));
#579=CARTESIAN_POINT('',(-98.8284271276066,-62.93249162778,1.5));
#580=CARTESIAN_POINT('',(-98.8284271276066,-62.93249162778,0.));
#581=CARTESIAN_POINT('',(-98.8284271276066,-62.93249162778,0.));
#582=CARTESIAN_POINT('',(-96.0000000021532,-65.7609187532333,0.));
#583=CARTESIAN_POINT('',(-57.9479677507666,-22.05203225094,0.));
#584=CARTESIAN_POINT('',(-17.0675083739266,18.8284271259,1.5));
#585=CARTESIAN_POINT('',(-17.0675083739266,18.8284271259,1.5));
#586=CARTESIAN_POINT('',(-17.0675083739266,18.8284271259,0.));
#587=CARTESIAN_POINT('',(-17.0675083739266,18.8284271259,0.));
#588=CARTESIAN_POINT('',(-17.0675083739266,18.8284271259,0.));
#589=CARTESIAN_POINT('',(-14.2390812484733,16.0000000004467,0.));
#590=CARTESIAN_POINT('',(-14.2390812484733,16.0000000004467,1.5));
#591=CARTESIAN_POINT('',(-14.2390812484733,20.0000000014467,1.5));
#592=CARTESIAN_POINT('',(-14.2390812484733,20.0000000014467,0.));
#593=CARTESIAN_POINT('',(-14.2390812484733,20.0000000014467,0.));
#594=CARTESIAN_POINT('',(-14.2390812484733,16.0000000004467,0.));
#595=CARTESIAN_POINT('',(7.1195406227167,20.0000000014467,0.));
#596=CARTESIAN_POINT('',(-1.01330055457538E-9,20.0000000014467,1.5));
#597=CARTESIAN_POINT('',(14.2390812464467,20.0000000014467,1.5));
#598=CARTESIAN_POINT('',(14.2390812464467,20.0000000014467,0.));
#599=CARTESIAN_POINT('',(14.2390812464467,20.0000000014467,0.));
#600=CARTESIAN_POINT('',(14.2390812464467,20.0000000014467,0.));
#601=CARTESIAN_POINT('',(14.2390812464467,16.0000000004467,0.));
#602=CARTESIAN_POINT('',(14.2390812464467,16.0000000004467,1.5));
#603=CARTESIAN_POINT('',(17.0675083719,18.8284271259,1.5));
#604=CARTESIAN_POINT('',(17.0675083719,18.8284271259,0.));
#605=CARTESIAN_POINT('',(17.0675083719,18.8284271259,0.));
#606=CARTESIAN_POINT('',(14.2390812464467,16.0000000004467,0.));
#607=CARTESIAN_POINT('',(57.94796774874,-22.05203225094,0.));
#608=CARTESIAN_POINT('',(98.82842712558,-62.93249162778,1.5));
#609=CARTESIAN_POINT('',(98.82842712558,-62.93249162778,0.));
#610=CARTESIAN_POINT('',(-79.99999999968,-79.99999999968,0.));
#611=CARTESIAN_POINT('',(-79.99999999968,-79.99999999968,1.5));
#612=CARTESIAN_POINT('',(-75.90000000056,-79.99999999968,1.5));
#613=CARTESIAN_POINT('',(-79.99999999968,-79.99999999968,0.));
#614=CARTESIAN_POINT('',(-75.90000000056,-79.99999999968,0.));
#615=CARTESIAN_POINT('',(39.99999999984,-79.99999999968,0.));
#616=CARTESIAN_POINT('',(39.99999999984,-79.99999999968,1.5));
#617=CARTESIAN_POINT('',(44.09999999896,-79.99999999968,1.5));
#618=CARTESIAN_POINT('',(39.99999999984,-79.99999999968,0.));
#619=CARTESIAN_POINT('',(44.09999999896,-79.99999999968,0.));
#620=CARTESIAN_POINT('',(0.,-39.99999999984,0.));
#621=CARTESIAN_POINT('',(0.,-39.99999999984,1.5));
#622=CARTESIAN_POINT('',(4.09999999912,-39.99999999984,1.5));
#623=CARTESIAN_POINT('',(0.,-39.99999999984,0.));
#624=CARTESIAN_POINT('',(4.09999999912,-39.99999999984,0.));
#625=CARTESIAN_POINT('',(79.99999999968,-79.99999999968,0.));
#626=CARTESIAN_POINT('',(79.99999999968,-79.99999999968,1.5));
#627=CARTESIAN_POINT('',(84.0999999988,-79.99999999968,1.5));
#628=CARTESIAN_POINT('',(79.99999999968,-79.99999999968,0.));
#629=CARTESIAN_POINT('',(84.0999999988,-79.99999999968,0.));
#630=CARTESIAN_POINT('',(0.,0.,0.));
#631=CARTESIAN_POINT('',(0.,0.,1.5));
#632=CARTESIAN_POINT('',(4.09999999912,0.,1.5));
#633=CARTESIAN_POINT('',(0.,0.,0.));
#634=CARTESIAN_POINT('',(4.09999999912,0.,0.));
#635=CARTESIAN_POINT('',(-39.99999999984,-79.99999999968,0.));
#636=CARTESIAN_POINT('',(-39.99999999984,-79.99999999968,1.5));
#637=CARTESIAN_POINT('',(-35.90000000072,-79.99999999968,1.5));
#638=CARTESIAN_POINT('',(-39.99999999984,-79.99999999968,0.));
#639=CARTESIAN_POINT('',(-35.90000000072,-79.99999999968,0.));
#640=CARTESIAN_POINT('',(-1.01326329271512E-9,-56.0908741628156,1.5));
#641=CARTESIAN_POINT('',(-1.01326329271512E-9,-56.0908741628156,0.));
#642=CYLINDRICAL_SURFACE('',#390,4.00000000099999);
#643=CYLINDRICAL_SURFACE('',#394,4.000000001);
#644=CYLINDRICAL_SURFACE('',#398,4.00000000100002);
#645=CYLINDRICAL_SURFACE('',#402,4.00000000100002);
#646=CYLINDRICAL_SURFACE('',#406,4.000000001);
#647=CYLINDRICAL_SURFACE('',#410,4.000000001);
#648=CYLINDRICAL_SURFACE('',#414,4.09999999912);
#649=CYLINDRICAL_SURFACE('',#417,4.09999999912);
#650=CYLINDRICAL_SURFACE('',#420,4.09999999912);
#651=CYLINDRICAL_SURFACE('',#423,4.09999999911999);
#652=CYLINDRICAL_SURFACE('',#426,4.09999999912);
#653=CYLINDRICAL_SURFACE('',#429,4.09999999912);
#654=CLOSED_SHELL('',(#370,#371,#372,#373,#374,#375,#376,#377,#378,#379,
#380,#381,#382,#383,#384,#385,#386,#387,#388,#389));
#655=MANIFOLD_SOLID_BREP('',#654);
#656=ADVANCED_BREP_SHAPE_REPRESENTATION('',(#655),#33);
ENDSEC;
END-ISO-10303-21;
