ISO-10303-21;
HEADER;
/* Generated by software containing ST-Developer
 * from STEP Tools, Inc. (www.steptools.com) 
 */

FILE_DESCRIPTION(
/* description */ ('Alibre Inc.'),
/* implementation_level */ '2;1');

FILE_NAME(
/* name */ 'export-5FF431B3-B1E1-4A68-BEA4-BB9DF1EEBE64',
/* time_stamp */ '2024-07-08T17:57:15+02:00',
/* author */ (''),
/* organization */ (''),
/* preprocessor_version */ 'ST-DEVELOPER v17',
/* originating_system */ 'Alibre',
/* authorisation */ '');

FILE_SCHEMA (('AUTOMOTIVE_DESIGN'));
ENDSEC;

DATA;
#10=STYLED_ITEM('NAME_0',(#18),#496);
#11=MECHANICAL_DESIGN_GEOMETRIC_PRESENTATION_REPRESENTATION('NAME_0',(#10),
#33);
#12=COLOUR_RGB('',0.686274509803922,0.686274509803922,0.686274509803922);
#13=FILL_AREA_STYLE_COLOUR('NAME_0',#12);
#14=FILL_AREA_STYLE('NAME_0',(#13));
#15=SURFACE_STYLE_FILL_AREA(#14);
#16=SURFACE_SIDE_STYLE('NAME_0',(#15));
#17=SURFACE_STYLE_USAGE(.POSITIVE.,#16);
#18=PRESENTATION_STYLE_ASSIGNMENT((#17));
#19=PRODUCT_DEFINITION_CONTEXT('part definition',#26,'design');
#20=SHAPE_DEFINITION_REPRESENTATION(#21,#497);
#21=PRODUCT_DEFINITION_SHAPE('PRODUCT_VERSION_ID',
'PRODUCT_VERSION_DESCR',#22);
#22=PRODUCT_DEFINITION('PRODUCT_VERSION_ID','PRODUCT_VERSION_DESCR',#23,
#19);
#23=PRODUCT_DEFINITION_FORMATION_WITH_SPECIFIED_SOURCE(
'PRODUCT_VERSION_ID','PRODUCT_VERSION_DESCR',#28,.MADE.);
#24=PRODUCT_RELATED_PRODUCT_CATEGORY('part','part',(#28));
#25=APPLICATION_PROTOCOL_DEFINITION('Draft International Standard',
'automotive_design',1994,#26);
#26=APPLICATION_CONTEXT('automotive_Design');
#27=PRODUCT_CONTEXT('3D Mechanical Parts',#26,'mechanical');
#28=PRODUCT('Slotted set screw DIN 916 M3x4 07850.030.004(High)',
'413 M3x4 DIN 916 Steel Hexagon socket set screw with point','',(#27));
#29=(
LENGTH_UNIT()
NAMED_UNIT(*)
SI_UNIT(.MILLI.,.METRE.)
);
#30=(
NAMED_UNIT(*)
PLANE_ANGLE_UNIT()
SI_UNIT($,.RADIAN.)
);
#31=(
NAMED_UNIT(*)
SI_UNIT($,.STERADIAN.)
SOLID_ANGLE_UNIT()
);
#32=UNCERTAINTY_MEASURE_WITH_UNIT(LENGTH_MEASURE(1.E-6),#29,
'DISTANCE_ACCURACY_VALUE',
'Maximum model space distance between geometric entities at asserted c
onnectivities');
#33=(
GEOMETRIC_REPRESENTATION_CONTEXT(3)
GLOBAL_UNCERTAINTY_ASSIGNED_CONTEXT((#32))
GLOBAL_UNIT_ASSIGNED_CONTEXT((#31,#30,#29))
REPRESENTATION_CONTEXT('ID1','3D')
);
#34=CYLINDRICAL_SURFACE('',#308,1.5);
#35=VECTOR('',#445,1.);
#36=VECTOR('',#450,1.);
#37=VECTOR('',#455,1.);
#38=VECTOR('',#460,1.);
#39=VECTOR('',#462,1.);
#40=VECTOR('',#463,1.);
#41=VECTOR('',#464,1.);
#42=VECTOR('',#466,1.);
#43=VECTOR('',#467,1.);
#44=VECTOR('',#469,1.);
#45=VECTOR('',#470,1.);
#46=VECTOR('',#472,1.);
#47=VECTOR('',#473,1.);
#48=VECTOR('',#475,1.);
#49=VECTOR('',#476,1.);
#50=VECTOR('',#478,1.);
#51=VECTOR('',#484,1.);
#52=LINE('',#368,#35);
#53=LINE('',#372,#36);
#54=LINE('',#377,#37);
#55=LINE('',#383,#38);
#56=LINE('',#386,#39);
#57=LINE('',#388,#40);
#58=LINE('',#390,#41);
#59=LINE('',#392,#42);
#60=LINE('',#394,#43);
#61=LINE('',#396,#44);
#62=LINE('',#398,#45);
#63=LINE('',#400,#46);
#64=LINE('',#402,#47);
#65=LINE('',#404,#48);
#66=LINE('',#406,#49);
#67=LINE('',#408,#50);
#68=LINE('',#414,#51);
#69=PLANE('',#304);
#70=PLANE('',#313);
#71=PLANE('',#314);
#72=PLANE('',#315);
#73=PLANE('',#316);
#74=PLANE('',#317);
#75=PLANE('',#318);
#76=PLANE('',#319);
#77=B_SPLINE_CURVE_WITH_KNOTS('',3,(#326,#327,#328,#329),.UNSPECIFIED.,
 .F.,.U.,(4,4),(2.3807891569732E-7,0.000874883716351648),.UNSPECIFIED.);
#78=B_SPLINE_CURVE_WITH_KNOTS('',3,(#333,#334,#335,#336),.UNSPECIFIED.,
 .F.,.U.,(4,4),(2.3807891569731E-7,0.000874883716351649),.UNSPECIFIED.);
#79=B_SPLINE_CURVE_WITH_KNOTS('',3,(#340,#341,#342,#343),.UNSPECIFIED.,
 .F.,.U.,(4,4),(0.00109111922305453,0.00197293766001085),.UNSPECIFIED.);
#80=B_SPLINE_CURVE_WITH_KNOTS('',3,(#347,#348,#349,#350),.UNSPECIFIED.,
 .F.,.U.,(4,4),(2.3807891569732E-7,0.000874883716351648),.UNSPECIFIED.);
#81=B_SPLINE_CURVE_WITH_KNOTS('',3,(#354,#355,#356,#357),.UNSPECIFIED.,
 .F.,.U.,(4,4),(2.3807891569727E-7,0.000874883716351649),.UNSPECIFIED.);
#82=B_SPLINE_CURVE_WITH_KNOTS('',3,(#360,#361,#362,#363),.UNSPECIFIED.,
 .F.,.U.,(4,4),(0.00109111922305453,0.00197293766001085),.UNSPECIFIED.);
#83=VERTEX_POINT('',#324);
#84=VERTEX_POINT('',#325);
#85=VERTEX_POINT('',#332);
#86=VERTEX_POINT('',#339);
#87=VERTEX_POINT('',#346);
#88=VERTEX_POINT('',#353);
#89=VERTEX_POINT('',#366);
#90=VERTEX_POINT('',#369);
#91=VERTEX_POINT('',#373);
#92=VERTEX_POINT('',#375);
#93=VERTEX_POINT('',#378);
#94=VERTEX_POINT('',#380);
#95=VERTEX_POINT('',#381);
#96=VERTEX_POINT('',#384);
#97=VERTEX_POINT('',#387);
#98=VERTEX_POINT('',#389);
#99=VERTEX_POINT('',#393);
#100=VERTEX_POINT('',#397);
#101=VERTEX_POINT('',#401);
#102=VERTEX_POINT('',#405);
#103=VERTEX_POINT('',#411);
#104=VERTEX_POINT('',#412);
#105=VERTEX_POINT('',#415);
#106=CIRCLE('',#293,0.866025403784439);
#107=CIRCLE('',#295,0.866025403784439);
#108=CIRCLE('',#297,0.866025403784439);
#109=CIRCLE('',#299,0.866025403784439);
#110=CIRCLE('',#301,0.866025403784439);
#111=CIRCLE('',#303,0.866025403784439);
#112=CIRCLE('',#305,1.1935);
#113=CIRCLE('',#307,1.5);
#114=CIRCLE('',#309,1.5);
#115=CIRCLE('',#311,0.7);
#116=CIRCLE('',#320,0.9);
#117=EDGE_CURVE('',#83,#84,#106,.T.);
#118=EDGE_CURVE('',#83,#84,#77,.T.);
#119=EDGE_CURVE('',#84,#85,#107,.T.);
#120=EDGE_CURVE('',#84,#85,#78,.T.);
#121=EDGE_CURVE('',#85,#86,#108,.T.);
#122=EDGE_CURVE('',#85,#86,#79,.T.);
#123=EDGE_CURVE('',#86,#87,#109,.T.);
#124=EDGE_CURVE('',#86,#87,#80,.T.);
#125=EDGE_CURVE('',#87,#88,#110,.T.);
#126=EDGE_CURVE('',#87,#88,#81,.T.);
#127=EDGE_CURVE('',#88,#83,#111,.T.);
#128=EDGE_CURVE('',#88,#83,#82,.T.);
#129=EDGE_CURVE('',#89,#89,#112,.T.);
#130=EDGE_CURVE('',#90,#89,#52,.T.);
#131=EDGE_CURVE('',#90,#90,#113,.T.);
#132=EDGE_CURVE('',#91,#90,#53,.T.);
#133=EDGE_CURVE('',#92,#91,#114,.T.);
#134=EDGE_CURVE('',#91,#92,#114,.T.);
#135=EDGE_CURVE('',#92,#93,#54,.T.);
#136=EDGE_CURVE('',#94,#93,#115,.T.);
#137=EDGE_CURVE('',#95,#94,#115,.T.);
#138=EDGE_CURVE('',#93,#95,#115,.T.);
#139=EDGE_CURVE('',#95,#96,#55,.T.);
#140=EDGE_CURVE('',#97,#83,#56,.T.);
#141=EDGE_CURVE('',#97,#98,#57,.T.);
#142=EDGE_CURVE('',#98,#84,#58,.T.);
#143=EDGE_CURVE('',#98,#99,#59,.T.);
#144=EDGE_CURVE('',#99,#85,#60,.T.);
#145=EDGE_CURVE('',#99,#100,#61,.T.);
#146=EDGE_CURVE('',#100,#86,#62,.T.);
#147=EDGE_CURVE('',#100,#101,#63,.T.);
#148=EDGE_CURVE('',#101,#87,#64,.T.);
#149=EDGE_CURVE('',#101,#102,#65,.T.);
#150=EDGE_CURVE('',#102,#88,#66,.T.);
#151=EDGE_CURVE('',#102,#97,#67,.T.);
#152=EDGE_CURVE('',#103,#104,#116,.T.);
#153=EDGE_CURVE('',#104,#103,#116,.T.);
#154=EDGE_CURVE('',#104,#105,#68,.T.);
#155=ORIENTED_EDGE('',*,*,#117,.F.);
#156=ORIENTED_EDGE('',*,*,#118,.T.);
#157=ORIENTED_EDGE('',*,*,#119,.F.);
#158=ORIENTED_EDGE('',*,*,#120,.T.);
#159=ORIENTED_EDGE('',*,*,#121,.F.);
#160=ORIENTED_EDGE('',*,*,#122,.T.);
#161=ORIENTED_EDGE('',*,*,#123,.F.);
#162=ORIENTED_EDGE('',*,*,#124,.T.);
#163=ORIENTED_EDGE('',*,*,#125,.F.);
#164=ORIENTED_EDGE('',*,*,#126,.T.);
#165=ORIENTED_EDGE('',*,*,#127,.F.);
#166=ORIENTED_EDGE('',*,*,#128,.T.);
#167=ORIENTED_EDGE('',*,*,#129,.F.);
#168=ORIENTED_EDGE('',*,*,#127,.T.);
#169=ORIENTED_EDGE('',*,*,#117,.T.);
#170=ORIENTED_EDGE('',*,*,#119,.T.);
#171=ORIENTED_EDGE('',*,*,#121,.T.);
#172=ORIENTED_EDGE('',*,*,#123,.T.);
#173=ORIENTED_EDGE('',*,*,#125,.T.);
#174=ORIENTED_EDGE('',*,*,#130,.T.);
#175=ORIENTED_EDGE('',*,*,#129,.T.);
#176=ORIENTED_EDGE('',*,*,#130,.F.);
#177=ORIENTED_EDGE('',*,*,#131,.F.);
#178=ORIENTED_EDGE('',*,*,#132,.T.);
#179=ORIENTED_EDGE('',*,*,#131,.T.);
#180=ORIENTED_EDGE('',*,*,#132,.F.);
#181=ORIENTED_EDGE('',*,*,#133,.F.);
#182=ORIENTED_EDGE('',*,*,#134,.F.);
#183=ORIENTED_EDGE('',*,*,#135,.T.);
#184=ORIENTED_EDGE('',*,*,#136,.F.);
#185=ORIENTED_EDGE('',*,*,#137,.F.);
#186=ORIENTED_EDGE('',*,*,#138,.F.);
#187=ORIENTED_EDGE('',*,*,#135,.F.);
#188=ORIENTED_EDGE('',*,*,#133,.T.);
#189=ORIENTED_EDGE('',*,*,#134,.T.);
#190=ORIENTED_EDGE('',*,*,#139,.F.);
#191=ORIENTED_EDGE('',*,*,#137,.T.);
#192=ORIENTED_EDGE('',*,*,#136,.T.);
#193=ORIENTED_EDGE('',*,*,#138,.T.);
#194=ORIENTED_EDGE('',*,*,#139,.T.);
#195=ORIENTED_EDGE('',*,*,#140,.F.);
#196=ORIENTED_EDGE('',*,*,#141,.T.);
#197=ORIENTED_EDGE('',*,*,#142,.T.);
#198=ORIENTED_EDGE('',*,*,#118,.F.);
#199=ORIENTED_EDGE('',*,*,#142,.F.);
#200=ORIENTED_EDGE('',*,*,#143,.T.);
#201=ORIENTED_EDGE('',*,*,#144,.T.);
#202=ORIENTED_EDGE('',*,*,#120,.F.);
#203=ORIENTED_EDGE('',*,*,#144,.F.);
#204=ORIENTED_EDGE('',*,*,#145,.T.);
#205=ORIENTED_EDGE('',*,*,#146,.T.);
#206=ORIENTED_EDGE('',*,*,#122,.F.);
#207=ORIENTED_EDGE('',*,*,#146,.F.);
#208=ORIENTED_EDGE('',*,*,#147,.T.);
#209=ORIENTED_EDGE('',*,*,#148,.T.);
#210=ORIENTED_EDGE('',*,*,#124,.F.);
#211=ORIENTED_EDGE('',*,*,#148,.F.);
#212=ORIENTED_EDGE('',*,*,#149,.T.);
#213=ORIENTED_EDGE('',*,*,#150,.T.);
#214=ORIENTED_EDGE('',*,*,#126,.F.);
#215=ORIENTED_EDGE('',*,*,#150,.F.);
#216=ORIENTED_EDGE('',*,*,#151,.T.);
#217=ORIENTED_EDGE('',*,*,#140,.T.);
#218=ORIENTED_EDGE('',*,*,#128,.F.);
#219=ORIENTED_EDGE('',*,*,#152,.T.);
#220=ORIENTED_EDGE('',*,*,#153,.T.);
#221=ORIENTED_EDGE('',*,*,#141,.F.);
#222=ORIENTED_EDGE('',*,*,#151,.F.);
#223=ORIENTED_EDGE('',*,*,#149,.F.);
#224=ORIENTED_EDGE('',*,*,#147,.F.);
#225=ORIENTED_EDGE('',*,*,#145,.F.);
#226=ORIENTED_EDGE('',*,*,#143,.F.);
#227=ORIENTED_EDGE('',*,*,#154,.F.);
#228=ORIENTED_EDGE('',*,*,#152,.F.);
#229=ORIENTED_EDGE('',*,*,#153,.F.);
#230=ORIENTED_EDGE('',*,*,#154,.T.);
#231=EDGE_LOOP('',(#155,#156));
#232=EDGE_LOOP('',(#157,#158));
#233=EDGE_LOOP('',(#159,#160));
#234=EDGE_LOOP('',(#161,#162));
#235=EDGE_LOOP('',(#163,#164));
#236=EDGE_LOOP('',(#165,#166));
#237=EDGE_LOOP('',(#167));
#238=EDGE_LOOP('',(#168,#169,#170,#171,#172,#173));
#239=EDGE_LOOP('',(#174,#175,#176,#177));
#240=EDGE_LOOP('',(#178,#179,#180,#181,#182));
#241=EDGE_LOOP('',(#183,#184,#185,#186,#187,#188,#189));
#242=EDGE_LOOP('',(#190,#191,#192,#193,#194));
#243=EDGE_LOOP('',(#195,#196,#197,#198));
#244=EDGE_LOOP('',(#199,#200,#201,#202));
#245=EDGE_LOOP('',(#203,#204,#205,#206));
#246=EDGE_LOOP('',(#207,#208,#209,#210));
#247=EDGE_LOOP('',(#211,#212,#213,#214));
#248=EDGE_LOOP('',(#215,#216,#217,#218));
#249=EDGE_LOOP('',(#219,#220));
#250=EDGE_LOOP('',(#221,#222,#223,#224,#225,#226));
#251=EDGE_LOOP('',(#227,#228,#229,#230));
#252=FACE_BOUND('',#231,.T.);
#253=FACE_BOUND('',#232,.T.);
#254=FACE_BOUND('',#233,.T.);
#255=FACE_BOUND('',#234,.T.);
#256=FACE_BOUND('',#235,.T.);
#257=FACE_BOUND('',#236,.T.);
#258=FACE_BOUND('',#237,.T.);
#259=FACE_BOUND('',#238,.T.);
#260=FACE_BOUND('',#239,.T.);
#261=FACE_BOUND('',#240,.T.);
#262=FACE_BOUND('',#241,.T.);
#263=FACE_BOUND('',#242,.T.);
#264=FACE_BOUND('',#243,.T.);
#265=FACE_BOUND('',#244,.T.);
#266=FACE_BOUND('',#245,.T.);
#267=FACE_BOUND('',#246,.T.);
#268=FACE_BOUND('',#247,.T.);
#269=FACE_BOUND('',#248,.T.);
#270=FACE_BOUND('',#249,.T.);
#271=FACE_BOUND('',#250,.T.);
#272=FACE_BOUND('',#251,.T.);
#273=ADVANCED_FACE('',(#252),#485,.F.);
#274=ADVANCED_FACE('',(#253),#486,.F.);
#275=ADVANCED_FACE('',(#254),#487,.F.);
#276=ADVANCED_FACE('',(#255),#488,.F.);
#277=ADVANCED_FACE('',(#256),#489,.F.);
#278=ADVANCED_FACE('',(#257),#490,.F.);
#279=ADVANCED_FACE('',(#258,#259),#69,.F.);
#280=ADVANCED_FACE('',(#260),#491,.T.);
#281=ADVANCED_FACE('',(#261),#34,.T.);
#282=ADVANCED_FACE('',(#262),#492,.T.);
#283=ADVANCED_FACE('',(#263),#493,.F.);
#284=ADVANCED_FACE('',(#264),#70,.T.);
#285=ADVANCED_FACE('',(#265),#71,.T.);
#286=ADVANCED_FACE('',(#266),#72,.T.);
#287=ADVANCED_FACE('',(#267),#73,.T.);
#288=ADVANCED_FACE('',(#268),#74,.T.);
#289=ADVANCED_FACE('',(#269),#75,.T.);
#290=ADVANCED_FACE('',(#270,#271),#76,.T.);
#291=ADVANCED_FACE('',(#272),#494,.F.);
#292=AXIS2_PLACEMENT_3D('',#322,#416,#417);
#293=AXIS2_PLACEMENT_3D('',#323,#418,#419);
#294=AXIS2_PLACEMENT_3D('',#330,#420,#421);
#295=AXIS2_PLACEMENT_3D('',#331,#422,#423);
#296=AXIS2_PLACEMENT_3D('',#337,#424,#425);
#297=AXIS2_PLACEMENT_3D('',#338,#426,#427);
#298=AXIS2_PLACEMENT_3D('',#344,#428,#429);
#299=AXIS2_PLACEMENT_3D('',#345,#430,#431);
#300=AXIS2_PLACEMENT_3D('',#351,#432,#433);
#301=AXIS2_PLACEMENT_3D('',#352,#434,#435);
#302=AXIS2_PLACEMENT_3D('',#358,#436,#437);
#303=AXIS2_PLACEMENT_3D('',#359,#438,#439);
#304=AXIS2_PLACEMENT_3D('',#364,#440,$);
#305=AXIS2_PLACEMENT_3D('',#365,#441,#442);
#306=AXIS2_PLACEMENT_3D('',#367,#443,#444);
#307=AXIS2_PLACEMENT_3D('',#370,#446,#447);
#308=AXIS2_PLACEMENT_3D('',#371,#448,#449);
#309=AXIS2_PLACEMENT_3D('',#374,#451,#452);
#310=AXIS2_PLACEMENT_3D('',#376,#453,#454);
#311=AXIS2_PLACEMENT_3D('',#379,#456,#457);
#312=AXIS2_PLACEMENT_3D('',#382,#458,#459);
#313=AXIS2_PLACEMENT_3D('',#385,#461,$);
#314=AXIS2_PLACEMENT_3D('',#391,#465,$);
#315=AXIS2_PLACEMENT_3D('',#395,#468,$);
#316=AXIS2_PLACEMENT_3D('',#399,#471,$);
#317=AXIS2_PLACEMENT_3D('',#403,#474,$);
#318=AXIS2_PLACEMENT_3D('',#407,#477,$);
#319=AXIS2_PLACEMENT_3D('',#409,#479,$);
#320=AXIS2_PLACEMENT_3D('',#410,#480,#481);
#321=AXIS2_PLACEMENT_3D('',#413,#482,#483);
#322=CARTESIAN_POINT('',(0.,0.,0.));
#323=CARTESIAN_POINT('',(0.,0.,0.));
#324=CARTESIAN_POINT('',(2.4130676172518E-12,0.74999999999998,0.433012701891875));
#325=CARTESIAN_POINT('',(2.41306974402278E-12,1.19038376189098E-13,0.866025403784166));
#326=CARTESIAN_POINT('',(4.63385577064253E-12,0.750000000000577,0.433012701891886));
#327=CARTESIAN_POINT('',(0.0816398401134298,0.505080479674472,0.574417052881957));
#328=CARTESIAN_POINT('',(0.0817413635631056,0.245224090681718,0.724445209017568));
#329=CARTESIAN_POINT('',(2.36453754657273E-12,-3.39002048223804E-13,0.866025403784634));
#330=CARTESIAN_POINT('',(0.,0.,0.));
#331=CARTESIAN_POINT('',(0.,0.,0.));
#332=CARTESIAN_POINT('',(1.23889787317921E-12,-0.750000000000023,0.433012701892047));
#333=CARTESIAN_POINT('',(4.63385192053037E-12,5.77078800602E-13,0.866025403784772));
#334=CARTESIAN_POINT('',(0.0816398401134298,-0.244919520325528,0.724621052794701));
#335=CARTESIAN_POINT('',(0.0817413635631056,-0.504775909318283,0.57459289665909));
#336=CARTESIAN_POINT('',(2.3644574255484E-12,-0.75000000000034,0.433012701892024));
#337=CARTESIAN_POINT('',(0.,0.,0.));
#338=CARTESIAN_POINT('',(0.,0.,0.));
#339=CARTESIAN_POINT('',(2.41306974402278E-12,-0.74999999999998,-0.433012701891875));
#340=CARTESIAN_POINT('',(9.96561348473843E-14,-0.75,0.433012701892241));
#341=CARTESIAN_POINT('',(0.0813129711011008,-0.75,0.151336307369624));
#342=CARTESIAN_POINT('',(0.0814445663492954,-0.75,-0.150880448057447));
#343=CARTESIAN_POINT('',(4.25387990442567E-15,-0.75,-0.43301270189222));
#344=CARTESIAN_POINT('',(0.,0.,0.));
#345=CARTESIAN_POINT('',(0.,0.,0.));
#346=CARTESIAN_POINT('',(2.41306974402278E-12,-1.1905038271569E-13,-0.866025403784166));
#347=CARTESIAN_POINT('',(4.63385577395125E-12,-0.750000000000577,-0.433012701891886));
#348=CARTESIAN_POINT('',(0.0816398401134298,-0.505080479674472,-0.574417052881957));
#349=CARTESIAN_POINT('',(0.0817413635631056,-0.245224090681718,-0.724445209017568));
#350=CARTESIAN_POINT('',(2.36453754657273E-12,3.39002048223804E-13,-0.866025403784634));
#351=CARTESIAN_POINT('',(0.,0.,0.));
#352=CARTESIAN_POINT('',(0.,0.,0.));
#353=CARTESIAN_POINT('',(1.23889574640823E-12,0.750000000000023,-0.433012701892047));
#354=CARTESIAN_POINT('',(4.63384391652397E-12,-5.77102813655183E-13,-0.866025403784772));
#355=CARTESIAN_POINT('',(0.0816398401134297,0.244919520325528,-0.724621052794701));
#356=CARTESIAN_POINT('',(0.0817413635631056,0.504775909318283,-0.57459289665909));
#357=CARTESIAN_POINT('',(2.3644574255484E-12,0.75000000000034,-0.433012701892024));
#358=CARTESIAN_POINT('',(0.,0.,0.));
#359=CARTESIAN_POINT('',(0.,0.,0.));
#360=CARTESIAN_POINT('',(9.96587979553664E-14,0.75,-0.433012701892241));
#361=CARTESIAN_POINT('',(0.0813129711011008,0.75,-0.151336307369624));
#362=CARTESIAN_POINT('',(0.0814445663492954,0.75,0.150880448057447));
#363=CARTESIAN_POINT('',(4.24182519456378E-15,0.75,0.43301270189222));
#364=CARTESIAN_POINT('',(1.65631397486266E-17,4.59719477725233E-34,0.));
#365=CARTESIAN_POINT('',(0.,0.,0.));
#366=CARTESIAN_POINT('',(-5.95391791424759E-17,1.1935,-6.76182067434286E-16));
#367=CARTESIAN_POINT('',(0.,0.,0.));
#368=CARTESIAN_POINT('',(0.159262071755958,1.46935,0.));
#369=CARTESIAN_POINT('',(0.17695785750662,1.5,-8.49830834647197E-16));
#370=CARTESIAN_POINT('',(0.17695785750662,4.91156719480468E-18,0.));
#371=CARTESIAN_POINT('',(4.,1.11022302462516E-16,0.));
#372=CARTESIAN_POINT('',(-0.62304214249338,1.5,0.));
#373=CARTESIAN_POINT('',(3.2,1.5,-9.18485099360515E-17));
#374=CARTESIAN_POINT('',(3.2,8.88178419700125E-17,0.));
#375=CARTESIAN_POINT('',(3.2,-1.5,9.18485099360515E-17));
#376=CARTESIAN_POINT('',(3.2,8.88178419700125E-17,0.));
#377=CARTESIAN_POINT('',(4.08,-0.620000000000001,0.));
#378=CARTESIAN_POINT('',(4.,-0.700000000000001,1.61860619143046E-15));
#379=CARTESIAN_POINT('',(4.,1.11022302462516E-16,0.));
#380=CARTESIAN_POINT('',(4.,0.700000000000001,-6.43156212775168E-16));
#381=CARTESIAN_POINT('',(4.,-5.8764506154391E-16,-0.700000000000003));
#382=CARTESIAN_POINT('',(4.,0.,0.));
#383=CARTESIAN_POINT('',(3.59585481156726,0.,0.));
#384=CARTESIAN_POINT('',(3.59585481156726,0.,0.));
#385=CARTESIAN_POINT('',(1.2,0.75,0.433012701892219));
#386=CARTESIAN_POINT('',(1.2,0.75,0.433012701892219));
#387=CARTESIAN_POINT('',(1.2,0.75,0.433012701892219));
#388=CARTESIAN_POINT('',(1.2,0.75,0.433012701892219));
#389=CARTESIAN_POINT('',(1.2,-1.66533453693773E-16,0.866025403784439));
#390=CARTESIAN_POINT('',(1.2,1.11022302462516E-16,0.866025403784439));
#391=CARTESIAN_POINT('',(1.2,1.11022302462516E-16,0.866025403784439));
#392=CARTESIAN_POINT('',(1.2,1.11022302462516E-16,0.866025403784439));
#393=CARTESIAN_POINT('',(1.2,-0.75,0.433012701892219));
#394=CARTESIAN_POINT('',(1.2,-0.75,0.433012701892219));
#395=CARTESIAN_POINT('',(1.2,-0.75,0.433012701892219));
#396=CARTESIAN_POINT('',(1.2,-0.75,0.433012701892219));
#397=CARTESIAN_POINT('',(1.2,-0.75,-0.433012701892219));
#398=CARTESIAN_POINT('',(1.2,-0.75,-0.433012701892219));
#399=CARTESIAN_POINT('',(1.2,-0.75,-0.433012701892219));
#400=CARTESIAN_POINT('',(1.2,-0.75,-0.433012701892219));
#401=CARTESIAN_POINT('',(1.2,1.66533453693773E-16,-0.866025403784439));
#402=CARTESIAN_POINT('',(1.2,-1.08420485034588E-16,-0.866025403784439));
#403=CARTESIAN_POINT('',(1.2,-1.11022302462516E-16,-0.866025403784439));
#404=CARTESIAN_POINT('',(1.2,-1.08420485034588E-16,-0.866025403784439));
#405=CARTESIAN_POINT('',(1.2,0.75,-0.433012701892219));
#406=CARTESIAN_POINT('',(1.2,0.75,-0.433012701892219));
#407=CARTESIAN_POINT('',(1.2,0.75,-0.433012701892219));
#408=CARTESIAN_POINT('',(1.2,0.75,-0.433012701892219));
#409=CARTESIAN_POINT('',(1.2,0.,0.));
#410=CARTESIAN_POINT('',(1.2,0.,0.));
#411=CARTESIAN_POINT('',(1.2,-5.51091059616309E-17,-0.9));
#412=CARTESIAN_POINT('',(1.2,1.58334100221583E-9,0.9));
#413=CARTESIAN_POINT('',(1.2,0.,0.));
#414=CARTESIAN_POINT('',(1.71961524227066,0.,-1.11022302462516E-16));
#415=CARTESIAN_POINT('',(1.71961524227066,0.,-1.11022302462516E-16));
#416=DIRECTION('',(-1.,0.,0.));
#417=DIRECTION('',(0.,0.,0.866025403784439));
#418=DIRECTION('',(1.,0.,0.));
#419=DIRECTION('',(0.,0.,-0.866025403784439));
#420=DIRECTION('',(-1.,0.,0.));
#421=DIRECTION('',(0.,0.,0.866025403784439));
#422=DIRECTION('',(1.,0.,0.));
#423=DIRECTION('',(0.,0.,-0.866025403784439));
#424=DIRECTION('',(-1.,0.,0.));
#425=DIRECTION('',(0.,0.,0.866025403784439));
#426=DIRECTION('',(1.,0.,0.));
#427=DIRECTION('',(0.,0.,-0.866025403784439));
#428=DIRECTION('',(-1.,0.,0.));
#429=DIRECTION('',(0.,0.,0.866025403784439));
#430=DIRECTION('',(1.,0.,0.));
#431=DIRECTION('',(0.,0.,-0.866025403784439));
#432=DIRECTION('',(-1.,0.,0.));
#433=DIRECTION('',(0.,0.,0.866025403784439));
#434=DIRECTION('',(1.,0.,0.));
#435=DIRECTION('',(0.,0.,-0.866025403784439));
#436=DIRECTION('',(-1.,0.,0.));
#437=DIRECTION('',(0.,0.,0.866025403784439));
#438=DIRECTION('',(1.,0.,0.));
#439=DIRECTION('',(0.,0.,-0.866025403784439));
#440=DIRECTION('',(1.,2.77555756156289E-17,0.));
#441=DIRECTION('',(1.,2.77555756156289E-17,0.));
#442=DIRECTION('',(-3.31262794972531E-17,1.1935,0.));
#443=DIRECTION('',(1.,2.77555756156289E-17,0.));
#444=DIRECTION('',(-3.31262794972531E-17,1.1935,0.));
#445=DIRECTION('',(-0.499999999999998,-0.86602540378444,0.));
#446=DIRECTION('',(1.,2.77555756156289E-17,0.));
#447=DIRECTION('',(-4.16333634234434E-17,1.5,0.));
#448=DIRECTION('',(1.,2.77555756156289E-17,0.));
#449=DIRECTION('',(-4.16333634234434E-17,1.5,0.));
#450=DIRECTION('',(-1.,-2.77555756156289E-17,0.));
#451=DIRECTION('',(1.,2.77555756156289E-17,0.));
#452=DIRECTION('',(-4.16333634234434E-17,1.5,0.));
#453=DIRECTION('',(-1.,-2.77555756156289E-17,0.));
#454=DIRECTION('',(4.16333634234434E-17,-1.5,0.));
#455=DIRECTION('',(0.707106781186548,0.707106781186547,0.));
#456=DIRECTION('',(1.,2.77555756156289E-17,0.));
#457=DIRECTION('',(-1.94289029309402E-17,0.7,0.));
#458=DIRECTION('',(1.,0.,0.));
#459=DIRECTION('',(0.,0.,-0.700000000000007));
#460=DIRECTION('',(-0.499999999999998,0.,0.86602540378444));
#461=DIRECTION('',(0.,-0.5,-0.866025403784439));
#462=DIRECTION('',(-1.,0.,0.));
#463=DIRECTION('',(0.,-0.866025403784438,0.500000000000001));
#464=DIRECTION('',(-1.,0.,0.));
#465=DIRECTION('',(0.,0.5,-0.866025403784439));
#466=DIRECTION('',(0.,-0.866025403784438,-0.500000000000001));
#467=DIRECTION('',(-1.,0.,0.));
#468=DIRECTION('',(0.,1.,0.));
#469=DIRECTION('',(0.,0.,-1.));
#470=DIRECTION('',(-1.,0.,0.));
#471=DIRECTION('',(0.,0.5,0.866025403784439));
#472=DIRECTION('',(0.,0.866025403784438,-0.500000000000001));
#473=DIRECTION('',(-1.,2.23155031662351E-22,0.));
#474=DIRECTION('',(0.,-0.5,0.866025403784439));
#475=DIRECTION('',(0.,0.866025403784438,0.500000000000001));
#476=DIRECTION('',(-1.,0.,0.));
#477=DIRECTION('',(0.,-1.,0.));
#478=DIRECTION('',(0.,0.,1.));
#479=DIRECTION('',(1.,0.,0.));
#480=DIRECTION('',(1.,0.,0.));
#481=DIRECTION('',(0.,0.,-0.9));
#482=DIRECTION('',(-1.,0.,0.));
#483=DIRECTION('',(0.,0.,0.9));
#484=DIRECTION('',(0.499999999999998,0.,-0.86602540378444));
#485=CONICAL_SURFACE('',#292,0.866025403784439,1.0471975511966);
#486=CONICAL_SURFACE('',#294,0.866025403784439,1.0471975511966);
#487=CONICAL_SURFACE('',#296,0.866025403784439,1.0471975511966);
#488=CONICAL_SURFACE('',#298,0.866025403784439,1.0471975511966);
#489=CONICAL_SURFACE('',#300,0.866025403784439,1.0471975511966);
#490=CONICAL_SURFACE('',#302,0.866025403784439,1.0471975511966);
#491=CONICAL_SURFACE('',#306,1.1935,1.0471975511966);
#492=CONICAL_SURFACE('',#310,1.5,0.785398163397448);
#493=CONICAL_SURFACE('',#312,0.700000000000007,1.0471975511966);
#494=CONICAL_SURFACE('',#321,0.9,1.0471975511966);
#495=CLOSED_SHELL('',(#273,#274,#275,#276,#277,#278,#279,#280,#281,#282,
#283,#284,#285,#286,#287,#288,#289,#290,#291));
#496=MANIFOLD_SOLID_BREP('',#495);
#497=ADVANCED_BREP_SHAPE_REPRESENTATION('',(#496),#33);
ENDSEC;
END-ISO-10303-21;
