ISO-10303-21;
HEADER;
/* Generated by software containing ST-Developer
 * from STEP Tools, Inc. (www.steptools.com) 
 */

FILE_DESCRIPTION(
/* description */ ('Alibre Inc.'),
/* implementation_level */ '2;1');

FILE_NAME(
/* name */ 'export-4F7F4B37-35C2-44A5-942B-FCF1D82831E1',
/* time_stamp */ '2024-09-11T19:43:02+02:00',
/* author */ (''),
/* organization */ (''),
/* preprocessor_version */ 'ST-DEVELOPER v17',
/* originating_system */ 'Alibre',
/* authorisation */ '');

FILE_SCHEMA (('AUTOMOTIVE_DESIGN'));
ENDSEC;

DATA;
#10=STYLED_ITEM('NAME_0',(#18),#690);
#11=MECHANICAL_DESIGN_GEOMETRIC_PRESENTATION_REPRESENTATION('NAME_0',(#10),
#33);
#12=COLOUR_RGB('',0.686274509803922,0.686274509803922,0.686274509803922);
#13=FILL_AREA_STYLE_COLOUR('NAME_0',#12);
#14=FILL_AREA_STYLE('NAME_0',(#13));
#15=SURFACE_STYLE_FILL_AREA(#14);
#16=SURFACE_SIDE_STYLE('NAME_0',(#15));
#17=SURFACE_STYLE_USAGE(.POSITIVE.,#16);
#18=PRESENTATION_STYLE_ASSIGNMENT((#17));
#19=PRODUCT_DEFINITION_CONTEXT('part definition',#26,'design');
#20=SHAPE_DEFINITION_REPRESENTATION(#21,#691);
#21=PRODUCT_DEFINITION_SHAPE('PRODUCT_VERSION_ID',
'PRODUCT_VERSION_DESCR',#22);
#22=PRODUCT_DEFINITION('PRODUCT_VERSION_ID','PRODUCT_VERSION_DESCR',#23,
#19);
#23=PRODUCT_DEFINITION_FORMATION_WITH_SPECIFIED_SOURCE(
'PRODUCT_VERSION_ID','PRODUCT_VERSION_DESCR',#28,.MADE.);
#24=PRODUCT_RELATED_PRODUCT_CATEGORY('part','part',(#28));
#25=APPLICATION_PROTOCOL_DEFINITION('Draft International Standard',
'automotive_design',1994,#26);
#26=APPLICATION_CONTEXT('automotive_Design');
#27=PRODUCT_CONTEXT('3D Mechanical Parts',#26,'mechanical');
#28=PRODUCT('Cylinder head screw DIN 912 M5x10 07160.050.010(High)',
'514 M5x10 DIN 912 metric bolt','',(#27));
#29=(
LENGTH_UNIT()
NAMED_UNIT(*)
SI_UNIT(.MILLI.,.METRE.)
);
#30=(
NAMED_UNIT(*)
PLANE_ANGLE_UNIT()
SI_UNIT($,.RADIAN.)
);
#31=(
NAMED_UNIT(*)
SI_UNIT($,.STERADIAN.)
SOLID_ANGLE_UNIT()
);
#32=UNCERTAINTY_MEASURE_WITH_UNIT(LENGTH_MEASURE(1.E-6),#29,
'DISTANCE_ACCURACY_VALUE',
'Maximum model space distance between geometric entities at asserted c
onnectivities');
#33=(
GEOMETRIC_REPRESENTATION_CONTEXT(3)
GLOBAL_UNCERTAINTY_ASSIGNED_CONTEXT((#32))
GLOBAL_UNIT_ASSIGNED_CONTEXT((#31,#30,#29))
REPRESENTATION_CONTEXT('ID1','3D')
);
#34=CYLINDRICAL_SURFACE('',#420,2.5);
#35=CYLINDRICAL_SURFACE('',#424,4.25);
#36=TOROIDAL_SURFACE('',#413,2.7,0.199999999999996);
#37=TOROIDAL_SURFACE('',#421,2.85,0.199999999999999);
#38=TOROIDAL_SURFACE('',#428,3.75,0.5);
#39=B_SPLINE_CURVE_WITH_KNOTS('',3,(#577,#578,#579,#580,#581),
 .UNSPECIFIED.,.F.,.U.,(4,1,4),(0.00251597287192115,0.00369040333954982,
0.00486483380717848),.UNSPECIFIED.);
#40=B_SPLINE_CURVE_WITH_KNOTS('',3,(#583,#584,#585,#586,#587),
 .UNSPECIFIED.,.F.,.U.,(4,1,4),(2.38074948507174E-7,0.00116642510612875,
0.00233261213730899),.UNSPECIFIED.);
#41=B_SPLINE_CURVE_WITH_KNOTS('',3,(#589,#590,#591,#592,#593),
 .UNSPECIFIED.,.F.,.U.,(4,1,4),(2.38074948506978E-7,0.00116642510612875,
0.00233261213730899),.UNSPECIFIED.);
#42=B_SPLINE_CURVE_WITH_KNOTS('',3,(#595,#596,#597,#598,#599),
 .UNSPECIFIED.,.F.,.U.,(4,1,4),(0.00251597287192115,0.00369040333954982,
0.00486483380717848),.UNSPECIFIED.);
#43=B_SPLINE_CURVE_WITH_KNOTS('',3,(#601,#602,#603,#604,#605),
 .UNSPECIFIED.,.F.,.U.,(4,1,4),(2.38074948507174E-7,0.00116642510612875,
0.00233261213730899),.UNSPECIFIED.);
#44=B_SPLINE_CURVE_WITH_KNOTS('',3,(#607,#608,#609,#610,#611),
 .UNSPECIFIED.,.F.,.U.,(4,1,4),(2.38074948506978E-7,0.00116642510612875,
0.00233261213730899),.UNSPECIFIED.);
#45=CONICAL_SURFACE('',#405,2.31,1.0471975511966);
#46=CONICAL_SURFACE('',#408,2.51273416448619,0.358770670270571);
#47=CONICAL_SURFACE('',#418,2.5,0.785398163397447);
#48=CONICAL_SURFACE('',#440,2.,1.0471975511966);
#49=CIRCLE('',#396,2.);
#50=CIRCLE('',#398,2.);
#51=CIRCLE('',#400,2.);
#52=CIRCLE('',#402,2.);
#53=CIRCLE('',#404,2.);
#54=CIRCLE('',#406,2.31);
#55=CIRCLE('',#407,2.31);
#56=CIRCLE('',#409,2.51273416448619);
#57=CIRCLE('',#410,2.51273416448619);
#58=CIRCLE('',#411,2.66273416448619);
#59=CIRCLE('',#412,2.66273416448619);
#60=CIRCLE('',#414,0.199999999999996);
#61=CIRCLE('',#415,2.5);
#62=CIRCLE('',#417,2.0095);
#63=CIRCLE('',#419,2.5);
#64=CIRCLE('',#422,0.199999999999999);
#65=CIRCLE('',#423,2.85);
#66=CIRCLE('',#425,4.25);
#67=CIRCLE('',#426,4.25);
#68=CIRCLE('',#429,0.5);
#69=CIRCLE('',#430,3.75);
#70=CIRCLE('',#439,2.);
#71=VERTEX_POINT('',#541);
#72=VERTEX_POINT('',#542);
#73=VERTEX_POINT('',#544);
#74=VERTEX_POINT('',#548);
#75=VERTEX_POINT('',#550);
#76=VERTEX_POINT('',#554);
#77=VERTEX_POINT('',#556);
#78=VERTEX_POINT('',#560);
#79=VERTEX_POINT('',#562);
#80=VERTEX_POINT('',#566);
#81=VERTEX_POINT('',#568);
#82=VERTEX_POINT('',#572);
#83=VERTEX_POINT('',#573);
#84=VERTEX_POINT('',#575);
#85=VERTEX_POINT('',#582);
#86=VERTEX_POINT('',#588);
#87=VERTEX_POINT('',#594);
#88=VERTEX_POINT('',#600);
#89=VERTEX_POINT('',#606);
#90=VERTEX_POINT('',#612);
#91=VERTEX_POINT('',#615);
#92=VERTEX_POINT('',#616);
#93=VERTEX_POINT('',#618);
#94=VERTEX_POINT('',#621);
#95=VERTEX_POINT('',#625);
#96=VERTEX_POINT('',#629);
#97=VERTEX_POINT('',#630);
#98=VERTEX_POINT('',#633);
#99=VERTEX_POINT('',#635);
#100=VERTEX_POINT('',#640);
#101=VERTEX_POINT('',#644);
#102=VERTEX_POINT('',#645);
#103=VERTEX_POINT('',#651);
#104=VERTEX_POINT('',#656);
#105=VERTEX_POINT('',#673);
#106=VECTOR('',#442,1.);
#107=VECTOR('',#445,1.);
#108=VECTOR('',#447,1.);
#109=VECTOR('',#450,1.);
#110=VECTOR('',#452,1.);
#111=VECTOR('',#455,1.);
#112=VECTOR('',#457,1.);
#113=VECTOR('',#460,1.);
#114=VECTOR('',#462,1.);
#115=VECTOR('',#465,1.);
#116=VECTOR('',#468,1.);
#117=VECTOR('',#475,1.);
#118=VECTOR('',#494,1.);
#119=VECTOR('',#499,1.);
#120=VECTOR('',#507,1.);
#121=VECTOR('',#520,1.);
#122=VECTOR('',#521,1.);
#123=VECTOR('',#522,1.);
#124=VECTOR('',#524,1.);
#125=VECTOR('',#526,1.);
#126=VECTOR('',#528,1.);
#127=VECTOR('',#530,1.);
#128=VECTOR('',#532,1.);
#129=VECTOR('',#538,1.);
#130=LINE('',#540,#106);
#131=LINE('',#545,#107);
#132=LINE('',#547,#108);
#133=LINE('',#551,#109);
#134=LINE('',#553,#110);
#135=LINE('',#557,#111);
#136=LINE('',#559,#112);
#137=LINE('',#563,#113);
#138=LINE('',#565,#114);
#139=LINE('',#569,#115);
#140=LINE('',#571,#116);
#141=LINE('',#614,#117);
#142=LINE('',#632,#118);
#143=LINE('',#637,#119);
#144=LINE('',#643,#120);
#145=LINE('',#655,#121);
#146=LINE('',#657,#122);
#147=LINE('',#658,#123);
#148=LINE('',#660,#124);
#149=LINE('',#662,#125);
#150=LINE('',#664,#126);
#151=LINE('',#666,#127);
#152=LINE('',#668,#128);
#153=LINE('',#672,#129);
#154=EDGE_CURVE('',#71,#72,#130,.T.);
#155=EDGE_CURVE('',#71,#73,#49,.T.);
#156=EDGE_CURVE('',#72,#73,#131,.T.);
#157=EDGE_CURVE('',#73,#74,#132,.T.);
#158=EDGE_CURVE('',#73,#75,#50,.T.);
#159=EDGE_CURVE('',#74,#75,#133,.T.);
#160=EDGE_CURVE('',#75,#76,#134,.T.);
#161=EDGE_CURVE('',#75,#77,#51,.T.);
#162=EDGE_CURVE('',#76,#77,#135,.T.);
#163=EDGE_CURVE('',#77,#78,#136,.T.);
#164=EDGE_CURVE('',#77,#79,#52,.T.);
#165=EDGE_CURVE('',#78,#79,#137,.T.);
#166=EDGE_CURVE('',#79,#80,#138,.T.);
#167=EDGE_CURVE('',#79,#81,#53,.T.);
#168=EDGE_CURVE('',#80,#81,#139,.T.);
#169=EDGE_CURVE('',#82,#83,#140,.T.);
#170=EDGE_CURVE('',#82,#84,#54,.T.);
#171=EDGE_CURVE('',#84,#82,#55,.T.);
#172=EDGE_CURVE('',#83,#85,#39,.T.);
#173=EDGE_CURVE('',#85,#86,#40,.T.);
#174=EDGE_CURVE('',#86,#87,#41,.T.);
#175=EDGE_CURVE('',#87,#88,#42,.T.);
#176=EDGE_CURVE('',#88,#89,#43,.T.);
#177=EDGE_CURVE('',#89,#90,#44,.T.);
#178=EDGE_CURVE('',#90,#83,#39,.T.);
#179=EDGE_CURVE('',#91,#92,#141,.T.);
#180=EDGE_CURVE('',#93,#92,#56,.T.);
#181=EDGE_CURVE('',#92,#93,#57,.T.);
#182=EDGE_CURVE('',#91,#94,#58,.T.);
#183=EDGE_CURVE('',#94,#91,#59,.T.);
#184=EDGE_CURVE('',#93,#95,#60,.T.);
#185=EDGE_CURVE('',#95,#95,#61,.T.);
#186=EDGE_CURVE('',#96,#97,#62,.T.);
#187=EDGE_CURVE('',#97,#96,#62,.T.);
#188=EDGE_CURVE('',#98,#97,#142,.T.);
#189=EDGE_CURVE('',#98,#99,#63,.T.);
#190=EDGE_CURVE('',#99,#98,#63,.T.);
#191=EDGE_CURVE('',#99,#95,#143,.T.);
#192=EDGE_CURVE('',#100,#94,#64,.T.);
#193=EDGE_CURVE('',#100,#100,#65,.T.);
#194=EDGE_CURVE('',#101,#102,#144,.T.);
#195=EDGE_CURVE('',#102,#102,#66,.T.);
#196=EDGE_CURVE('',#101,#101,#67,.T.);
#197=EDGE_CURVE('',#102,#103,#68,.T.);
#198=EDGE_CURVE('',#103,#103,#69,.T.);
#199=EDGE_CURVE('',#104,#90,#145,.T.);
#200=EDGE_CURVE('',#104,#71,#146,.T.);
#201=EDGE_CURVE('',#72,#85,#147,.T.);
#202=EDGE_CURVE('',#74,#86,#148,.T.);
#203=EDGE_CURVE('',#76,#87,#149,.T.);
#204=EDGE_CURVE('',#78,#88,#150,.T.);
#205=EDGE_CURVE('',#80,#89,#151,.T.);
#206=EDGE_CURVE('',#81,#104,#152,.T.);
#207=EDGE_CURVE('',#81,#71,#70,.T.);
#208=EDGE_CURVE('',#71,#105,#153,.T.);
#209=ORIENTED_EDGE('',*,*,#154,.F.);
#210=ORIENTED_EDGE('',*,*,#155,.T.);
#211=ORIENTED_EDGE('',*,*,#156,.F.);
#212=ORIENTED_EDGE('',*,*,#157,.F.);
#213=ORIENTED_EDGE('',*,*,#158,.T.);
#214=ORIENTED_EDGE('',*,*,#159,.F.);
#215=ORIENTED_EDGE('',*,*,#160,.F.);
#216=ORIENTED_EDGE('',*,*,#161,.T.);
#217=ORIENTED_EDGE('',*,*,#162,.F.);
#218=ORIENTED_EDGE('',*,*,#163,.F.);
#219=ORIENTED_EDGE('',*,*,#164,.T.);
#220=ORIENTED_EDGE('',*,*,#165,.F.);
#221=ORIENTED_EDGE('',*,*,#166,.F.);
#222=ORIENTED_EDGE('',*,*,#167,.T.);
#223=ORIENTED_EDGE('',*,*,#168,.F.);
#224=ORIENTED_EDGE('',*,*,#169,.F.);
#225=ORIENTED_EDGE('',*,*,#170,.T.);
#226=ORIENTED_EDGE('',*,*,#171,.T.);
#227=ORIENTED_EDGE('',*,*,#169,.T.);
#228=ORIENTED_EDGE('',*,*,#172,.T.);
#229=ORIENTED_EDGE('',*,*,#173,.T.);
#230=ORIENTED_EDGE('',*,*,#174,.T.);
#231=ORIENTED_EDGE('',*,*,#175,.T.);
#232=ORIENTED_EDGE('',*,*,#176,.T.);
#233=ORIENTED_EDGE('',*,*,#177,.T.);
#234=ORIENTED_EDGE('',*,*,#178,.T.);
#235=ORIENTED_EDGE('',*,*,#179,.T.);
#236=ORIENTED_EDGE('',*,*,#180,.F.);
#237=ORIENTED_EDGE('',*,*,#181,.F.);
#238=ORIENTED_EDGE('',*,*,#179,.F.);
#239=ORIENTED_EDGE('',*,*,#182,.T.);
#240=ORIENTED_EDGE('',*,*,#183,.T.);
#241=ORIENTED_EDGE('',*,*,#184,.F.);
#242=ORIENTED_EDGE('',*,*,#180,.T.);
#243=ORIENTED_EDGE('',*,*,#181,.T.);
#244=ORIENTED_EDGE('',*,*,#184,.T.);
#245=ORIENTED_EDGE('',*,*,#185,.T.);
#246=ORIENTED_EDGE('',*,*,#186,.T.);
#247=ORIENTED_EDGE('',*,*,#187,.T.);
#248=ORIENTED_EDGE('',*,*,#188,.T.);
#249=ORIENTED_EDGE('',*,*,#186,.F.);
#250=ORIENTED_EDGE('',*,*,#187,.F.);
#251=ORIENTED_EDGE('',*,*,#188,.F.);
#252=ORIENTED_EDGE('',*,*,#189,.T.);
#253=ORIENTED_EDGE('',*,*,#190,.T.);
#254=ORIENTED_EDGE('',*,*,#191,.T.);
#255=ORIENTED_EDGE('',*,*,#185,.F.);
#256=ORIENTED_EDGE('',*,*,#191,.F.);
#257=ORIENTED_EDGE('',*,*,#189,.F.);
#258=ORIENTED_EDGE('',*,*,#190,.F.);
#259=ORIENTED_EDGE('',*,*,#192,.F.);
#260=ORIENTED_EDGE('',*,*,#193,.T.);
#261=ORIENTED_EDGE('',*,*,#192,.T.);
#262=ORIENTED_EDGE('',*,*,#182,.F.);
#263=ORIENTED_EDGE('',*,*,#183,.F.);
#264=ORIENTED_EDGE('',*,*,#194,.T.);
#265=ORIENTED_EDGE('',*,*,#195,.T.);
#266=ORIENTED_EDGE('',*,*,#194,.F.);
#267=ORIENTED_EDGE('',*,*,#196,.F.);
#268=ORIENTED_EDGE('',*,*,#193,.F.);
#269=ORIENTED_EDGE('',*,*,#196,.T.);
#270=ORIENTED_EDGE('',*,*,#197,.T.);
#271=ORIENTED_EDGE('',*,*,#198,.T.);
#272=ORIENTED_EDGE('',*,*,#197,.F.);
#273=ORIENTED_EDGE('',*,*,#195,.F.);
#274=ORIENTED_EDGE('',*,*,#198,.F.);
#275=ORIENTED_EDGE('',*,*,#170,.F.);
#276=ORIENTED_EDGE('',*,*,#171,.F.);
#277=ORIENTED_EDGE('',*,*,#172,.F.);
#278=ORIENTED_EDGE('',*,*,#178,.F.);
#279=ORIENTED_EDGE('',*,*,#199,.F.);
#280=ORIENTED_EDGE('',*,*,#200,.T.);
#281=ORIENTED_EDGE('',*,*,#154,.T.);
#282=ORIENTED_EDGE('',*,*,#201,.T.);
#283=ORIENTED_EDGE('',*,*,#173,.F.);
#284=ORIENTED_EDGE('',*,*,#201,.F.);
#285=ORIENTED_EDGE('',*,*,#156,.T.);
#286=ORIENTED_EDGE('',*,*,#157,.T.);
#287=ORIENTED_EDGE('',*,*,#202,.T.);
#288=ORIENTED_EDGE('',*,*,#174,.F.);
#289=ORIENTED_EDGE('',*,*,#202,.F.);
#290=ORIENTED_EDGE('',*,*,#159,.T.);
#291=ORIENTED_EDGE('',*,*,#160,.T.);
#292=ORIENTED_EDGE('',*,*,#203,.T.);
#293=ORIENTED_EDGE('',*,*,#175,.F.);
#294=ORIENTED_EDGE('',*,*,#203,.F.);
#295=ORIENTED_EDGE('',*,*,#162,.T.);
#296=ORIENTED_EDGE('',*,*,#163,.T.);
#297=ORIENTED_EDGE('',*,*,#204,.T.);
#298=ORIENTED_EDGE('',*,*,#176,.F.);
#299=ORIENTED_EDGE('',*,*,#204,.F.);
#300=ORIENTED_EDGE('',*,*,#165,.T.);
#301=ORIENTED_EDGE('',*,*,#166,.T.);
#302=ORIENTED_EDGE('',*,*,#205,.T.);
#303=ORIENTED_EDGE('',*,*,#177,.F.);
#304=ORIENTED_EDGE('',*,*,#205,.F.);
#305=ORIENTED_EDGE('',*,*,#168,.T.);
#306=ORIENTED_EDGE('',*,*,#206,.T.);
#307=ORIENTED_EDGE('',*,*,#199,.T.);
#308=ORIENTED_EDGE('',*,*,#206,.F.);
#309=ORIENTED_EDGE('',*,*,#207,.T.);
#310=ORIENTED_EDGE('',*,*,#200,.F.);
#311=ORIENTED_EDGE('',*,*,#208,.F.);
#312=ORIENTED_EDGE('',*,*,#207,.F.);
#313=ORIENTED_EDGE('',*,*,#167,.F.);
#314=ORIENTED_EDGE('',*,*,#164,.F.);
#315=ORIENTED_EDGE('',*,*,#161,.F.);
#316=ORIENTED_EDGE('',*,*,#158,.F.);
#317=ORIENTED_EDGE('',*,*,#155,.F.);
#318=ORIENTED_EDGE('',*,*,#208,.T.);
#319=EDGE_LOOP('',(#209,#210,#211));
#320=EDGE_LOOP('',(#212,#213,#214));
#321=EDGE_LOOP('',(#215,#216,#217));
#322=EDGE_LOOP('',(#218,#219,#220));
#323=EDGE_LOOP('',(#221,#222,#223));
#324=EDGE_LOOP('',(#224,#225,#226,#227,#228,#229,#230,#231,#232,#233,#234));
#325=EDGE_LOOP('',(#235,#236,#237,#238,#239,#240));
#326=EDGE_LOOP('',(#241,#242,#243,#244,#245));
#327=EDGE_LOOP('',(#246,#247));
#328=EDGE_LOOP('',(#248,#249,#250,#251,#252,#253));
#329=EDGE_LOOP('',(#254,#255,#256,#257,#258));
#330=EDGE_LOOP('',(#259,#260,#261,#262,#263));
#331=EDGE_LOOP('',(#264,#265,#266,#267));
#332=EDGE_LOOP('',(#268));
#333=EDGE_LOOP('',(#269));
#334=EDGE_LOOP('',(#270,#271,#272,#273));
#335=EDGE_LOOP('',(#274));
#336=EDGE_LOOP('',(#275,#276));
#337=EDGE_LOOP('',(#277,#278,#279,#280,#281,#282));
#338=EDGE_LOOP('',(#283,#284,#285,#286,#287));
#339=EDGE_LOOP('',(#288,#289,#290,#291,#292));
#340=EDGE_LOOP('',(#293,#294,#295,#296,#297));
#341=EDGE_LOOP('',(#298,#299,#300,#301,#302));
#342=EDGE_LOOP('',(#303,#304,#305,#306,#307));
#343=EDGE_LOOP('',(#308,#309,#310));
#344=EDGE_LOOP('',(#311,#312,#313,#314,#315,#316,#317,#318));
#345=FACE_BOUND('',#319,.T.);
#346=FACE_BOUND('',#320,.T.);
#347=FACE_BOUND('',#321,.T.);
#348=FACE_BOUND('',#322,.T.);
#349=FACE_BOUND('',#323,.T.);
#350=FACE_BOUND('',#324,.T.);
#351=FACE_BOUND('',#325,.T.);
#352=FACE_BOUND('',#326,.T.);
#353=FACE_BOUND('',#327,.T.);
#354=FACE_BOUND('',#328,.T.);
#355=FACE_BOUND('',#329,.T.);
#356=FACE_BOUND('',#330,.T.);
#357=FACE_BOUND('',#331,.T.);
#358=FACE_BOUND('',#332,.T.);
#359=FACE_BOUND('',#333,.T.);
#360=FACE_BOUND('',#334,.T.);
#361=FACE_BOUND('',#335,.T.);
#362=FACE_BOUND('',#336,.T.);
#363=FACE_BOUND('',#337,.T.);
#364=FACE_BOUND('',#338,.T.);
#365=FACE_BOUND('',#339,.T.);
#366=FACE_BOUND('',#340,.T.);
#367=FACE_BOUND('',#341,.T.);
#368=FACE_BOUND('',#342,.T.);
#369=FACE_BOUND('',#343,.T.);
#370=FACE_BOUND('',#344,.T.);
#371=ADVANCED_FACE('',(#345),#674,.T.);
#372=ADVANCED_FACE('',(#346),#675,.T.);
#373=ADVANCED_FACE('',(#347),#676,.T.);
#374=ADVANCED_FACE('',(#348),#677,.T.);
#375=ADVANCED_FACE('',(#349),#678,.T.);
#376=ADVANCED_FACE('',(#350),#45,.F.);
#377=ADVANCED_FACE('',(#351),#46,.T.);
#378=ADVANCED_FACE('',(#352),#36,.F.);
#379=ADVANCED_FACE('',(#353),#679,.F.);
#380=ADVANCED_FACE('',(#354),#47,.T.);
#381=ADVANCED_FACE('',(#355),#34,.T.);
#382=ADVANCED_FACE('',(#356),#37,.F.);
#383=ADVANCED_FACE('',(#357),#35,.T.);
#384=ADVANCED_FACE('',(#358,#359),#680,.F.);
#385=ADVANCED_FACE('',(#360),#38,.T.);
#386=ADVANCED_FACE('',(#361,#362),#681,.F.);
#387=ADVANCED_FACE('',(#363),#682,.T.);
#388=ADVANCED_FACE('',(#364),#683,.T.);
#389=ADVANCED_FACE('',(#365),#684,.T.);
#390=ADVANCED_FACE('',(#366),#685,.T.);
#391=ADVANCED_FACE('',(#367),#686,.T.);
#392=ADVANCED_FACE('',(#368),#687,.T.);
#393=ADVANCED_FACE('',(#369),#688,.T.);
#394=ADVANCED_FACE('',(#370),#48,.F.);
#395=AXIS2_PLACEMENT_3D('',#539,#441,$);
#396=AXIS2_PLACEMENT_3D('',#543,#443,#444);
#397=AXIS2_PLACEMENT_3D('',#546,#446,$);
#398=AXIS2_PLACEMENT_3D('',#549,#448,#449);
#399=AXIS2_PLACEMENT_3D('',#552,#451,$);
#400=AXIS2_PLACEMENT_3D('',#555,#453,#454);
#401=AXIS2_PLACEMENT_3D('',#558,#456,$);
#402=AXIS2_PLACEMENT_3D('',#561,#458,#459);
#403=AXIS2_PLACEMENT_3D('',#564,#461,$);
#404=AXIS2_PLACEMENT_3D('',#567,#463,#464);
#405=AXIS2_PLACEMENT_3D('',#570,#466,#467);
#406=AXIS2_PLACEMENT_3D('',#574,#469,#470);
#407=AXIS2_PLACEMENT_3D('',#576,#471,#472);
#408=AXIS2_PLACEMENT_3D('',#613,#473,#474);
#409=AXIS2_PLACEMENT_3D('',#617,#476,#477);
#410=AXIS2_PLACEMENT_3D('',#619,#478,#479);
#411=AXIS2_PLACEMENT_3D('',#620,#480,#481);
#412=AXIS2_PLACEMENT_3D('',#622,#482,#483);
#413=AXIS2_PLACEMENT_3D('',#623,#484,$);
#414=AXIS2_PLACEMENT_3D('',#624,#485,#486);
#415=AXIS2_PLACEMENT_3D('',#626,#487,#488);
#416=AXIS2_PLACEMENT_3D('',#627,#489,$);
#417=AXIS2_PLACEMENT_3D('',#628,#490,#491);
#418=AXIS2_PLACEMENT_3D('',#631,#492,#493);
#419=AXIS2_PLACEMENT_3D('',#634,#495,#496);
#420=AXIS2_PLACEMENT_3D('',#636,#497,#498);
#421=AXIS2_PLACEMENT_3D('',#638,#500,$);
#422=AXIS2_PLACEMENT_3D('',#639,#501,#502);
#423=AXIS2_PLACEMENT_3D('',#641,#503,#504);
#424=AXIS2_PLACEMENT_3D('',#642,#505,#506);
#425=AXIS2_PLACEMENT_3D('',#646,#508,#509);
#426=AXIS2_PLACEMENT_3D('',#647,#510,#511);
#427=AXIS2_PLACEMENT_3D('',#648,#512,$);
#428=AXIS2_PLACEMENT_3D('',#649,#513,$);
#429=AXIS2_PLACEMENT_3D('',#650,#514,#515);
#430=AXIS2_PLACEMENT_3D('',#652,#516,#517);
#431=AXIS2_PLACEMENT_3D('',#653,#518,$);
#432=AXIS2_PLACEMENT_3D('',#654,#519,$);
#433=AXIS2_PLACEMENT_3D('',#659,#523,$);
#434=AXIS2_PLACEMENT_3D('',#661,#525,$);
#435=AXIS2_PLACEMENT_3D('',#663,#527,$);
#436=AXIS2_PLACEMENT_3D('',#665,#529,$);
#437=AXIS2_PLACEMENT_3D('',#667,#531,$);
#438=AXIS2_PLACEMENT_3D('',#669,#533,$);
#439=AXIS2_PLACEMENT_3D('',#670,#534,#535);
#440=AXIS2_PLACEMENT_3D('',#671,#536,#537);
#441=DIRECTION('',(-1.,0.,0.));
#442=DIRECTION('',(0.,-1.,0.));
#443=DIRECTION('',(1.,0.,0.));
#444=DIRECTION('',(0.,0.,2.));
#445=DIRECTION('',(0.,-0.500000000000003,-0.866025403784437));
#446=DIRECTION('',(-1.,0.,0.));
#447=DIRECTION('',(0.,-0.499999999999996,-0.866025403784441));
#448=DIRECTION('',(1.,0.,0.));
#449=DIRECTION('',(0.,0.,2.));
#450=DIRECTION('',(0.,0.499999999999996,-0.866025403784441));
#451=DIRECTION('',(-1.,0.,0.));
#452=DIRECTION('',(0.,0.500000000000003,-0.866025403784437));
#453=DIRECTION('',(1.,0.,0.));
#454=DIRECTION('',(0.,0.,2.));
#455=DIRECTION('',(0.,1.,0.));
#456=DIRECTION('',(-1.,0.,0.));
#457=DIRECTION('',(0.,1.,0.));
#458=DIRECTION('',(1.,0.,0.));
#459=DIRECTION('',(0.,0.,2.));
#460=DIRECTION('',(0.,0.500000000000003,0.866025403784437));
#461=DIRECTION('',(-1.,0.,0.));
#462=DIRECTION('',(0.,0.499999999999996,0.866025403784441));
#463=DIRECTION('',(1.,0.,0.));
#464=DIRECTION('',(0.,0.,2.));
#465=DIRECTION('',(0.,-0.499999999999996,0.866025403784441));
#466=DIRECTION('',(-1.,0.,0.));
#467=DIRECTION('',(0.,0.,2.31));
#468=DIRECTION('',(0.499999999999998,0.,-0.86602540378444));
#469=DIRECTION('',(-1.,0.,0.));
#470=DIRECTION('',(0.,0.,-2.31));
#471=DIRECTION('',(-1.,0.,0.));
#472=DIRECTION('',(0.,0.,-2.31));
#473=DIRECTION('',(-1.,0.,0.));
#474=DIRECTION('',(0.,0.,2.51273416448619));
#475=DIRECTION('',(0.936329177569045,0.,-0.351123441588391));
#476=DIRECTION('',(1.,0.,0.));
#477=DIRECTION('',(0.,0.,-2.51273416448619));
#478=DIRECTION('',(1.,0.,0.));
#479=DIRECTION('',(0.,0.,-2.51273416448619));
#480=DIRECTION('',(1.,0.,0.));
#481=DIRECTION('',(0.,0.,-2.66273416448619));
#482=DIRECTION('',(1.,0.,0.));
#483=DIRECTION('',(0.,0.,-2.66273416448619));
#484=DIRECTION('',(1.,0.,0.));
#485=DIRECTION('',(0.,1.,0.));
#486=DIRECTION('',(0.,0.,-0.199999999999996));
#487=DIRECTION('',(-1.,0.,0.));
#488=DIRECTION('',(0.,0.,-2.5));
#489=DIRECTION('',(-1.,0.,0.));
#490=DIRECTION('',(1.,0.,0.));
#491=DIRECTION('',(0.,0.,-2.0095));
#492=DIRECTION('',(-1.,0.,0.));
#493=DIRECTION('',(0.,0.,2.5));
#494=DIRECTION('',(0.707106781186549,0.,-0.707106781186546));
#495=DIRECTION('',(1.,0.,0.));
#496=DIRECTION('',(0.,0.,-2.5));
#497=DIRECTION('',(1.,0.,0.));
#498=DIRECTION('',(0.,0.,-2.5));
#499=DIRECTION('',(-1.,0.,0.));
#500=DIRECTION('',(1.,0.,0.));
#501=DIRECTION('',(0.,1.,0.));
#502=DIRECTION('',(0.,0.,-0.199999999999999));
#503=DIRECTION('',(1.,0.,0.));
#504=DIRECTION('',(0.,0.,-2.85));
#505=DIRECTION('',(1.,0.,0.));
#506=DIRECTION('',(0.,0.,-4.25));
#507=DIRECTION('',(-1.,0.,0.));
#508=DIRECTION('',(1.,0.,0.));
#509=DIRECTION('',(0.,0.,-4.25));
#510=DIRECTION('',(1.,0.,0.));
#511=DIRECTION('',(0.,0.,-4.25));
#512=DIRECTION('',(-1.,0.,0.));
#513=DIRECTION('',(1.,0.,0.));
#514=DIRECTION('',(0.,1.,0.));
#515=DIRECTION('',(0.,0.,-0.5));
#516=DIRECTION('',(1.,0.,0.));
#517=DIRECTION('',(0.,0.,-3.75));
#518=DIRECTION('',(1.,0.,0.));
#519=DIRECTION('',(0.,0.,-1.));
#520=DIRECTION('',(-1.,0.,0.));
#521=DIRECTION('',(0.,-1.,0.));
#522=DIRECTION('',(-1.,0.,0.));
#523=DIRECTION('',(0.,0.866025403784439,-0.5));
#524=DIRECTION('',(-1.,0.,0.));
#525=DIRECTION('',(0.,0.866025403784439,0.5));
#526=DIRECTION('',(-1.,0.,0.));
#527=DIRECTION('',(0.,0.,1.));
#528=DIRECTION('',(-1.,0.,0.));
#529=DIRECTION('',(0.,-0.866025403784439,0.5));
#530=DIRECTION('',(-1.,0.,0.));
#531=DIRECTION('',(0.,-0.866025403784439,-0.5));
#532=DIRECTION('',(0.,-0.500000000000003,0.866025403784437));
#533=DIRECTION('',(-1.,0.,0.));
#534=DIRECTION('',(1.,0.,0.));
#535=DIRECTION('',(0.,0.,2.));
#536=DIRECTION('',(-1.,0.,0.));
#537=DIRECTION('',(0.,0.,2.));
#538=DIRECTION('',(0.499999999999998,0.,-0.86602540378444));
#539=CARTESIAN_POINT('',(-2.5,2.,0.));
#540=CARTESIAN_POINT('',(-2.5,0.,2.));
#541=CARTESIAN_POINT('',(-2.5,2.44929359829471E-16,2.));
#542=CARTESIAN_POINT('',(-2.5,-1.15470053837925,2.));
#543=CARTESIAN_POINT('',(-2.5,0.,0.));
#544=CARTESIAN_POINT('',(-2.5,-1.73205080756888,0.999999999999999));
#545=CARTESIAN_POINT('',(-2.5,-1.15470053837925,2.));
#546=CARTESIAN_POINT('',(-2.5,2.,0.));
#547=CARTESIAN_POINT('',(-2.5,-1.73205080756888,1.));
#548=CARTESIAN_POINT('',(-2.5,-2.3094010767585,5.55111512312578E-17));
#549=CARTESIAN_POINT('',(-2.5,0.,0.));
#550=CARTESIAN_POINT('',(-2.5,-1.73205080756888,-0.999999999999999));
#551=CARTESIAN_POINT('',(-2.5,-2.3094010767585,0.));
#552=CARTESIAN_POINT('',(-2.5,2.,0.));
#553=CARTESIAN_POINT('',(-2.5,-1.73205080756888,-1.));
#554=CARTESIAN_POINT('',(-2.5,-1.15470053837925,-2.));
#555=CARTESIAN_POINT('',(-2.5,0.,0.));
#556=CARTESIAN_POINT('',(-2.5,0.,-2.));
#557=CARTESIAN_POINT('',(-2.5,-1.15470053837925,-2.));
#558=CARTESIAN_POINT('',(-2.5,2.,0.));
#559=CARTESIAN_POINT('',(-2.5,0.,-2.));
#560=CARTESIAN_POINT('',(-2.5,1.15470053837925,-2.));
#561=CARTESIAN_POINT('',(-2.5,0.,0.));
#562=CARTESIAN_POINT('',(-2.5,1.73205080756888,-0.999999999999999));
#563=CARTESIAN_POINT('',(-2.5,1.15470053837925,-2.));
#564=CARTESIAN_POINT('',(-2.5,2.,0.));
#565=CARTESIAN_POINT('',(-2.5,1.73205080756888,-1.));
#566=CARTESIAN_POINT('',(-2.5,2.3094010767585,-5.55111512312578E-17));
#567=CARTESIAN_POINT('',(-2.5,0.,0.));
#568=CARTESIAN_POINT('',(-2.5,1.73205080756888,0.999999999999999));
#569=CARTESIAN_POINT('',(-2.5,2.3094010767585,0.));
#570=CARTESIAN_POINT('',(-5.,0.,0.));
#571=CARTESIAN_POINT('',(-4.72601551961948,0.,1.83544495949557));
#572=CARTESIAN_POINT('',(-5.,0.,2.31));
#573=CARTESIAN_POINT('',(-4.82102144748849,2.7887197407306E-12,2.00000001071699));
#574=CARTESIAN_POINT('',(-5.,0.,0.));
#575=CARTESIAN_POINT('',(-5.,1.41446705301519E-16,-2.31));
#576=CARTESIAN_POINT('',(-5.,0.,0.));
#577=CARTESIAN_POINT('',(-4.99965421150528,1.15470053837925,2.));
#578=CARTESIAN_POINT('',(-4.89108344265779,0.778600362657918,2.));
#579=CARTESIAN_POINT('',(-4.75092319965407,0.00079890155617405,2.));
#580=CARTESIAN_POINT('',(-4.89115588969516,-0.778851326557143,2.));
#581=CARTESIAN_POINT('',(-4.99965421150526,-1.15470053837926,2.));
#582=CARTESIAN_POINT('',(-4.99965421150439,-1.15470053837894,1.99999999999999));
#583=CARTESIAN_POINT('',(-4.99965421150356,-1.15470053837913,2.00000000000022));
#584=CARTESIAN_POINT('',(-4.89080048737698,-1.34324071915941,1.67343882762055));
#585=CARTESIAN_POINT('',(-4.75131154146156,-1.72996460230078,1.00361341351936));
#586=CARTESIAN_POINT('',(-4.89066489950268,-2.12062605088962,0.326967936005043));
#587=CARTESIAN_POINT('',(-4.99965421150441,-2.30940107675858,-1.27250759313784E-13));
#588=CARTESIAN_POINT('',(-4.99965421150439,-2.30940107675828,4.30950998371493E-14));
#589=CARTESIAN_POINT('',(-4.99965421150356,-2.30940107675863,2.16308338160367E-13));
#590=CARTESIAN_POINT('',(-4.89080048737698,-2.12086089597835,-0.326561172379455));
#591=CARTESIAN_POINT('',(-4.75131154146156,-1.73413701283698,-0.996386586480635));
#592=CARTESIAN_POINT('',(-4.89066489950268,-1.34347556424814,-1.67303206399496));
#593=CARTESIAN_POINT('',(-4.99965421150441,-1.15470053837918,-2.00000000000013));
#594=CARTESIAN_POINT('',(-4.99965421150483,-1.15470053837908,-2.00000000000001));
#595=CARTESIAN_POINT('',(-4.99965421150528,-1.15470053837925,-2.));
#596=CARTESIAN_POINT('',(-4.89108344265779,-0.778600362657918,-2.));
#597=CARTESIAN_POINT('',(-4.75092319965407,-0.00079890155617405,-2.));
#598=CARTESIAN_POINT('',(-4.89115588969516,0.778851326557143,-2.));
#599=CARTESIAN_POINT('',(-4.99965421150526,1.15470053837926,-2.));
#600=CARTESIAN_POINT('',(-4.99965421150439,1.15470053837893,-1.99999999999999));
#601=CARTESIAN_POINT('',(-4.99965421150356,1.15470053837913,-2.00000000000022));
#602=CARTESIAN_POINT('',(-4.89080048737698,1.34324071915941,-1.67343882762055));
#603=CARTESIAN_POINT('',(-4.75131154146156,1.72996460230078,-1.00361341351936));
#604=CARTESIAN_POINT('',(-4.89066489950268,2.12062605088962,-0.326967936005043));
#605=CARTESIAN_POINT('',(-4.99965421150441,2.30940107675858,1.27250759313784E-13));
#606=CARTESIAN_POINT('',(-4.99965421150439,2.30940107675828,-4.30950998371493E-14));
#607=CARTESIAN_POINT('',(-4.99965421150356,2.30940107675863,-2.16308338160367E-13));
#608=CARTESIAN_POINT('',(-4.89080048737698,2.12086089597835,0.326561172379455));
#609=CARTESIAN_POINT('',(-4.75131154146156,1.73413701283698,0.996386586480635));
#610=CARTESIAN_POINT('',(-4.89066489950268,1.34347556424814,1.67303206399496));
#611=CARTESIAN_POINT('',(-4.99965421150441,1.15470053837918,2.00000000000013));
#612=CARTESIAN_POINT('',(-4.99965421150483,1.15470053837908,2.00000000000001));
#613=CARTESIAN_POINT('',(0.529775311682323,0.,0.));
#614=CARTESIAN_POINT('',(0.169775311682321,0.,2.64773416448619));
#615=CARTESIAN_POINT('',(0.129775311682321,1.34553695472336E-15,2.66273416448619));
#616=CARTESIAN_POINT('',(0.529775311682324,4.05943404642707E-15,2.51273416448619));
#617=CARTESIAN_POINT('',(0.529775311682323,0.,0.));
#618=CARTESIAN_POINT('',(0.529775311682324,-4.61737311126204E-15,-2.51273416448619));
#619=CARTESIAN_POINT('',(0.529775311682323,0.,0.));
#620=CARTESIAN_POINT('',(0.129775311682321,0.,0.));
#621=CARTESIAN_POINT('',(0.129775311682321,-1.34553695472336E-15,-2.66273416448619));
#622=CARTESIAN_POINT('',(0.129775311682321,0.,0.));
#623=CARTESIAN_POINT('',(0.600000000000001,0.,0.));
#624=CARTESIAN_POINT('',(0.600000000000001,0.,-2.7));
#625=CARTESIAN_POINT('',(0.600000000000001,6.10622663543837E-15,-2.5));
#626=CARTESIAN_POINT('',(0.600000000000001,0.,0.));
#627=CARTESIAN_POINT('',(10.,0.,-2.0095));
#628=CARTESIAN_POINT('',(10.,0.,0.));
#629=CARTESIAN_POINT('',(10.,-1.2304638714433E-16,-2.0095));
#630=CARTESIAN_POINT('',(10.,1.2304638714433E-16,2.0095));
#631=CARTESIAN_POINT('',(9.5095,0.,0.));
#632=CARTESIAN_POINT('',(10.04905,0.,1.96045));
#633=CARTESIAN_POINT('',(9.5095,1.53080849893419E-16,2.5));
#634=CARTESIAN_POINT('',(9.5095,0.,0.));
#635=CARTESIAN_POINT('',(9.5095,-1.53080849893419E-16,-2.5));
#636=CARTESIAN_POINT('',(10.,0.,0.));
#637=CARTESIAN_POINT('',(0.109500000000001,0.,-2.5));
#638=CARTESIAN_POINT('',(0.199999999999999,0.,0.));
#639=CARTESIAN_POINT('',(0.199999999999999,0.,-2.85));
#640=CARTESIAN_POINT('',(0.,-3.49024337756996E-16,-2.85));
#641=CARTESIAN_POINT('',(0.,0.,0.));
#642=CARTESIAN_POINT('',(10.,0.,0.));
#643=CARTESIAN_POINT('',(-14.5,0.,-4.25));
#644=CARTESIAN_POINT('',(0.,-5.20474889637625E-16,-4.25));
#645=CARTESIAN_POINT('',(-4.5,-5.20474889637625E-16,-4.25));
#646=CARTESIAN_POINT('',(-4.5,0.,0.));
#647=CARTESIAN_POINT('',(0.,0.,0.));
#648=CARTESIAN_POINT('',(0.,0.,-4.25));
#649=CARTESIAN_POINT('',(-4.5,0.,0.));
#650=CARTESIAN_POINT('',(-4.5,0.,-3.75));
#651=CARTESIAN_POINT('',(-5.,-4.59242549680257E-16,-3.75));
#652=CARTESIAN_POINT('',(-5.,0.,0.));
#653=CARTESIAN_POINT('',(-5.,0.,0.));
#654=CARTESIAN_POINT('',(-2.5,1.15470053837925,2.));
#655=CARTESIAN_POINT('',(-2.5,1.15470053837925,2.));
#656=CARTESIAN_POINT('',(-2.5,1.15470053837925,2.));
#657=CARTESIAN_POINT('',(-2.5,1.15470053837925,2.));
#658=CARTESIAN_POINT('',(-2.5,-1.15470053837925,2.));
#659=CARTESIAN_POINT('',(-2.5,-1.15470053837925,2.));
#660=CARTESIAN_POINT('',(-2.5,-2.3094010767585,0.));
#661=CARTESIAN_POINT('',(-2.5,-2.3094010767585,0.));
#662=CARTESIAN_POINT('',(-2.5,-1.15470053837925,-2.));
#663=CARTESIAN_POINT('',(-2.5,-1.15470053837925,-2.));
#664=CARTESIAN_POINT('',(-2.5,1.15470053837925,-2.));
#665=CARTESIAN_POINT('',(-2.5,1.15470053837925,-2.));
#666=CARTESIAN_POINT('',(-2.5,2.3094010767585,0.));
#667=CARTESIAN_POINT('',(-2.5,2.3094010767585,0.));
#668=CARTESIAN_POINT('',(-2.5,1.73205080756888,1.));
#669=CARTESIAN_POINT('',(-2.5,2.,0.));
#670=CARTESIAN_POINT('',(-2.5,0.,0.));
#671=CARTESIAN_POINT('',(-2.5,0.,0.));
#672=CARTESIAN_POINT('',(-1.34529946162075,0.,0.));
#673=CARTESIAN_POINT('',(-1.34529946162075,0.,1.11022302462516E-16));
#674=PLANE('',#395);
#675=PLANE('',#397);
#676=PLANE('',#399);
#677=PLANE('',#401);
#678=PLANE('',#403);
#679=PLANE('',#416);
#680=PLANE('',#427);
#681=PLANE('',#431);
#682=PLANE('',#432);
#683=PLANE('',#433);
#684=PLANE('',#434);
#685=PLANE('',#435);
#686=PLANE('',#436);
#687=PLANE('',#437);
#688=PLANE('',#438);
#689=CLOSED_SHELL('',(#371,#372,#373,#374,#375,#376,#377,#378,#379,#380,
#381,#382,#383,#384,#385,#386,#387,#388,#389,#390,#391,#392,#393,#394));
#690=MANIFOLD_SOLID_BREP('',#689);
#691=ADVANCED_BREP_SHAPE_REPRESENTATION('',(#690),#33);
ENDSEC;
END-ISO-10303-21;
