ISO-10303-21;
HEADER;
/* Generated by software containing ST-Developer
 * from STEP Tools, Inc. (www.steptools.com) 
 */

FILE_DESCRIPTION(
/* description */ ('Alibre Inc.'),
/* implementation_level */ '2;1');

FILE_NAME(
/* name */ 'export-E2309286-9D18-4F9C-BEEE-4E7F4DBD0340',
/* time_stamp */ '2020-06-28T11:03:42+02:00',
/* author */ (''),
/* organization */ (''),
/* preprocessor_version */ 'ST-DEVELOPER v17',
/* originating_system */ 'Alibre',
/* authorisation */ '');

FILE_SCHEMA (('AUTOMOTIVE_DESIGN'));
ENDSEC;

DATA;
#10=STYLED_ITEM('NAME_0',(#37),#441);
#11=STYLED_ITEM('NAME_0',(#38),#200);
#12=STYLED_ITEM('NAME_0',(#38),#201);
#13=STYLED_ITEM('NAME_0',(#38),#202);
#14=STYLED_ITEM('NAME_0',(#38),#203);
#15=STYLED_ITEM('NAME_0',(#38),#204);
#16=STYLED_ITEM('NAME_0',(#38),#205);
#17=STYLED_ITEM('NAME_0',(#38),#206);
#18=STYLED_ITEM('NAME_0',(#38),#207);
#19=STYLED_ITEM('NAME_0',(#38),#208);
#20=STYLED_ITEM('NAME_0',(#38),#209);
#21=STYLED_ITEM('NAME_0',(#38),#210);
#22=STYLED_ITEM('NAME_0',(#38),#211);
#23=STYLED_ITEM('NAME_0',(#38),#212);
#24=MECHANICAL_DESIGN_GEOMETRIC_PRESENTATION_REPRESENTATION('NAME_0',(#10,
#11,#12,#13,#14,#15,#16,#17,#18,#19,#20,#21,#22,#23),#53);
#25=COLOUR_RGB('',0.882352941176471,0.882352941176471,0.882352941176471);
#26=COLOUR_RGB('',0.686274509803922,0.686274509803922,0.686274509803922);
#27=FILL_AREA_STYLE_COLOUR('NAME_0',#25);
#28=FILL_AREA_STYLE_COLOUR('NAME_0',#26);
#29=FILL_AREA_STYLE('NAME_0',(#27));
#30=FILL_AREA_STYLE('NAME_0',(#28));
#31=SURFACE_STYLE_FILL_AREA(#29);
#32=SURFACE_STYLE_FILL_AREA(#30);
#33=SURFACE_SIDE_STYLE('NAME_0',(#31));
#34=SURFACE_SIDE_STYLE('NAME_0',(#32));
#35=SURFACE_STYLE_USAGE(.POSITIVE.,#33);
#36=SURFACE_STYLE_USAGE(.POSITIVE.,#34);
#37=PRESENTATION_STYLE_ASSIGNMENT((#35));
#38=PRESENTATION_STYLE_ASSIGNMENT((#36));
#39=PRODUCT_DEFINITION_CONTEXT('part definition',#46,'design');
#40=SHAPE_DEFINITION_REPRESENTATION(#41,#442);
#41=PRODUCT_DEFINITION_SHAPE('PRODUCT_VERSION_ID',
'PRODUCT_VERSION_DESCR',#42);
#42=PRODUCT_DEFINITION('PRODUCT_VERSION_ID','PRODUCT_VERSION_DESCR',#43,
#39);
#43=PRODUCT_DEFINITION_FORMATION_WITH_SPECIFIED_SOURCE(
'PRODUCT_VERSION_ID','PRODUCT_VERSION_DESCR',#48,.MADE.);
#44=PRODUCT_RELATED_PRODUCT_CATEGORY('part','part',(#48));
#45=APPLICATION_PROTOCOL_DEFINITION('Draft International Standard',
'automotive_design',1994,#46);
#46=APPLICATION_CONTEXT('automotive_Design');
#47=PRODUCT_CONTEXT('3D Mechanical Parts',#46,'mechanical');
#48=PRODUCT('_229028',
'5255 Eaton Moeller Buzzer BA9s, 18-30V, pulsed tone (M22-XAMP)','',(#47));
#49=(
LENGTH_UNIT()
NAMED_UNIT(*)
SI_UNIT(.MILLI.,.METRE.)
);
#50=(
NAMED_UNIT(*)
PLANE_ANGLE_UNIT()
SI_UNIT($,.RADIAN.)
);
#51=(
NAMED_UNIT(*)
SI_UNIT($,.STERADIAN.)
SOLID_ANGLE_UNIT()
);
#52=UNCERTAINTY_MEASURE_WITH_UNIT(LENGTH_MEASURE(1.E-6),#49,
'DISTANCE_ACCURACY_VALUE',
'Maximum model space distance between geometric entities at asserted c
onnectivities');
#53=(
GEOMETRIC_REPRESENTATION_CONTEXT(3)
GLOBAL_UNCERTAINTY_ASSIGNED_CONTEXT((#52))
GLOBAL_UNIT_ASSIGNED_CONTEXT((#51,#50,#49))
REPRESENTATION_CONTEXT('ID1','3D')
);
#54=CONICAL_SURFACE('',#236,1.8394417876,0.5235987756);
#55=SPHERICAL_SURFACE('',#231,2.);
#56=PLANE('',#215);
#57=PLANE('',#217);
#58=PLANE('',#221);
#59=PLANE('',#225);
#60=PLANE('',#227);
#61=PLANE('',#234);
#62=B_SPLINE_CURVE_WITH_KNOTS('',3,(#290,#291,#292,#293,#294,#295,#296,
#297,#298,#299,#300,#301,#302,#303,#304,#305,#306,#307,#308,#309,#310,#311,
#312,#313,#314,#315,#316,#317,#318,#319,#320,#321,#322,#323),
 .UNSPECIFIED.,.T.,.U.,(4,2,2,2,2,2,2,2,2,2,2,2,2,2,2,2,4),(0.,0.340015730301174,
0.680031460602348,1.02002813824013,1.36002481587791,1.70002149351569,2.04001817115346,
2.38003390145464,2.72004963175581,3.06006536205699,3.40008109235816,3.74007776999594,
4.08007444763372,4.4200711252715,4.76006780290928,5.10008353321045,5.44009926351162),
 .UNSPECIFIED.);
#63=B_SPLINE_CURVE_WITH_KNOTS('',3,(#325,#326,#327,#328,#329,#330,#331,
#332,#333,#334,#335,#336,#337,#338,#339,#340,#341,#342,#343,#344,#345,#346,
#347,#348,#349,#350,#351,#352,#353,#354,#355,#356,#357,#358),
 .UNSPECIFIED.,.T.,.U.,(4,2,2,2,2,2,2,2,2,2,2,2,2,2,2,2,4),(0.,0.340015730301174,
0.680031460602348,1.02002813824013,1.36002481587791,1.70002149351569,2.04001817115346,
2.38003390145464,2.72004963175581,3.06006536205699,3.40008109235816,3.74007776999594,
4.08007444763372,4.4200711252715,4.76006780290928,5.10008353321045,5.44009926351162),
 .UNSPECIFIED.);
#64=B_SPLINE_CURVE_WITH_KNOTS('',3,(#385,#386,#387,#388),.UNSPECIFIED.,
 .F.,.U.,(4,4),(16.5749999979545,24.775),.UNSPECIFIED.);
#65=B_SPLINE_CURVE_WITH_KNOTS('',3,(#390,#391,#392,#393,#394,#395,#396,
#397,#398,#399,#400,#401,#402,#403,#404,#405,#406,#407,#408,#409,#410,#411,
#412,#413,#414,#415,#416,#417,#418,#419,#420,#421,#422,#423),
 .UNSPECIFIED.,.T.,.U.,(4,2,2,2,2,2,2,2,2,2,2,2,2,2,2,2,4),(0.,0.340015730301174,
0.680031460602348,1.02002813824013,1.36002481587791,1.70002149351569,2.04001817115346,
2.38003390145464,2.72004963175581,3.06006536205699,3.40008109235816,3.74007776999594,
4.08007444763372,4.4200711252715,4.76006780290928,5.10008353321045,5.44009926351162),
 .UNSPECIFIED.);
#66=CIRCLE('',#214,0.9);
#67=CIRCLE('',#216,0.9);
#68=CIRCLE('',#218,6.);
#69=CIRCLE('',#220,6.);
#70=CIRCLE('',#222,5.);
#71=CIRCLE('',#224,5.);
#72=CIRCLE('',#226,4.5);
#73=CIRCLE('',#228,4.5);
#74=CIRCLE('',#229,2.99999999998573);
#75=CIRCLE('',#232,2.);
#76=CIRCLE('',#233,1.83944178767219);
#77=VERTEX_POINT('',#287);
#78=VERTEX_POINT('',#288);
#79=VERTEX_POINT('',#324);
#80=VERTEX_POINT('',#361);
#81=VERTEX_POINT('',#364);
#82=VERTEX_POINT('',#367);
#83=VERTEX_POINT('',#371);
#84=VERTEX_POINT('',#374);
#85=VERTEX_POINT('',#378);
#86=VERTEX_POINT('',#381);
#87=VERTEX_POINT('',#383);
#88=VERTEX_POINT('',#424);
#89=VERTEX_POINT('',#427);
#90=VERTEX_POINT('',#428);
#91=VECTOR('',#239,1.);
#92=VECTOR('',#250,1.);
#93=VECTOR('',#258,1.);
#94=VECTOR('',#271,1.);
#95=VECTOR('',#281,1.);
#96=VECTOR('',#284,1.);
#97=LINE('',#286,#91);
#98=LINE('',#366,#92);
#99=LINE('',#373,#93);
#100=LINE('',#389,#94);
#101=LINE('',#432,#95);
#102=LINE('',#434,#96);
#103=EDGE_CURVE('',#77,#78,#97,.T.);
#104=EDGE_CURVE('',#78,#78,#66,.T.);
#105=EDGE_CURVE('',#77,#79,#62,.F.);
#106=EDGE_CURVE('',#79,#77,#63,.F.);
#107=EDGE_CURVE('',#80,#80,#67,.T.);
#108=EDGE_CURVE('',#81,#81,#68,.F.);
#109=EDGE_CURVE('',#82,#81,#98,.T.);
#110=EDGE_CURVE('',#82,#82,#69,.F.);
#111=EDGE_CURVE('',#83,#83,#70,.T.);
#112=EDGE_CURVE('',#84,#83,#99,.T.);
#113=EDGE_CURVE('',#84,#84,#71,.F.);
#114=EDGE_CURVE('',#85,#85,#72,.T.);
#115=EDGE_CURVE('',#86,#86,#73,.T.);
#116=EDGE_CURVE('',#87,#87,#74,.F.);
#117=EDGE_CURVE('',#79,#85,#64,.T.);
#118=EDGE_CURVE('',#86,#77,#100,.T.);
#119=EDGE_CURVE('',#88,#88,#65,.T.);
#120=EDGE_CURVE('',#89,#90,#75,.T.);
#121=EDGE_CURVE('',#89,#89,#76,.F.);
#122=EDGE_CURVE('',#80,#88,#101,.T.);
#123=EDGE_CURVE('',#87,#89,#102,.T.);
#124=ORIENTED_EDGE('',*,*,#103,.T.);
#125=ORIENTED_EDGE('',*,*,#104,.F.);
#126=ORIENTED_EDGE('',*,*,#103,.F.);
#127=ORIENTED_EDGE('',*,*,#105,.T.);
#128=ORIENTED_EDGE('',*,*,#106,.T.);
#129=ORIENTED_EDGE('',*,*,#107,.F.);
#130=ORIENTED_EDGE('',*,*,#108,.T.);
#131=ORIENTED_EDGE('',*,*,#109,.T.);
#132=ORIENTED_EDGE('',*,*,#108,.F.);
#133=ORIENTED_EDGE('',*,*,#109,.F.);
#134=ORIENTED_EDGE('',*,*,#110,.T.);
#135=ORIENTED_EDGE('',*,*,#110,.F.);
#136=ORIENTED_EDGE('',*,*,#111,.T.);
#137=ORIENTED_EDGE('',*,*,#112,.T.);
#138=ORIENTED_EDGE('',*,*,#111,.F.);
#139=ORIENTED_EDGE('',*,*,#112,.F.);
#140=ORIENTED_EDGE('',*,*,#113,.T.);
#141=ORIENTED_EDGE('',*,*,#113,.F.);
#142=ORIENTED_EDGE('',*,*,#114,.T.);
#143=ORIENTED_EDGE('',*,*,#115,.F.);
#144=ORIENTED_EDGE('',*,*,#116,.T.);
#145=ORIENTED_EDGE('',*,*,#117,.T.);
#146=ORIENTED_EDGE('',*,*,#114,.F.);
#147=ORIENTED_EDGE('',*,*,#117,.F.);
#148=ORIENTED_EDGE('',*,*,#105,.F.);
#149=ORIENTED_EDGE('',*,*,#118,.F.);
#150=ORIENTED_EDGE('',*,*,#115,.T.);
#151=ORIENTED_EDGE('',*,*,#118,.T.);
#152=ORIENTED_EDGE('',*,*,#106,.F.);
#153=ORIENTED_EDGE('',*,*,#119,.F.);
#154=ORIENTED_EDGE('',*,*,#120,.T.);
#155=ORIENTED_EDGE('',*,*,#120,.F.);
#156=ORIENTED_EDGE('',*,*,#121,.F.);
#157=ORIENTED_EDGE('',*,*,#104,.T.);
#158=ORIENTED_EDGE('',*,*,#122,.T.);
#159=ORIENTED_EDGE('',*,*,#119,.T.);
#160=ORIENTED_EDGE('',*,*,#122,.F.);
#161=ORIENTED_EDGE('',*,*,#107,.T.);
#162=ORIENTED_EDGE('',*,*,#123,.T.);
#163=ORIENTED_EDGE('',*,*,#121,.T.);
#164=ORIENTED_EDGE('',*,*,#123,.F.);
#165=ORIENTED_EDGE('',*,*,#116,.F.);
#166=EDGE_LOOP('',(#124,#125,#126,#127,#128));
#167=EDGE_LOOP('',(#129));
#168=EDGE_LOOP('',(#130));
#169=EDGE_LOOP('',(#131,#132,#133,#134));
#170=EDGE_LOOP('',(#135));
#171=EDGE_LOOP('',(#136));
#172=EDGE_LOOP('',(#137,#138,#139,#140));
#173=EDGE_LOOP('',(#141));
#174=EDGE_LOOP('',(#142));
#175=EDGE_LOOP('',(#143));
#176=EDGE_LOOP('',(#144));
#177=EDGE_LOOP('',(#145,#146,#147,#148,#149,#150,#151,#152));
#178=EDGE_LOOP('',(#153));
#179=EDGE_LOOP('',(#154,#155,#156));
#180=EDGE_LOOP('',(#157));
#181=EDGE_LOOP('',(#158,#159,#160,#161));
#182=EDGE_LOOP('',(#162,#163,#164,#165));
#183=FACE_BOUND('',#166,.T.);
#184=FACE_BOUND('',#167,.T.);
#185=FACE_BOUND('',#168,.T.);
#186=FACE_BOUND('',#169,.T.);
#187=FACE_BOUND('',#170,.T.);
#188=FACE_BOUND('',#171,.T.);
#189=FACE_BOUND('',#172,.T.);
#190=FACE_BOUND('',#173,.T.);
#191=FACE_BOUND('',#174,.T.);
#192=FACE_BOUND('',#175,.T.);
#193=FACE_BOUND('',#176,.T.);
#194=FACE_BOUND('',#177,.T.);
#195=FACE_BOUND('',#178,.T.);
#196=FACE_BOUND('',#179,.T.);
#197=FACE_BOUND('',#180,.T.);
#198=FACE_BOUND('',#181,.T.);
#199=FACE_BOUND('',#182,.T.);
#200=ADVANCED_FACE('',(#183),#435,.T.);
#201=ADVANCED_FACE('',(#184),#56,.F.);
#202=ADVANCED_FACE('',(#185),#57,.F.);
#203=ADVANCED_FACE('',(#186),#436,.T.);
#204=ADVANCED_FACE('',(#187,#188),#58,.F.);
#205=ADVANCED_FACE('',(#189),#437,.T.);
#206=ADVANCED_FACE('',(#190,#191),#59,.F.);
#207=ADVANCED_FACE('',(#192,#193),#60,.F.);
#208=ADVANCED_FACE('',(#194,#195),#438,.T.);
#209=ADVANCED_FACE('',(#196),#55,.T.);
#210=ADVANCED_FACE('',(#197),#61,.F.);
#211=ADVANCED_FACE('',(#198),#439,.T.);
#212=ADVANCED_FACE('',(#199),#54,.T.);
#213=AXIS2_PLACEMENT_3D('',#285,#237,#238);
#214=AXIS2_PLACEMENT_3D('',#289,#240,#241);
#215=AXIS2_PLACEMENT_3D('',#359,#242,$);
#216=AXIS2_PLACEMENT_3D('',#360,#243,#244);
#217=AXIS2_PLACEMENT_3D('',#362,#245,$);
#218=AXIS2_PLACEMENT_3D('',#363,#246,#247);
#219=AXIS2_PLACEMENT_3D('',#365,#248,#249);
#220=AXIS2_PLACEMENT_3D('',#368,#251,#252);
#221=AXIS2_PLACEMENT_3D('',#369,#253,$);
#222=AXIS2_PLACEMENT_3D('',#370,#254,#255);
#223=AXIS2_PLACEMENT_3D('',#372,#256,#257);
#224=AXIS2_PLACEMENT_3D('',#375,#259,#260);
#225=AXIS2_PLACEMENT_3D('',#376,#261,$);
#226=AXIS2_PLACEMENT_3D('',#377,#262,#263);
#227=AXIS2_PLACEMENT_3D('',#379,#264,$);
#228=AXIS2_PLACEMENT_3D('',#380,#265,#266);
#229=AXIS2_PLACEMENT_3D('',#382,#267,#268);
#230=AXIS2_PLACEMENT_3D('',#384,#269,#270);
#231=AXIS2_PLACEMENT_3D('',#425,#272,#273);
#232=AXIS2_PLACEMENT_3D('',#426,#274,#275);
#233=AXIS2_PLACEMENT_3D('',#429,#276,#277);
#234=AXIS2_PLACEMENT_3D('',#430,#278,$);
#235=AXIS2_PLACEMENT_3D('',#431,#279,#280);
#236=AXIS2_PLACEMENT_3D('',#433,#282,#283);
#237=DIRECTION('',(-1.,0.,0.));
#238=DIRECTION('',(0.,0.,-0.9));
#239=DIRECTION('',(1.,0.,0.));
#240=DIRECTION('',(1.,0.,0.));
#241=DIRECTION('',(0.,0.,-0.9));
#242=DIRECTION('',(1.,0.,0.));
#243=DIRECTION('',(1.,0.,0.));
#244=DIRECTION('',(0.,0.,-0.9));
#245=DIRECTION('',(4.3737385683834E-18,0.,-1.));
#246=DIRECTION('',(4.3737385683834E-18,0.,-1.));
#247=DIRECTION('',(6.,0.,2.62424314103004E-17));
#248=DIRECTION('',(4.3737385683834E-18,0.,-1.));
#249=DIRECTION('',(6.,0.,2.62424314103004E-17));
#250=DIRECTION('',(-4.3737385683834E-18,0.,1.));
#251=DIRECTION('',(4.3737385683834E-18,0.,-1.));
#252=DIRECTION('',(6.,0.,2.62424314103004E-17));
#253=DIRECTION('',(-4.3737385683834E-18,0.,1.));
#254=DIRECTION('',(-4.3737385683834E-18,0.,1.));
#255=DIRECTION('',(5.,0.,2.1868692841917E-17));
#256=DIRECTION('',(4.3737385683834E-18,0.,-1.));
#257=DIRECTION('',(5.,0.,2.1868692841917E-17));
#258=DIRECTION('',(-4.3737385683834E-18,0.,1.));
#259=DIRECTION('',(4.3737385683834E-18,0.,-1.));
#260=DIRECTION('',(5.,0.,2.1868692841917E-17));
#261=DIRECTION('',(-4.3737385683834E-18,0.,1.));
#262=DIRECTION('',(-4.3737385683834E-18,0.,1.));
#263=DIRECTION('',(4.5,0.,1.96818235577253E-17));
#264=DIRECTION('',(-4.3737385683834E-18,0.,1.));
#265=DIRECTION('',(-4.3737385683834E-18,0.,1.));
#266=DIRECTION('',(4.5,0.,1.96818235577253E-17));
#267=DIRECTION('',(4.3737385683834E-18,0.,-1.));
#268=DIRECTION('',(2.99999999998573,0.,1.31212157050878E-17));
#269=DIRECTION('',(4.3737385683834E-18,0.,-1.));
#270=DIRECTION('',(4.5,0.,1.96818235577253E-17));
#271=DIRECTION('',(-4.3737385683834E-18,0.,1.));
#272=DIRECTION('',(0.,0.,1.));
#273=DIRECTION('',(1.,0.,0.));
#274=DIRECTION('',(0.,1.,0.));
#275=DIRECTION('',(2.,0.,0.));
#276=DIRECTION('',(4.3737385683834E-18,0.,-1.));
#277=DIRECTION('',(1.83944178767219,0.,0.));
#278=DIRECTION('',(-1.,0.,0.));
#279=DIRECTION('',(-1.,0.,0.));
#280=DIRECTION('',(0.,0.,-0.9));
#281=DIRECTION('',(1.,0.,0.));
#282=DIRECTION('',(-4.3737385683834E-18,0.,1.));
#283=DIRECTION('',(1.8394417876,0.,8.04523749072223E-18));
#284=DIRECTION('',(-0.500000000001473,0.,-0.866025403783588));
#285=CARTESIAN_POINT('',(5.5,0.,-22.875));
#286=CARTESIAN_POINT('',(4.40906445707427,0.,-23.775));
#287=CARTESIAN_POINT('',(4.5,8.77770078844264E-16,-23.775));
#288=CARTESIAN_POINT('',(5.5,-1.10218211923262E-16,-23.775));
#289=CARTESIAN_POINT('',(5.5,0.,-22.875));
#290=CARTESIAN_POINT('',(4.40908153700972,0.9,-22.875));
#291=CARTESIAN_POINT('',(4.40908153700972,0.9,-22.9883385767671));
#292=CARTESIAN_POINT('',(4.41390488956602,0.877286516623753,-23.1090159994457));
#293=CARTESIAN_POINT('',(4.43118735713494,0.785344875883544,-23.330662804527));
#294=CARTESIAN_POINT('',(4.44338176591739,0.71613279197288,-23.4316594141629));
#295=CARTESIAN_POINT('',(4.46616303874486,0.556663882180585,-23.5911283239552));
#296=CARTESIAN_POINT('',(4.47825012436677,0.455665375077866,-23.6603439073903));
#297=CARTESIAN_POINT('',(4.49528569782373,0.234011975473681,-23.7522880880123));
#298=CARTESIAN_POINT('',(4.5,0.11333222587926,-23.775));
#299=CARTESIAN_POINT('',(4.5,-0.11333222587926,-23.775));
#300=CARTESIAN_POINT('',(4.49528569782373,-0.234011975473678,-23.7522880880123));
#301=CARTESIAN_POINT('',(4.47825012436677,-0.455665375077863,-23.6603439073903));
#302=CARTESIAN_POINT('',(4.46616303874486,-0.556663882180585,-23.5911283239552));
#303=CARTESIAN_POINT('',(4.44338176591739,-0.71613279197288,-23.4316594141629));
#304=CARTESIAN_POINT('',(4.43118735713494,-0.785344875883544,-23.330662804527));
#305=CARTESIAN_POINT('',(4.41390488956602,-0.877286516623753,-23.1090159994457));
#306=CARTESIAN_POINT('',(4.40908153700972,-0.9,-22.9883385767671));
#307=CARTESIAN_POINT('',(4.40908153700972,-0.9,-22.7616614232329));
#308=CARTESIAN_POINT('',(4.41390488956602,-0.877286516623753,-22.6409840005543));
#309=CARTESIAN_POINT('',(4.43118735713494,-0.785344875883543,-22.419337195473));
#310=CARTESIAN_POINT('',(4.44338176591739,-0.716132791972879,-22.3183405858371));
#311=CARTESIAN_POINT('',(4.46616303874486,-0.556663882180585,-22.1588716760448));
#312=CARTESIAN_POINT('',(4.47825012436677,-0.455665375077863,-22.0896560926097));
#313=CARTESIAN_POINT('',(4.49528569782373,-0.234011975473678,-21.9977119119877));
#314=CARTESIAN_POINT('',(4.5,-0.11333222587926,-21.975));
#315=CARTESIAN_POINT('',(4.5,0.113332225879259,-21.975));
#316=CARTESIAN_POINT('',(4.49528569782373,0.234011975473679,-21.9977119119877));
#317=CARTESIAN_POINT('',(4.47825012436677,0.455665375077863,-22.0896560926097));
#318=CARTESIAN_POINT('',(4.46616303874486,0.556663882180585,-22.1588716760448));
#319=CARTESIAN_POINT('',(4.44338176591739,0.716132791972879,-22.3183405858371));
#320=CARTESIAN_POINT('',(4.43118735713494,0.785344875883544,-22.419337195473));
#321=CARTESIAN_POINT('',(4.41390488956602,0.877286516623753,-22.6409840005543));
#322=CARTESIAN_POINT('',(4.40908153700972,0.9,-22.7616614232329));
#323=CARTESIAN_POINT('',(4.40908153700972,0.9,-22.875));
#324=CARTESIAN_POINT('',(4.49999999261055,0.000182352716269665,-21.97500003797));
#325=CARTESIAN_POINT('',(4.40908153700972,0.9,-22.875));
#326=CARTESIAN_POINT('',(4.40908153700972,0.9,-22.9883385767671));
#327=CARTESIAN_POINT('',(4.41390488956602,0.877286516623753,-23.1090159994457));
#328=CARTESIAN_POINT('',(4.43118735713494,0.785344875883544,-23.330662804527));
#329=CARTESIAN_POINT('',(4.44338176591739,0.71613279197288,-23.4316594141629));
#330=CARTESIAN_POINT('',(4.46616303874486,0.556663882180585,-23.5911283239552));
#331=CARTESIAN_POINT('',(4.47825012436677,0.455665375077866,-23.6603439073903));
#332=CARTESIAN_POINT('',(4.49528569782373,0.234011975473681,-23.7522880880123));
#333=CARTESIAN_POINT('',(4.5,0.11333222587926,-23.775));
#334=CARTESIAN_POINT('',(4.5,-0.11333222587926,-23.775));
#335=CARTESIAN_POINT('',(4.49528569782373,-0.234011975473678,-23.7522880880123));
#336=CARTESIAN_POINT('',(4.47825012436677,-0.455665375077863,-23.6603439073903));
#337=CARTESIAN_POINT('',(4.46616303874486,-0.556663882180585,-23.5911283239552));
#338=CARTESIAN_POINT('',(4.44338176591739,-0.71613279197288,-23.4316594141629));
#339=CARTESIAN_POINT('',(4.43118735713494,-0.785344875883544,-23.330662804527));
#340=CARTESIAN_POINT('',(4.41390488956602,-0.877286516623753,-23.1090159994457));
#341=CARTESIAN_POINT('',(4.40908153700972,-0.9,-22.9883385767671));
#342=CARTESIAN_POINT('',(4.40908153700972,-0.9,-22.7616614232329));
#343=CARTESIAN_POINT('',(4.41390488956602,-0.877286516623753,-22.6409840005543));
#344=CARTESIAN_POINT('',(4.43118735713494,-0.785344875883543,-22.419337195473));
#345=CARTESIAN_POINT('',(4.44338176591739,-0.716132791972879,-22.3183405858371));
#346=CARTESIAN_POINT('',(4.46616303874486,-0.556663882180585,-22.1588716760448));
#347=CARTESIAN_POINT('',(4.47825012436677,-0.455665375077863,-22.0896560926097));
#348=CARTESIAN_POINT('',(4.49528569782373,-0.234011975473678,-21.9977119119877));
#349=CARTESIAN_POINT('',(4.5,-0.11333222587926,-21.975));
#350=CARTESIAN_POINT('',(4.5,0.113332225879259,-21.975));
#351=CARTESIAN_POINT('',(4.49528569782373,0.234011975473679,-21.9977119119877));
#352=CARTESIAN_POINT('',(4.47825012436677,0.455665375077863,-22.0896560926097));
#353=CARTESIAN_POINT('',(4.46616303874486,0.556663882180585,-22.1588716760448));
#354=CARTESIAN_POINT('',(4.44338176591739,0.716132791972879,-22.3183405858371));
#355=CARTESIAN_POINT('',(4.43118735713494,0.785344875883544,-22.419337195473));
#356=CARTESIAN_POINT('',(4.41390488956602,0.877286516623753,-22.6409840005543));
#357=CARTESIAN_POINT('',(4.40908153700972,0.9,-22.7616614232329));
#358=CARTESIAN_POINT('',(4.40908153700972,0.9,-22.875));
#359=CARTESIAN_POINT('',(-5.5,0.,-22.875));
#360=CARTESIAN_POINT('',(-5.5,0.,-22.875));
#361=CARTESIAN_POINT('',(-5.5,-1.10218211923262E-16,-23.775));
#362=CARTESIAN_POINT('',(6.,0.,-8.54240522283253E-16));
#363=CARTESIAN_POINT('',(3.85100225337363E-33,0.,-8.80482953693553E-16));
#364=CARTESIAN_POINT('',(6.,-7.34788079488412E-16,-1.3021774651366E-15));
#365=CARTESIAN_POINT('',(0.,0.,0.));
#366=CARTESIAN_POINT('',(6.,0.,-8.6));
#367=CARTESIAN_POINT('',(6.,-7.34788079488412E-16,-8.6));
#368=CARTESIAN_POINT('',(3.76141516880972E-17,0.,-8.6));
#369=CARTESIAN_POINT('',(5.,0.,-8.6));
#370=CARTESIAN_POINT('',(3.76141516880972E-17,0.,-8.6));
#371=CARTESIAN_POINT('',(5.,-6.12323399573677E-16,-8.6));
#372=CARTESIAN_POINT('',(0.,0.,0.));
#373=CARTESIAN_POINT('',(5.,0.,-22.375));
#374=CARTESIAN_POINT('',(5.,-6.12323399573677E-16,-13.775));
#375=CARTESIAN_POINT('',(6.02482487794813E-17,0.,-13.775));
#376=CARTESIAN_POINT('',(4.5,0.,-13.775));
#377=CARTESIAN_POINT('',(6.02482487794813E-17,0.,-13.775));
#378=CARTESIAN_POINT('',(4.5,-5.51091059616309E-16,-13.775));
#379=CARTESIAN_POINT('',(3.,0.,-24.775));
#380=CARTESIAN_POINT('',(1.08359373031699E-16,0.,-24.775));
#381=CARTESIAN_POINT('',(4.5,-5.51091059616309E-16,-24.775));
#382=CARTESIAN_POINT('',(1.08359373031699E-16,0.,-24.775));
#383=CARTESIAN_POINT('',(2.99999999999287,-3.67394039744206E-16,-24.775));
#384=CARTESIAN_POINT('',(0.,0.,0.));
#385=CARTESIAN_POINT('',(4.49999999630528,0.000182352716419386,-21.97500003797));
#386=CARTESIAN_POINT('',(4.49999999876843,0.000121568477612767,-19.24166669198));
#387=CARTESIAN_POINT('',(4.5,6.07842387561647E-5,-16.5083333459899));
#388=CARTESIAN_POINT('',(4.5,-5.51091059616309E-16,-13.775));
#389=CARTESIAN_POINT('',(4.5,0.,-38.55));
#390=CARTESIAN_POINT('',(-4.40908153700972,0.9,-22.875));
#391=CARTESIAN_POINT('',(-4.40908153700972,0.9,-22.9883385767671));
#392=CARTESIAN_POINT('',(-4.41390488956602,0.877286516623753,-23.1090159994457));
#393=CARTESIAN_POINT('',(-4.43118735713494,0.785344875883544,-23.330662804527));
#394=CARTESIAN_POINT('',(-4.44338176591739,0.71613279197288,-23.4316594141629));
#395=CARTESIAN_POINT('',(-4.46616303874486,0.556663882180585,-23.5911283239552));
#396=CARTESIAN_POINT('',(-4.47825012436677,0.455665375077866,-23.6603439073903));
#397=CARTESIAN_POINT('',(-4.49528569782373,0.234011975473681,-23.7522880880123));
#398=CARTESIAN_POINT('',(-4.5,0.11333222587926,-23.775));
#399=CARTESIAN_POINT('',(-4.5,-0.11333222587926,-23.775));
#400=CARTESIAN_POINT('',(-4.49528569782373,-0.234011975473679,-23.7522880880123));
#401=CARTESIAN_POINT('',(-4.47825012436677,-0.455665375077863,-23.6603439073903));
#402=CARTESIAN_POINT('',(-4.46616303874486,-0.556663882180585,-23.5911283239552));
#403=CARTESIAN_POINT('',(-4.44338176591739,-0.71613279197288,-23.4316594141629));
#404=CARTESIAN_POINT('',(-4.43118735713494,-0.785344875883544,-23.330662804527));
#405=CARTESIAN_POINT('',(-4.41390488956602,-0.877286516623753,-23.1090159994457));
#406=CARTESIAN_POINT('',(-4.40908153700972,-0.9,-22.9883385767671));
#407=CARTESIAN_POINT('',(-4.40908153700972,-0.9,-22.7616614232329));
#408=CARTESIAN_POINT('',(-4.41390488956602,-0.877286516623753,-22.6409840005543));
#409=CARTESIAN_POINT('',(-4.43118735713494,-0.785344875883543,-22.419337195473));
#410=CARTESIAN_POINT('',(-4.44338176591739,-0.716132791972879,-22.3183405858371));
#411=CARTESIAN_POINT('',(-4.46616303874486,-0.556663882180585,-22.1588716760448));
#412=CARTESIAN_POINT('',(-4.47825012436677,-0.455665375077862,-22.0896560926097));
#413=CARTESIAN_POINT('',(-4.49528569782373,-0.234011975473678,-21.9977119119877));
#414=CARTESIAN_POINT('',(-4.5,-0.11333222587926,-21.975));
#415=CARTESIAN_POINT('',(-4.5,0.113332225879259,-21.975));
#416=CARTESIAN_POINT('',(-4.49528569782373,0.234011975473679,-21.9977119119877));
#417=CARTESIAN_POINT('',(-4.47825012436677,0.455665375077863,-22.0896560926097));
#418=CARTESIAN_POINT('',(-4.46616303874486,0.556663882180585,-22.1588716760448));
#419=CARTESIAN_POINT('',(-4.44338176591739,0.716132791972879,-22.3183405858371));
#420=CARTESIAN_POINT('',(-4.43118735713494,0.785344875883544,-22.419337195473));
#421=CARTESIAN_POINT('',(-4.41390488956602,0.877286516623753,-22.6409840005543));
#422=CARTESIAN_POINT('',(-4.40908153700972,0.9,-22.7616614232329));
#423=CARTESIAN_POINT('',(-4.40908153700972,0.9,-22.875));
#424=CARTESIAN_POINT('',(-4.5,-1.2747462519708E-15,-23.775));
#425=CARTESIAN_POINT('',(-4.33680868994202E-15,0.,-26.));
#426=CARTESIAN_POINT('',(-4.33680868994202E-15,0.,-26.));
#427=CARTESIAN_POINT('',(1.83944178760796,-2.25266649740223E-16,-26.7851457889889));
#428=CARTESIAN_POINT('',(-4.21434401002728E-15,0.,-28.));
#429=CARTESIAN_POINT('',(1.17151225196511E-16,0.,-26.7851457888605));
#430=CARTESIAN_POINT('',(5.5,0.,-23.775));
#431=CARTESIAN_POINT('',(5.5,0.,-22.875));
#432=CARTESIAN_POINT('',(-15.4090644570743,0.,-23.775));
#433=CARTESIAN_POINT('',(1.17151225197058E-16,0.,-26.7851457889855));
#434=CARTESIAN_POINT('',(2.88394417874716,0.,-24.9760145788985));
#435=CYLINDRICAL_SURFACE('',#213,0.9);
#436=CYLINDRICAL_SURFACE('',#219,6.);
#437=CYLINDRICAL_SURFACE('',#223,5.);
#438=CYLINDRICAL_SURFACE('',#230,4.5);
#439=CYLINDRICAL_SURFACE('',#235,0.9);
#440=CLOSED_SHELL('',(#200,#201,#202,#203,#204,#205,#206,#207,#208,#209,
#210,#211,#212));
#441=MANIFOLD_SOLID_BREP('',#440);
#442=ADVANCED_BREP_SHAPE_REPRESENTATION('',(#441),#53);
ENDSEC;
END-ISO-10303-21;
