ISO-10303-21;
HEADER;
/* Generated by software containing ST-Developer
 * from STEP Tools, Inc. (www.steptools.com) 
 */

FILE_DESCRIPTION(
/* description */ ('Alibre Inc.'),
/* implementation_level */ '2;1');

FILE_NAME(
/* name */ 'export-CE813576-1196-4ACB-AFCB-7CCC4396457C',
/* time_stamp */ '2023-08-17T11:31:11+02:00',
/* author */ (''),
/* organization */ (''),
/* preprocessor_version */ 'ST-DEVELOPER v17',
/* originating_system */ 'Alibre',
/* authorisation */ '');

FILE_SCHEMA (('AUTOMOTIVE_DESIGN'));
ENDSEC;

DATA;
#10=STYLED_ITEM('NAME_0',(#18),#680);
#11=MECHANICAL_DESIGN_GEOMETRIC_PRESENTATION_REPRESENTATION('NAME_0',(#10),
#33);
#12=COLOUR_RGB('',0.686274509803922,0.686274509803922,0.686274509803922);
#13=FILL_AREA_STYLE_COLOUR('NAME_0',#12);
#14=FILL_AREA_STYLE('NAME_0',(#13));
#15=SURFACE_STYLE_FILL_AREA(#14);
#16=SURFACE_SIDE_STYLE('NAME_0',(#15));
#17=SURFACE_STYLE_USAGE(.POSITIVE.,#16);
#18=PRESENTATION_STYLE_ASSIGNMENT((#17));
#19=PRODUCT_DEFINITION_CONTEXT('part definition',#26,'design');
#20=SHAPE_DEFINITION_REPRESENTATION(#21,#681);
#21=PRODUCT_DEFINITION_SHAPE('PRODUCT_VERSION_ID',
'PRODUCT_VERSION_DESCR',#22);
#22=PRODUCT_DEFINITION('PRODUCT_VERSION_ID','PRODUCT_VERSION_DESCR',#23,
#19);
#23=PRODUCT_DEFINITION_FORMATION_WITH_SPECIFIED_SOURCE(
'PRODUCT_VERSION_ID','PRODUCT_VERSION_DESCR',#28,.MADE.);
#24=PRODUCT_RELATED_PRODUCT_CATEGORY('part','part',(#28));
#25=APPLICATION_PROTOCOL_DEFINITION('Draft International Standard',
'automotive_design',1994,#26);
#26=APPLICATION_CONTEXT('automotive_Design');
#27=PRODUCT_CONTEXT('3D Mechanical Parts',#26,'mechanical');
#28=PRODUCT('Cylinder head screw DIN 912 M5x16 07160.050.016(High)',
'5293 M5x16 DIN 912 metric bolt','',(#27));
#29=(
LENGTH_UNIT()
NAMED_UNIT(*)
SI_UNIT(.MILLI.,.METRE.)
);
#30=(
NAMED_UNIT(*)
PLANE_ANGLE_UNIT()
SI_UNIT($,.RADIAN.)
);
#31=(
NAMED_UNIT(*)
SI_UNIT($,.STERADIAN.)
SOLID_ANGLE_UNIT()
);
#32=UNCERTAINTY_MEASURE_WITH_UNIT(LENGTH_MEASURE(1.E-6),#29,
'DISTANCE_ACCURACY_VALUE',
'Maximum model space distance between geometric entities at asserted c
onnectivities');
#33=(
GEOMETRIC_REPRESENTATION_CONTEXT(3)
GLOBAL_UNCERTAINTY_ASSIGNED_CONTEXT((#32))
GLOBAL_UNIT_ASSIGNED_CONTEXT((#31,#30,#29))
REPRESENTATION_CONTEXT('ID1','3D')
);
#34=CYLINDRICAL_SURFACE('',#416,2.5);
#35=CYLINDRICAL_SURFACE('',#420,4.25);
#36=TOROIDAL_SURFACE('',#409,2.7,0.199999999999996);
#37=TOROIDAL_SURFACE('',#417,2.85,0.199999999999999);
#38=TOROIDAL_SURFACE('',#424,3.75,0.5);
#39=B_SPLINE_CURVE_WITH_KNOTS('',3,(#569,#570,#571,#572,#573),
 .UNSPECIFIED.,.F.,.U.,(4,1,4),(0.00251597287192115,0.00369040333954982,
0.00486483380717848),.UNSPECIFIED.);
#40=B_SPLINE_CURVE_WITH_KNOTS('',3,(#575,#576,#577,#578,#579),
 .UNSPECIFIED.,.F.,.U.,(4,1,4),(2.38074948507174E-7,0.00116642510612875,
0.00233261213730899),.UNSPECIFIED.);
#41=B_SPLINE_CURVE_WITH_KNOTS('',3,(#581,#582,#583,#584,#585),
 .UNSPECIFIED.,.F.,.U.,(4,1,4),(2.38074948506978E-7,0.00116642510612875,
0.00233261213730899),.UNSPECIFIED.);
#42=B_SPLINE_CURVE_WITH_KNOTS('',3,(#587,#588,#589,#590,#591),
 .UNSPECIFIED.,.F.,.U.,(4,1,4),(0.00251597287192115,0.00369040333954982,
0.00486483380717848),.UNSPECIFIED.);
#43=B_SPLINE_CURVE_WITH_KNOTS('',3,(#593,#594,#595,#596,#597),
 .UNSPECIFIED.,.F.,.U.,(4,1,4),(2.38074948507174E-7,0.00116642510612875,
0.00233261213730899),.UNSPECIFIED.);
#44=B_SPLINE_CURVE_WITH_KNOTS('',3,(#599,#600,#601,#602,#603),
 .UNSPECIFIED.,.F.,.U.,(4,1,4),(2.38074948506978E-7,0.00116642510612875,
0.00233261213730899),.UNSPECIFIED.);
#45=CONICAL_SURFACE('',#403,2.31,1.0471975511966);
#46=CONICAL_SURFACE('',#406,2.51273416448619,0.358770670270573);
#47=CONICAL_SURFACE('',#414,2.5,0.785398163397447);
#48=CONICAL_SURFACE('',#436,2.,1.0471975511966);
#49=CIRCLE('',#394,2.);
#50=CIRCLE('',#396,2.);
#51=CIRCLE('',#398,2.);
#52=CIRCLE('',#400,2.);
#53=CIRCLE('',#402,2.);
#54=CIRCLE('',#404,2.31);
#55=CIRCLE('',#405,2.31);
#56=CIRCLE('',#407,2.51273416448619);
#57=CIRCLE('',#408,2.66273416448619);
#58=CIRCLE('',#410,0.199999999999996);
#59=CIRCLE('',#411,2.5);
#60=CIRCLE('',#413,2.0095);
#61=CIRCLE('',#415,2.5);
#62=CIRCLE('',#418,0.199999999999999);
#63=CIRCLE('',#419,2.85);
#64=CIRCLE('',#421,4.25);
#65=CIRCLE('',#422,4.25);
#66=CIRCLE('',#425,0.5);
#67=CIRCLE('',#426,3.75);
#68=CIRCLE('',#435,2.);
#69=VERTEX_POINT('',#533);
#70=VERTEX_POINT('',#534);
#71=VERTEX_POINT('',#536);
#72=VERTEX_POINT('',#540);
#73=VERTEX_POINT('',#542);
#74=VERTEX_POINT('',#546);
#75=VERTEX_POINT('',#548);
#76=VERTEX_POINT('',#552);
#77=VERTEX_POINT('',#554);
#78=VERTEX_POINT('',#558);
#79=VERTEX_POINT('',#560);
#80=VERTEX_POINT('',#564);
#81=VERTEX_POINT('',#565);
#82=VERTEX_POINT('',#567);
#83=VERTEX_POINT('',#574);
#84=VERTEX_POINT('',#580);
#85=VERTEX_POINT('',#586);
#86=VERTEX_POINT('',#592);
#87=VERTEX_POINT('',#598);
#88=VERTEX_POINT('',#604);
#89=VERTEX_POINT('',#607);
#90=VERTEX_POINT('',#608);
#91=VERTEX_POINT('',#610);
#92=VERTEX_POINT('',#612);
#93=VERTEX_POINT('',#615);
#94=VERTEX_POINT('',#619);
#95=VERTEX_POINT('',#620);
#96=VERTEX_POINT('',#623);
#97=VERTEX_POINT('',#625);
#98=VERTEX_POINT('',#630);
#99=VERTEX_POINT('',#634);
#100=VERTEX_POINT('',#635);
#101=VERTEX_POINT('',#641);
#102=VERTEX_POINT('',#646);
#103=VERTEX_POINT('',#663);
#104=VECTOR('',#438,1.);
#105=VECTOR('',#441,1.);
#106=VECTOR('',#443,1.);
#107=VECTOR('',#446,1.);
#108=VECTOR('',#448,1.);
#109=VECTOR('',#451,1.);
#110=VECTOR('',#453,1.);
#111=VECTOR('',#456,1.);
#112=VECTOR('',#458,1.);
#113=VECTOR('',#461,1.);
#114=VECTOR('',#464,1.);
#115=VECTOR('',#471,1.);
#116=VECTOR('',#486,1.);
#117=VECTOR('',#491,1.);
#118=VECTOR('',#499,1.);
#119=VECTOR('',#512,1.);
#120=VECTOR('',#513,1.);
#121=VECTOR('',#514,1.);
#122=VECTOR('',#516,1.);
#123=VECTOR('',#518,1.);
#124=VECTOR('',#520,1.);
#125=VECTOR('',#522,1.);
#126=VECTOR('',#524,1.);
#127=VECTOR('',#530,1.);
#128=LINE('',#532,#104);
#129=LINE('',#537,#105);
#130=LINE('',#539,#106);
#131=LINE('',#543,#107);
#132=LINE('',#545,#108);
#133=LINE('',#549,#109);
#134=LINE('',#551,#110);
#135=LINE('',#555,#111);
#136=LINE('',#557,#112);
#137=LINE('',#561,#113);
#138=LINE('',#563,#114);
#139=LINE('',#606,#115);
#140=LINE('',#622,#116);
#141=LINE('',#627,#117);
#142=LINE('',#633,#118);
#143=LINE('',#645,#119);
#144=LINE('',#647,#120);
#145=LINE('',#648,#121);
#146=LINE('',#650,#122);
#147=LINE('',#652,#123);
#148=LINE('',#654,#124);
#149=LINE('',#656,#125);
#150=LINE('',#658,#126);
#151=LINE('',#662,#127);
#152=EDGE_CURVE('',#69,#70,#128,.T.);
#153=EDGE_CURVE('',#69,#71,#49,.T.);
#154=EDGE_CURVE('',#70,#71,#129,.T.);
#155=EDGE_CURVE('',#71,#72,#130,.T.);
#156=EDGE_CURVE('',#71,#73,#50,.T.);
#157=EDGE_CURVE('',#72,#73,#131,.T.);
#158=EDGE_CURVE('',#73,#74,#132,.T.);
#159=EDGE_CURVE('',#73,#75,#51,.T.);
#160=EDGE_CURVE('',#74,#75,#133,.T.);
#161=EDGE_CURVE('',#75,#76,#134,.T.);
#162=EDGE_CURVE('',#75,#77,#52,.T.);
#163=EDGE_CURVE('',#76,#77,#135,.T.);
#164=EDGE_CURVE('',#77,#78,#136,.T.);
#165=EDGE_CURVE('',#77,#79,#53,.T.);
#166=EDGE_CURVE('',#78,#79,#137,.T.);
#167=EDGE_CURVE('',#80,#81,#138,.T.);
#168=EDGE_CURVE('',#80,#82,#54,.T.);
#169=EDGE_CURVE('',#82,#80,#55,.T.);
#170=EDGE_CURVE('',#81,#83,#39,.T.);
#171=EDGE_CURVE('',#83,#84,#40,.T.);
#172=EDGE_CURVE('',#84,#85,#41,.T.);
#173=EDGE_CURVE('',#85,#86,#42,.T.);
#174=EDGE_CURVE('',#86,#87,#43,.T.);
#175=EDGE_CURVE('',#87,#88,#44,.T.);
#176=EDGE_CURVE('',#88,#81,#39,.T.);
#177=EDGE_CURVE('',#89,#90,#139,.T.);
#178=EDGE_CURVE('',#91,#90,#56,.T.);
#179=EDGE_CURVE('',#90,#91,#56,.T.);
#180=EDGE_CURVE('',#89,#92,#57,.T.);
#181=EDGE_CURVE('',#92,#89,#57,.T.);
#182=EDGE_CURVE('',#91,#93,#58,.T.);
#183=EDGE_CURVE('',#93,#93,#59,.T.);
#184=EDGE_CURVE('',#94,#95,#60,.T.);
#185=EDGE_CURVE('',#95,#94,#60,.T.);
#186=EDGE_CURVE('',#96,#95,#140,.T.);
#187=EDGE_CURVE('',#96,#97,#61,.T.);
#188=EDGE_CURVE('',#97,#96,#61,.T.);
#189=EDGE_CURVE('',#97,#93,#141,.T.);
#190=EDGE_CURVE('',#98,#92,#62,.T.);
#191=EDGE_CURVE('',#98,#98,#63,.T.);
#192=EDGE_CURVE('',#99,#100,#142,.T.);
#193=EDGE_CURVE('',#100,#100,#64,.T.);
#194=EDGE_CURVE('',#99,#99,#65,.T.);
#195=EDGE_CURVE('',#100,#101,#66,.T.);
#196=EDGE_CURVE('',#101,#101,#67,.T.);
#197=EDGE_CURVE('',#102,#88,#143,.T.);
#198=EDGE_CURVE('',#102,#69,#144,.T.);
#199=EDGE_CURVE('',#70,#83,#145,.T.);
#200=EDGE_CURVE('',#72,#84,#146,.T.);
#201=EDGE_CURVE('',#74,#85,#147,.T.);
#202=EDGE_CURVE('',#76,#86,#148,.T.);
#203=EDGE_CURVE('',#78,#87,#149,.T.);
#204=EDGE_CURVE('',#79,#102,#150,.T.);
#205=EDGE_CURVE('',#79,#69,#68,.T.);
#206=EDGE_CURVE('',#69,#103,#151,.T.);
#207=ORIENTED_EDGE('',*,*,#152,.F.);
#208=ORIENTED_EDGE('',*,*,#153,.T.);
#209=ORIENTED_EDGE('',*,*,#154,.F.);
#210=ORIENTED_EDGE('',*,*,#155,.F.);
#211=ORIENTED_EDGE('',*,*,#156,.T.);
#212=ORIENTED_EDGE('',*,*,#157,.F.);
#213=ORIENTED_EDGE('',*,*,#158,.F.);
#214=ORIENTED_EDGE('',*,*,#159,.T.);
#215=ORIENTED_EDGE('',*,*,#160,.F.);
#216=ORIENTED_EDGE('',*,*,#161,.F.);
#217=ORIENTED_EDGE('',*,*,#162,.T.);
#218=ORIENTED_EDGE('',*,*,#163,.F.);
#219=ORIENTED_EDGE('',*,*,#164,.F.);
#220=ORIENTED_EDGE('',*,*,#165,.T.);
#221=ORIENTED_EDGE('',*,*,#166,.F.);
#222=ORIENTED_EDGE('',*,*,#167,.F.);
#223=ORIENTED_EDGE('',*,*,#168,.T.);
#224=ORIENTED_EDGE('',*,*,#169,.T.);
#225=ORIENTED_EDGE('',*,*,#167,.T.);
#226=ORIENTED_EDGE('',*,*,#170,.T.);
#227=ORIENTED_EDGE('',*,*,#171,.T.);
#228=ORIENTED_EDGE('',*,*,#172,.T.);
#229=ORIENTED_EDGE('',*,*,#173,.T.);
#230=ORIENTED_EDGE('',*,*,#174,.T.);
#231=ORIENTED_EDGE('',*,*,#175,.T.);
#232=ORIENTED_EDGE('',*,*,#176,.T.);
#233=ORIENTED_EDGE('',*,*,#177,.T.);
#234=ORIENTED_EDGE('',*,*,#178,.F.);
#235=ORIENTED_EDGE('',*,*,#179,.F.);
#236=ORIENTED_EDGE('',*,*,#177,.F.);
#237=ORIENTED_EDGE('',*,*,#180,.T.);
#238=ORIENTED_EDGE('',*,*,#181,.T.);
#239=ORIENTED_EDGE('',*,*,#182,.F.);
#240=ORIENTED_EDGE('',*,*,#178,.T.);
#241=ORIENTED_EDGE('',*,*,#179,.T.);
#242=ORIENTED_EDGE('',*,*,#182,.T.);
#243=ORIENTED_EDGE('',*,*,#183,.T.);
#244=ORIENTED_EDGE('',*,*,#184,.T.);
#245=ORIENTED_EDGE('',*,*,#185,.T.);
#246=ORIENTED_EDGE('',*,*,#186,.T.);
#247=ORIENTED_EDGE('',*,*,#184,.F.);
#248=ORIENTED_EDGE('',*,*,#185,.F.);
#249=ORIENTED_EDGE('',*,*,#186,.F.);
#250=ORIENTED_EDGE('',*,*,#187,.T.);
#251=ORIENTED_EDGE('',*,*,#188,.T.);
#252=ORIENTED_EDGE('',*,*,#189,.T.);
#253=ORIENTED_EDGE('',*,*,#183,.F.);
#254=ORIENTED_EDGE('',*,*,#189,.F.);
#255=ORIENTED_EDGE('',*,*,#187,.F.);
#256=ORIENTED_EDGE('',*,*,#188,.F.);
#257=ORIENTED_EDGE('',*,*,#190,.F.);
#258=ORIENTED_EDGE('',*,*,#191,.T.);
#259=ORIENTED_EDGE('',*,*,#190,.T.);
#260=ORIENTED_EDGE('',*,*,#180,.F.);
#261=ORIENTED_EDGE('',*,*,#181,.F.);
#262=ORIENTED_EDGE('',*,*,#192,.T.);
#263=ORIENTED_EDGE('',*,*,#193,.T.);
#264=ORIENTED_EDGE('',*,*,#192,.F.);
#265=ORIENTED_EDGE('',*,*,#194,.F.);
#266=ORIENTED_EDGE('',*,*,#191,.F.);
#267=ORIENTED_EDGE('',*,*,#194,.T.);
#268=ORIENTED_EDGE('',*,*,#195,.T.);
#269=ORIENTED_EDGE('',*,*,#196,.T.);
#270=ORIENTED_EDGE('',*,*,#195,.F.);
#271=ORIENTED_EDGE('',*,*,#193,.F.);
#272=ORIENTED_EDGE('',*,*,#196,.F.);
#273=ORIENTED_EDGE('',*,*,#168,.F.);
#274=ORIENTED_EDGE('',*,*,#169,.F.);
#275=ORIENTED_EDGE('',*,*,#170,.F.);
#276=ORIENTED_EDGE('',*,*,#176,.F.);
#277=ORIENTED_EDGE('',*,*,#197,.F.);
#278=ORIENTED_EDGE('',*,*,#198,.T.);
#279=ORIENTED_EDGE('',*,*,#152,.T.);
#280=ORIENTED_EDGE('',*,*,#199,.T.);
#281=ORIENTED_EDGE('',*,*,#171,.F.);
#282=ORIENTED_EDGE('',*,*,#199,.F.);
#283=ORIENTED_EDGE('',*,*,#154,.T.);
#284=ORIENTED_EDGE('',*,*,#155,.T.);
#285=ORIENTED_EDGE('',*,*,#200,.T.);
#286=ORIENTED_EDGE('',*,*,#172,.F.);
#287=ORIENTED_EDGE('',*,*,#200,.F.);
#288=ORIENTED_EDGE('',*,*,#157,.T.);
#289=ORIENTED_EDGE('',*,*,#158,.T.);
#290=ORIENTED_EDGE('',*,*,#201,.T.);
#291=ORIENTED_EDGE('',*,*,#173,.F.);
#292=ORIENTED_EDGE('',*,*,#201,.F.);
#293=ORIENTED_EDGE('',*,*,#160,.T.);
#294=ORIENTED_EDGE('',*,*,#161,.T.);
#295=ORIENTED_EDGE('',*,*,#202,.T.);
#296=ORIENTED_EDGE('',*,*,#174,.F.);
#297=ORIENTED_EDGE('',*,*,#202,.F.);
#298=ORIENTED_EDGE('',*,*,#163,.T.);
#299=ORIENTED_EDGE('',*,*,#164,.T.);
#300=ORIENTED_EDGE('',*,*,#203,.T.);
#301=ORIENTED_EDGE('',*,*,#175,.F.);
#302=ORIENTED_EDGE('',*,*,#203,.F.);
#303=ORIENTED_EDGE('',*,*,#166,.T.);
#304=ORIENTED_EDGE('',*,*,#204,.T.);
#305=ORIENTED_EDGE('',*,*,#197,.T.);
#306=ORIENTED_EDGE('',*,*,#204,.F.);
#307=ORIENTED_EDGE('',*,*,#205,.T.);
#308=ORIENTED_EDGE('',*,*,#198,.F.);
#309=ORIENTED_EDGE('',*,*,#206,.F.);
#310=ORIENTED_EDGE('',*,*,#205,.F.);
#311=ORIENTED_EDGE('',*,*,#165,.F.);
#312=ORIENTED_EDGE('',*,*,#162,.F.);
#313=ORIENTED_EDGE('',*,*,#159,.F.);
#314=ORIENTED_EDGE('',*,*,#156,.F.);
#315=ORIENTED_EDGE('',*,*,#153,.F.);
#316=ORIENTED_EDGE('',*,*,#206,.T.);
#317=EDGE_LOOP('',(#207,#208,#209));
#318=EDGE_LOOP('',(#210,#211,#212));
#319=EDGE_LOOP('',(#213,#214,#215));
#320=EDGE_LOOP('',(#216,#217,#218));
#321=EDGE_LOOP('',(#219,#220,#221));
#322=EDGE_LOOP('',(#222,#223,#224,#225,#226,#227,#228,#229,#230,#231,#232));
#323=EDGE_LOOP('',(#233,#234,#235,#236,#237,#238));
#324=EDGE_LOOP('',(#239,#240,#241,#242,#243));
#325=EDGE_LOOP('',(#244,#245));
#326=EDGE_LOOP('',(#246,#247,#248,#249,#250,#251));
#327=EDGE_LOOP('',(#252,#253,#254,#255,#256));
#328=EDGE_LOOP('',(#257,#258,#259,#260,#261));
#329=EDGE_LOOP('',(#262,#263,#264,#265));
#330=EDGE_LOOP('',(#266));
#331=EDGE_LOOP('',(#267));
#332=EDGE_LOOP('',(#268,#269,#270,#271));
#333=EDGE_LOOP('',(#272));
#334=EDGE_LOOP('',(#273,#274));
#335=EDGE_LOOP('',(#275,#276,#277,#278,#279,#280));
#336=EDGE_LOOP('',(#281,#282,#283,#284,#285));
#337=EDGE_LOOP('',(#286,#287,#288,#289,#290));
#338=EDGE_LOOP('',(#291,#292,#293,#294,#295));
#339=EDGE_LOOP('',(#296,#297,#298,#299,#300));
#340=EDGE_LOOP('',(#301,#302,#303,#304,#305));
#341=EDGE_LOOP('',(#306,#307,#308));
#342=EDGE_LOOP('',(#309,#310,#311,#312,#313,#314,#315,#316));
#343=FACE_BOUND('',#317,.T.);
#344=FACE_BOUND('',#318,.T.);
#345=FACE_BOUND('',#319,.T.);
#346=FACE_BOUND('',#320,.T.);
#347=FACE_BOUND('',#321,.T.);
#348=FACE_BOUND('',#322,.T.);
#349=FACE_BOUND('',#323,.T.);
#350=FACE_BOUND('',#324,.T.);
#351=FACE_BOUND('',#325,.T.);
#352=FACE_BOUND('',#326,.T.);
#353=FACE_BOUND('',#327,.T.);
#354=FACE_BOUND('',#328,.T.);
#355=FACE_BOUND('',#329,.T.);
#356=FACE_BOUND('',#330,.T.);
#357=FACE_BOUND('',#331,.T.);
#358=FACE_BOUND('',#332,.T.);
#359=FACE_BOUND('',#333,.T.);
#360=FACE_BOUND('',#334,.T.);
#361=FACE_BOUND('',#335,.T.);
#362=FACE_BOUND('',#336,.T.);
#363=FACE_BOUND('',#337,.T.);
#364=FACE_BOUND('',#338,.T.);
#365=FACE_BOUND('',#339,.T.);
#366=FACE_BOUND('',#340,.T.);
#367=FACE_BOUND('',#341,.T.);
#368=FACE_BOUND('',#342,.T.);
#369=ADVANCED_FACE('',(#343),#664,.T.);
#370=ADVANCED_FACE('',(#344),#665,.T.);
#371=ADVANCED_FACE('',(#345),#666,.T.);
#372=ADVANCED_FACE('',(#346),#667,.T.);
#373=ADVANCED_FACE('',(#347),#668,.T.);
#374=ADVANCED_FACE('',(#348),#45,.F.);
#375=ADVANCED_FACE('',(#349),#46,.T.);
#376=ADVANCED_FACE('',(#350),#36,.F.);
#377=ADVANCED_FACE('',(#351),#669,.F.);
#378=ADVANCED_FACE('',(#352),#47,.T.);
#379=ADVANCED_FACE('',(#353),#34,.T.);
#380=ADVANCED_FACE('',(#354),#37,.F.);
#381=ADVANCED_FACE('',(#355),#35,.T.);
#382=ADVANCED_FACE('',(#356,#357),#670,.F.);
#383=ADVANCED_FACE('',(#358),#38,.T.);
#384=ADVANCED_FACE('',(#359,#360),#671,.F.);
#385=ADVANCED_FACE('',(#361),#672,.T.);
#386=ADVANCED_FACE('',(#362),#673,.T.);
#387=ADVANCED_FACE('',(#363),#674,.T.);
#388=ADVANCED_FACE('',(#364),#675,.T.);
#389=ADVANCED_FACE('',(#365),#676,.T.);
#390=ADVANCED_FACE('',(#366),#677,.T.);
#391=ADVANCED_FACE('',(#367),#678,.T.);
#392=ADVANCED_FACE('',(#368),#48,.F.);
#393=AXIS2_PLACEMENT_3D('',#531,#437,$);
#394=AXIS2_PLACEMENT_3D('',#535,#439,#440);
#395=AXIS2_PLACEMENT_3D('',#538,#442,$);
#396=AXIS2_PLACEMENT_3D('',#541,#444,#445);
#397=AXIS2_PLACEMENT_3D('',#544,#447,$);
#398=AXIS2_PLACEMENT_3D('',#547,#449,#450);
#399=AXIS2_PLACEMENT_3D('',#550,#452,$);
#400=AXIS2_PLACEMENT_3D('',#553,#454,#455);
#401=AXIS2_PLACEMENT_3D('',#556,#457,$);
#402=AXIS2_PLACEMENT_3D('',#559,#459,#460);
#403=AXIS2_PLACEMENT_3D('',#562,#462,#463);
#404=AXIS2_PLACEMENT_3D('',#566,#465,#466);
#405=AXIS2_PLACEMENT_3D('',#568,#467,#468);
#406=AXIS2_PLACEMENT_3D('',#605,#469,#470);
#407=AXIS2_PLACEMENT_3D('',#609,#472,#473);
#408=AXIS2_PLACEMENT_3D('',#611,#474,#475);
#409=AXIS2_PLACEMENT_3D('',#613,#476,$);
#410=AXIS2_PLACEMENT_3D('',#614,#477,#478);
#411=AXIS2_PLACEMENT_3D('',#616,#479,#480);
#412=AXIS2_PLACEMENT_3D('',#617,#481,$);
#413=AXIS2_PLACEMENT_3D('',#618,#482,#483);
#414=AXIS2_PLACEMENT_3D('',#621,#484,#485);
#415=AXIS2_PLACEMENT_3D('',#624,#487,#488);
#416=AXIS2_PLACEMENT_3D('',#626,#489,#490);
#417=AXIS2_PLACEMENT_3D('',#628,#492,$);
#418=AXIS2_PLACEMENT_3D('',#629,#493,#494);
#419=AXIS2_PLACEMENT_3D('',#631,#495,#496);
#420=AXIS2_PLACEMENT_3D('',#632,#497,#498);
#421=AXIS2_PLACEMENT_3D('',#636,#500,#501);
#422=AXIS2_PLACEMENT_3D('',#637,#502,#503);
#423=AXIS2_PLACEMENT_3D('',#638,#504,$);
#424=AXIS2_PLACEMENT_3D('',#639,#505,$);
#425=AXIS2_PLACEMENT_3D('',#640,#506,#507);
#426=AXIS2_PLACEMENT_3D('',#642,#508,#509);
#427=AXIS2_PLACEMENT_3D('',#643,#510,$);
#428=AXIS2_PLACEMENT_3D('',#644,#511,$);
#429=AXIS2_PLACEMENT_3D('',#649,#515,$);
#430=AXIS2_PLACEMENT_3D('',#651,#517,$);
#431=AXIS2_PLACEMENT_3D('',#653,#519,$);
#432=AXIS2_PLACEMENT_3D('',#655,#521,$);
#433=AXIS2_PLACEMENT_3D('',#657,#523,$);
#434=AXIS2_PLACEMENT_3D('',#659,#525,$);
#435=AXIS2_PLACEMENT_3D('',#660,#526,#527);
#436=AXIS2_PLACEMENT_3D('',#661,#528,#529);
#437=DIRECTION('',(-1.,0.,0.));
#438=DIRECTION('',(0.,-1.,0.));
#439=DIRECTION('',(1.,0.,0.));
#440=DIRECTION('',(0.,0.,2.));
#441=DIRECTION('',(0.,-0.500000000000003,-0.866025403784437));
#442=DIRECTION('',(-1.,0.,0.));
#443=DIRECTION('',(0.,-0.499999999999996,-0.866025403784441));
#444=DIRECTION('',(1.,0.,0.));
#445=DIRECTION('',(0.,0.,2.));
#446=DIRECTION('',(0.,0.499999999999996,-0.866025403784441));
#447=DIRECTION('',(-1.,0.,0.));
#448=DIRECTION('',(0.,0.500000000000003,-0.866025403784437));
#449=DIRECTION('',(1.,0.,0.));
#450=DIRECTION('',(0.,0.,2.));
#451=DIRECTION('',(0.,1.,0.));
#452=DIRECTION('',(-1.,0.,0.));
#453=DIRECTION('',(0.,1.,0.));
#454=DIRECTION('',(1.,0.,0.));
#455=DIRECTION('',(0.,0.,2.));
#456=DIRECTION('',(0.,0.500000000000003,0.866025403784437));
#457=DIRECTION('',(-1.,0.,0.));
#458=DIRECTION('',(0.,0.499999999999996,0.866025403784441));
#459=DIRECTION('',(1.,0.,0.));
#460=DIRECTION('',(0.,0.,2.));
#461=DIRECTION('',(0.,-0.499999999999996,0.866025403784441));
#462=DIRECTION('',(-1.,0.,0.));
#463=DIRECTION('',(0.,0.,2.31));
#464=DIRECTION('',(0.499999999999998,0.,-0.86602540378444));
#465=DIRECTION('',(-1.,0.,0.));
#466=DIRECTION('',(0.,0.,-2.31));
#467=DIRECTION('',(-1.,0.,0.));
#468=DIRECTION('',(0.,0.,-2.31));
#469=DIRECTION('',(-1.,0.,0.));
#470=DIRECTION('',(0.,0.,2.51273416448619));
#471=DIRECTION('',(0.936329177569044,0.,-0.351123441588392));
#472=DIRECTION('',(1.,0.,0.));
#473=DIRECTION('',(0.,0.,-2.51273416448619));
#474=DIRECTION('',(1.,0.,0.));
#475=DIRECTION('',(0.,0.,-2.66273416448619));
#476=DIRECTION('',(1.,0.,0.));
#477=DIRECTION('',(0.,1.,0.));
#478=DIRECTION('',(0.,0.,-0.199999999999996));
#479=DIRECTION('',(-1.,0.,0.));
#480=DIRECTION('',(0.,0.,-2.5));
#481=DIRECTION('',(-1.,0.,0.));
#482=DIRECTION('',(1.,0.,0.));
#483=DIRECTION('',(0.,0.,-2.0095));
#484=DIRECTION('',(-1.,0.,0.));
#485=DIRECTION('',(0.,0.,2.5));
#486=DIRECTION('',(0.707106781186549,0.,-0.707106781186546));
#487=DIRECTION('',(1.,0.,0.));
#488=DIRECTION('',(0.,0.,-2.5));
#489=DIRECTION('',(1.,0.,0.));
#490=DIRECTION('',(0.,0.,-2.5));
#491=DIRECTION('',(-1.,0.,0.));
#492=DIRECTION('',(1.,0.,0.));
#493=DIRECTION('',(0.,1.,0.));
#494=DIRECTION('',(0.,0.,-0.199999999999999));
#495=DIRECTION('',(1.,0.,0.));
#496=DIRECTION('',(0.,0.,-2.85));
#497=DIRECTION('',(1.,0.,0.));
#498=DIRECTION('',(0.,0.,-4.25));
#499=DIRECTION('',(-1.,0.,0.));
#500=DIRECTION('',(1.,0.,0.));
#501=DIRECTION('',(0.,0.,-4.25));
#502=DIRECTION('',(1.,0.,0.));
#503=DIRECTION('',(0.,0.,-4.25));
#504=DIRECTION('',(-1.,0.,0.));
#505=DIRECTION('',(1.,0.,0.));
#506=DIRECTION('',(0.,1.,0.));
#507=DIRECTION('',(0.,0.,-0.5));
#508=DIRECTION('',(1.,0.,0.));
#509=DIRECTION('',(0.,0.,-3.75));
#510=DIRECTION('',(1.,0.,0.));
#511=DIRECTION('',(0.,0.,-1.));
#512=DIRECTION('',(-1.,0.,0.));
#513=DIRECTION('',(0.,-1.,0.));
#514=DIRECTION('',(-1.,0.,0.));
#515=DIRECTION('',(0.,0.866025403784439,-0.5));
#516=DIRECTION('',(-1.,0.,0.));
#517=DIRECTION('',(0.,0.866025403784439,0.5));
#518=DIRECTION('',(-1.,0.,0.));
#519=DIRECTION('',(0.,0.,1.));
#520=DIRECTION('',(-1.,0.,0.));
#521=DIRECTION('',(0.,-0.866025403784439,0.5));
#522=DIRECTION('',(-1.,0.,0.));
#523=DIRECTION('',(0.,-0.866025403784439,-0.5));
#524=DIRECTION('',(0.,-0.500000000000003,0.866025403784437));
#525=DIRECTION('',(-1.,0.,0.));
#526=DIRECTION('',(1.,0.,0.));
#527=DIRECTION('',(0.,0.,2.));
#528=DIRECTION('',(-1.,0.,0.));
#529=DIRECTION('',(0.,0.,2.));
#530=DIRECTION('',(0.499999999999998,0.,-0.86602540378444));
#531=CARTESIAN_POINT('',(-2.5,2.,0.));
#532=CARTESIAN_POINT('',(-2.5,0.,2.));
#533=CARTESIAN_POINT('',(-2.5,2.44929359829471E-16,2.));
#534=CARTESIAN_POINT('',(-2.5,-1.15470053837925,2.));
#535=CARTESIAN_POINT('',(-2.5,0.,0.));
#536=CARTESIAN_POINT('',(-2.5,-1.73205080756888,0.999999999999999));
#537=CARTESIAN_POINT('',(-2.5,-1.15470053837925,2.));
#538=CARTESIAN_POINT('',(-2.5,2.,0.));
#539=CARTESIAN_POINT('',(-2.5,-1.73205080756888,1.));
#540=CARTESIAN_POINT('',(-2.5,-2.3094010767585,5.55111512312578E-17));
#541=CARTESIAN_POINT('',(-2.5,0.,0.));
#542=CARTESIAN_POINT('',(-2.5,-1.73205080756888,-0.999999999999999));
#543=CARTESIAN_POINT('',(-2.5,-2.3094010767585,0.));
#544=CARTESIAN_POINT('',(-2.5,2.,0.));
#545=CARTESIAN_POINT('',(-2.5,-1.73205080756888,-1.));
#546=CARTESIAN_POINT('',(-2.5,-1.15470053837925,-2.));
#547=CARTESIAN_POINT('',(-2.5,0.,0.));
#548=CARTESIAN_POINT('',(-2.5,0.,-2.));
#549=CARTESIAN_POINT('',(-2.5,-1.15470053837925,-2.));
#550=CARTESIAN_POINT('',(-2.5,2.,0.));
#551=CARTESIAN_POINT('',(-2.5,0.,-2.));
#552=CARTESIAN_POINT('',(-2.5,1.15470053837925,-2.));
#553=CARTESIAN_POINT('',(-2.5,0.,0.));
#554=CARTESIAN_POINT('',(-2.5,1.73205080756888,-0.999999999999999));
#555=CARTESIAN_POINT('',(-2.5,1.15470053837925,-2.));
#556=CARTESIAN_POINT('',(-2.5,2.,0.));
#557=CARTESIAN_POINT('',(-2.5,1.73205080756888,-1.));
#558=CARTESIAN_POINT('',(-2.5,2.3094010767585,-5.55111512312578E-17));
#559=CARTESIAN_POINT('',(-2.5,0.,0.));
#560=CARTESIAN_POINT('',(-2.5,1.73205080756888,0.999999999999999));
#561=CARTESIAN_POINT('',(-2.5,2.3094010767585,0.));
#562=CARTESIAN_POINT('',(-5.,0.,0.));
#563=CARTESIAN_POINT('',(-4.72601551961948,0.,1.83544495949557));
#564=CARTESIAN_POINT('',(-5.,0.,2.31));
#565=CARTESIAN_POINT('',(-4.8210214309207,0.000168354901637557,2.00000001071699));
#566=CARTESIAN_POINT('',(-5.,0.,0.));
#567=CARTESIAN_POINT('',(-5.,1.41446705301519E-16,-2.31));
#568=CARTESIAN_POINT('',(-5.,0.,0.));
#569=CARTESIAN_POINT('',(-4.99965421150528,1.15470053837925,2.));
#570=CARTESIAN_POINT('',(-4.89108344265779,0.778600362657918,2.));
#571=CARTESIAN_POINT('',(-4.75092319965407,0.00079890155617405,2.));
#572=CARTESIAN_POINT('',(-4.89115588969516,-0.778851326557143,2.));
#573=CARTESIAN_POINT('',(-4.99965421150526,-1.15470053837926,2.));
#574=CARTESIAN_POINT('',(-4.99965421150439,-1.15470053837894,1.99999999999999));
#575=CARTESIAN_POINT('',(-4.99965421150356,-1.15470053837913,2.00000000000022));
#576=CARTESIAN_POINT('',(-4.89080048737698,-1.34324071915941,1.67343882762055));
#577=CARTESIAN_POINT('',(-4.75131154146156,-1.72996460230078,1.00361341351936));
#578=CARTESIAN_POINT('',(-4.89066489950268,-2.12062605088962,0.326967936005043));
#579=CARTESIAN_POINT('',(-4.99965421150441,-2.30940107675858,-1.27250759313784E-13));
#580=CARTESIAN_POINT('',(-4.99965421150439,-2.30940107675828,4.30950998371493E-14));
#581=CARTESIAN_POINT('',(-4.99965421150356,-2.30940107675863,2.16308338160367E-13));
#582=CARTESIAN_POINT('',(-4.89080048737698,-2.12086089597835,-0.326561172379455));
#583=CARTESIAN_POINT('',(-4.75131154146156,-1.73413701283698,-0.996386586480635));
#584=CARTESIAN_POINT('',(-4.89066489950268,-1.34347556424814,-1.67303206399496));
#585=CARTESIAN_POINT('',(-4.99965421150441,-1.15470053837918,-2.00000000000013));
#586=CARTESIAN_POINT('',(-4.99965421150483,-1.15470053837908,-2.00000000000001));
#587=CARTESIAN_POINT('',(-4.99965421150528,-1.15470053837925,-2.));
#588=CARTESIAN_POINT('',(-4.89108344265779,-0.778600362657918,-2.));
#589=CARTESIAN_POINT('',(-4.75092319965407,-0.00079890155617405,-2.));
#590=CARTESIAN_POINT('',(-4.89115588969516,0.778851326557143,-2.));
#591=CARTESIAN_POINT('',(-4.99965421150526,1.15470053837926,-2.));
#592=CARTESIAN_POINT('',(-4.99965421150439,1.15470053837893,-1.99999999999999));
#593=CARTESIAN_POINT('',(-4.99965421150356,1.15470053837913,-2.00000000000022));
#594=CARTESIAN_POINT('',(-4.89080048737698,1.34324071915941,-1.67343882762055));
#595=CARTESIAN_POINT('',(-4.75131154146156,1.72996460230078,-1.00361341351936));
#596=CARTESIAN_POINT('',(-4.89066489950268,2.12062605088962,-0.326967936005043));
#597=CARTESIAN_POINT('',(-4.99965421150441,2.30940107675858,1.27250759313784E-13));
#598=CARTESIAN_POINT('',(-4.99965421150439,2.30940107675828,-4.30950998371493E-14));
#599=CARTESIAN_POINT('',(-4.99965421150356,2.30940107675863,-2.16308338160367E-13));
#600=CARTESIAN_POINT('',(-4.89080048737698,2.12086089597835,0.326561172379455));
#601=CARTESIAN_POINT('',(-4.75131154146156,1.73413701283698,0.996386586480635));
#602=CARTESIAN_POINT('',(-4.89066489950268,1.34347556424814,1.67303206399496));
#603=CARTESIAN_POINT('',(-4.99965421150441,1.15470053837918,2.00000000000013));
#604=CARTESIAN_POINT('',(-4.99965421150483,1.15470053837908,2.00000000000001));
#605=CARTESIAN_POINT('',(0.529775311682321,0.,0.));
#606=CARTESIAN_POINT('',(0.169775311682321,0.,2.64773416448619));
#607=CARTESIAN_POINT('',(0.129775311682321,1.34553695472336E-15,2.66273416448619));
#608=CARTESIAN_POINT('',(0.529775311682321,4.05943404642707E-15,2.51273416448619));
#609=CARTESIAN_POINT('',(0.529775311682321,0.,0.));
#610=CARTESIAN_POINT('',(0.529775311682321,-4.77123370384435E-15,-2.51273416448619));
#611=CARTESIAN_POINT('',(0.129775311682321,0.,0.));
#612=CARTESIAN_POINT('',(0.129775311682321,-1.50858239829927E-15,-2.66273416448619));
#613=CARTESIAN_POINT('',(0.599999999999999,0.,0.));
#614=CARTESIAN_POINT('',(0.599999999999999,0.,-2.7));
#615=CARTESIAN_POINT('',(0.6,6.10622663543837E-15,-2.5));
#616=CARTESIAN_POINT('',(0.6,0.,0.));
#617=CARTESIAN_POINT('',(16.,0.,-2.0095));
#618=CARTESIAN_POINT('',(16.,0.,0.));
#619=CARTESIAN_POINT('',(16.,-1.2304638714433E-16,-2.0095));
#620=CARTESIAN_POINT('',(16.,1.2304638714433E-16,2.0095));
#621=CARTESIAN_POINT('',(15.5095,0.,0.));
#622=CARTESIAN_POINT('',(16.04905,0.,1.96045));
#623=CARTESIAN_POINT('',(15.5095,1.53080849893419E-16,2.5));
#624=CARTESIAN_POINT('',(15.5095,0.,0.));
#625=CARTESIAN_POINT('',(15.5095,-1.53080849893419E-16,-2.5));
#626=CARTESIAN_POINT('',(16.,0.,0.));
#627=CARTESIAN_POINT('',(0.109499999999999,0.,-2.5));
#628=CARTESIAN_POINT('',(0.199999999999999,0.,0.));
#629=CARTESIAN_POINT('',(0.199999999999999,0.,-2.85));
#630=CARTESIAN_POINT('',(-4.44089209850063E-16,-3.49024337756996E-16,-2.85));
#631=CARTESIAN_POINT('',(0.,0.,0.));
#632=CARTESIAN_POINT('',(16.,0.,0.));
#633=CARTESIAN_POINT('',(-20.5,0.,-4.25));
#634=CARTESIAN_POINT('',(-4.44089209850063E-16,-5.20474889637625E-16,-4.25));
#635=CARTESIAN_POINT('',(-4.5,-5.20474889637625E-16,-4.25));
#636=CARTESIAN_POINT('',(-4.5,0.,0.));
#637=CARTESIAN_POINT('',(0.,0.,0.));
#638=CARTESIAN_POINT('',(-8.88178419700125E-16,0.,-4.25));
#639=CARTESIAN_POINT('',(-4.5,0.,0.));
#640=CARTESIAN_POINT('',(-4.5,0.,-3.75));
#641=CARTESIAN_POINT('',(-5.,-4.59242549680257E-16,-3.75));
#642=CARTESIAN_POINT('',(-5.,0.,0.));
#643=CARTESIAN_POINT('',(-5.,0.,0.));
#644=CARTESIAN_POINT('',(-2.5,1.15470053837925,2.));
#645=CARTESIAN_POINT('',(-2.5,1.15470053837925,2.));
#646=CARTESIAN_POINT('',(-2.5,1.15470053837925,2.));
#647=CARTESIAN_POINT('',(-2.5,1.15470053837925,2.));
#648=CARTESIAN_POINT('',(-2.5,-1.15470053837925,2.));
#649=CARTESIAN_POINT('',(-2.5,-1.15470053837925,2.));
#650=CARTESIAN_POINT('',(-2.5,-2.3094010767585,0.));
#651=CARTESIAN_POINT('',(-2.5,-2.3094010767585,0.));
#652=CARTESIAN_POINT('',(-2.5,-1.15470053837925,-2.));
#653=CARTESIAN_POINT('',(-2.5,-1.15470053837925,-2.));
#654=CARTESIAN_POINT('',(-2.5,1.15470053837925,-2.));
#655=CARTESIAN_POINT('',(-2.5,1.15470053837925,-2.));
#656=CARTESIAN_POINT('',(-2.5,2.3094010767585,0.));
#657=CARTESIAN_POINT('',(-2.5,2.3094010767585,0.));
#658=CARTESIAN_POINT('',(-2.5,1.73205080756888,1.));
#659=CARTESIAN_POINT('',(-2.5,2.,0.));
#660=CARTESIAN_POINT('',(-2.5,0.,0.));
#661=CARTESIAN_POINT('',(-2.5,0.,0.));
#662=CARTESIAN_POINT('',(-1.34529946162075,0.,0.));
#663=CARTESIAN_POINT('',(-1.34529946162075,0.,1.11022302462516E-16));
#664=PLANE('',#393);
#665=PLANE('',#395);
#666=PLANE('',#397);
#667=PLANE('',#399);
#668=PLANE('',#401);
#669=PLANE('',#412);
#670=PLANE('',#423);
#671=PLANE('',#427);
#672=PLANE('',#428);
#673=PLANE('',#429);
#674=PLANE('',#430);
#675=PLANE('',#431);
#676=PLANE('',#432);
#677=PLANE('',#433);
#678=PLANE('',#434);
#679=CLOSED_SHELL('',(#369,#370,#371,#372,#373,#374,#375,#376,#377,#378,
#379,#380,#381,#382,#383,#384,#385,#386,#387,#388,#389,#390,#391,#392));
#680=MANIFOLD_SOLID_BREP('',#679);
#681=ADVANCED_BREP_SHAPE_REPRESENTATION('',(#680),#33);
ENDSEC;
END-ISO-10303-21;
