ISO-10303-21;
HEADER;
/* Generated by software containing ST-Developer
 * from STEP Tools, Inc. (www.steptools.com) 
 */

FILE_DESCRIPTION(
/* description */ ('Alibre Inc.'),
/* implementation_level */ '2;1');

FILE_NAME(
/* name */ 'export-4DA9B426-0669-4A53-B1BA-B408AD1278A9',
/* time_stamp */ '2020-08-11T09:07:41+02:00',
/* author */ (''),
/* organization */ (''),
/* preprocessor_version */ 'ST-DEVELOPER v17',
/* originating_system */ 'Alibre',
/* authorisation */ '');

FILE_SCHEMA (('AUTOMOTIVE_DESIGN'));
ENDSEC;

DATA;
#10=STYLED_ITEM('NAME_0',(#45),#622);
#11=STYLED_ITEM('NAME_0',(#46),#369);
#12=STYLED_ITEM('NAME_0',(#46),#370);
#13=STYLED_ITEM('NAME_0',(#46),#371);
#14=STYLED_ITEM('NAME_0',(#46),#372);
#15=STYLED_ITEM('NAME_0',(#46),#373);
#16=STYLED_ITEM('NAME_0',(#46),#374);
#17=STYLED_ITEM('NAME_0',(#46),#375);
#18=STYLED_ITEM('NAME_0',(#46),#376);
#19=STYLED_ITEM('NAME_0',(#46),#377);
#20=STYLED_ITEM('NAME_0',(#46),#378);
#21=STYLED_ITEM('NAME_0',(#46),#379);
#22=STYLED_ITEM('NAME_0',(#46),#380);
#23=STYLED_ITEM('NAME_0',(#46),#381);
#24=STYLED_ITEM('NAME_0',(#46),#382);
#25=STYLED_ITEM('NAME_0',(#46),#383);
#26=STYLED_ITEM('NAME_0',(#46),#384);
#27=STYLED_ITEM('NAME_0',(#46),#385);
#28=STYLED_ITEM('NAME_0',(#46),#386);
#29=STYLED_ITEM('NAME_0',(#46),#387);
#30=STYLED_ITEM('NAME_0',(#46),#388);
#31=STYLED_ITEM('NAME_0',(#46),#389);
#32=MECHANICAL_DESIGN_GEOMETRIC_PRESENTATION_REPRESENTATION('NAME_0',(#10,
#11,#12,#13,#14,#15,#16,#17,#18,#19,#20,#21,#22,#23,#24,#25,#26,#27,#28,
#29,#30,#31),#61);
#33=COLOUR_RGB('',0.882352941176471,0.882352941176471,0.882352941176471);
#34=COLOUR_RGB('',0.686274509803922,0.686274509803922,0.686274509803922);
#35=FILL_AREA_STYLE_COLOUR('NAME_0',#33);
#36=FILL_AREA_STYLE_COLOUR('NAME_0',#34);
#37=FILL_AREA_STYLE('NAME_0',(#35));
#38=FILL_AREA_STYLE('NAME_0',(#36));
#39=SURFACE_STYLE_FILL_AREA(#37);
#40=SURFACE_STYLE_FILL_AREA(#38);
#41=SURFACE_SIDE_STYLE('NAME_0',(#39));
#42=SURFACE_SIDE_STYLE('NAME_0',(#40));
#43=SURFACE_STYLE_USAGE(.POSITIVE.,#41);
#44=SURFACE_STYLE_USAGE(.POSITIVE.,#42);
#45=PRESENTATION_STYLE_ASSIGNMENT((#43));
#46=PRESENTATION_STYLE_ASSIGNMENT((#44));
#47=PRODUCT_DEFINITION_CONTEXT('part definition',#54,'design');
#48=SHAPE_DEFINITION_REPRESENTATION(#49,#623);
#49=PRODUCT_DEFINITION_SHAPE('PRODUCT_VERSION_ID',
'PRODUCT_VERSION_DESCR',#50);
#50=PRODUCT_DEFINITION('PRODUCT_VERSION_ID','PRODUCT_VERSION_DESCR',#51,
#47);
#51=PRODUCT_DEFINITION_FORMATION_WITH_SPECIFIED_SOURCE(
'PRODUCT_VERSION_ID','PRODUCT_VERSION_DESCR',#56,.MADE.);
#52=PRODUCT_RELATED_PRODUCT_CATEGORY('part','part',(#56));
#53=APPLICATION_PROTOCOL_DEFINITION('Draft International Standard',
'automotive_design',1994,#54);
#54=APPLICATION_CONTEXT('automotive_Design');
#55=PRODUCT_CONTEXT('3D Mechanical Parts',#54,'mechanical');
#56=PRODUCT('HI_Countersunk screw ISO 10642 M4x10 51060.040.010(High)',

'5318 M4x10 - A2-70 DIN7991 ISO10642 Hexagon socket countersunk head s
crew','',(#55));
#57=(
LENGTH_UNIT()
NAMED_UNIT(*)
SI_UNIT(.MILLI.,.METRE.)
);
#58=(
NAMED_UNIT(*)
PLANE_ANGLE_UNIT()
SI_UNIT($,.RADIAN.)
);
#59=(
NAMED_UNIT(*)
SI_UNIT($,.STERADIAN.)
SOLID_ANGLE_UNIT()
);
#60=UNCERTAINTY_MEASURE_WITH_UNIT(LENGTH_MEASURE(1.E-6),#57,
'DISTANCE_ACCURACY_VALUE',
'Maximum model space distance between geometric entities at asserted c
onnectivities');
#61=(
GEOMETRIC_REPRESENTATION_CONTEXT(3)
GLOBAL_UNCERTAINTY_ASSIGNED_CONTEXT((#60))
GLOBAL_UNIT_ASSIGNED_CONTEXT((#59,#58,#57))
REPRESENTATION_CONTEXT('ID1','3D')
);
#62=TOROIDAL_SURFACE('',#423,2.2,0.2);
#63=CONICAL_SURFACE('',#397,3.765,0.7853981634);
#64=CONICAL_SURFACE('',#402,2.,0.7853981634);
#65=CONICAL_SURFACE('',#413,1.25,1.0471975512);
#66=CYLINDRICAL_SURFACE('',#395,3.765);
#67=CYLINDRICAL_SURFACE('',#399,2.);
#68=CYLINDRICAL_SURFACE('',#405,1.25);
#69=CIRCLE('',#394,3.765);
#70=CIRCLE('',#396,3.765);
#71=CIRCLE('',#398,2.0585786438);
#72=CIRCLE('',#400,2.);
#73=CIRCLE('',#401,2.);
#74=CIRCLE('',#403,1.5705);
#75=CIRCLE('',#406,1.25);
#76=CIRCLE('',#407,1.25);
#77=CIRCLE('',#408,1.25);
#78=CIRCLE('',#409,1.25);
#79=CIRCLE('',#410,1.25);
#80=CIRCLE('',#411,1.25);
#81=CIRCLE('',#412,1.25);
#82=CIRCLE('',#424,0.2);
#83=VERTEX_POINT('',#512);
#84=VERTEX_POINT('',#513);
#85=VERTEX_POINT('',#515);
#86=VERTEX_POINT('',#517);
#87=VERTEX_POINT('',#519);
#88=VERTEX_POINT('',#523);
#89=VERTEX_POINT('',#525);
#90=VERTEX_POINT('',#527);
#91=VERTEX_POINT('',#531);
#92=VERTEX_POINT('',#533);
#93=VERTEX_POINT('',#535);
#94=VERTEX_POINT('',#539);
#95=VERTEX_POINT('',#541);
#96=VERTEX_POINT('',#543);
#97=VERTEX_POINT('',#547);
#98=VERTEX_POINT('',#549);
#99=VERTEX_POINT('',#552);
#100=VERTEX_POINT('',#554);
#101=VERTEX_POINT('',#557);
#102=VERTEX_POINT('',#558);
#103=VERTEX_POINT('',#560);
#104=VERTEX_POINT('',#564);
#105=VERTEX_POINT('',#566);
#106=VERTEX_POINT('',#570);
#107=VERTEX_POINT('',#571);
#108=VERTEX_POINT('',#575);
#109=VERTEX_POINT('',#577);
#110=VERTEX_POINT('',#579);
#111=VERTEX_POINT('',#582);
#112=VERTEX_POINT('',#585);
#113=VERTEX_POINT('',#589);
#114=VERTEX_POINT('',#594);
#115=VECTOR('',#426,1.);
#116=VECTOR('',#427,1.);
#117=VECTOR('',#428,1.);
#118=VECTOR('',#429,1.);
#119=VECTOR('',#430,1.);
#120=VECTOR('',#432,1.);
#121=VECTOR('',#433,1.);
#122=VECTOR('',#434,1.);
#123=VECTOR('',#435,1.);
#124=VECTOR('',#437,1.);
#125=VECTOR('',#438,1.);
#126=VECTOR('',#439,1.);
#127=VECTOR('',#440,1.);
#128=VECTOR('',#444,1.);
#129=VECTOR('',#445,1.);
#130=VECTOR('',#446,1.);
#131=VECTOR('',#449,1.);
#132=VECTOR('',#454,1.);
#133=VECTOR('',#459,1.);
#134=VECTOR('',#466,1.);
#135=VECTOR('',#472,1.);
#136=VECTOR('',#489,1.);
#137=VECTOR('',#491,1.);
#138=VECTOR('',#492,1.);
#139=VECTOR('',#493,1.);
#140=VECTOR('',#495,1.);
#141=VECTOR('',#496,1.);
#142=VECTOR('',#497,1.);
#143=VECTOR('',#499,1.);
#144=VECTOR('',#500,1.);
#145=LINE('',#511,#115);
#146=LINE('',#514,#116);
#147=LINE('',#516,#117);
#148=LINE('',#518,#118);
#149=LINE('',#520,#119);
#150=LINE('',#522,#120);
#151=LINE('',#524,#121);
#152=LINE('',#526,#122);
#153=LINE('',#528,#123);
#154=LINE('',#530,#124);
#155=LINE('',#532,#125);
#156=LINE('',#534,#126);
#157=LINE('',#536,#127);
#158=LINE('',#540,#128);
#159=LINE('',#542,#129);
#160=LINE('',#544,#130);
#161=LINE('',#546,#131);
#162=LINE('',#551,#132);
#163=LINE('',#556,#133);
#164=LINE('',#563,#134);
#165=LINE('',#569,#135);
#166=LINE('',#584,#136);
#167=LINE('',#587,#137);
#168=LINE('',#588,#138);
#169=LINE('',#590,#139);
#170=LINE('',#592,#140);
#171=LINE('',#593,#141);
#172=LINE('',#595,#142);
#173=LINE('',#597,#143);
#174=LINE('',#598,#144);
#175=EDGE_CURVE('',#83,#84,#145,.T.);
#176=EDGE_CURVE('',#85,#84,#146,.T.);
#177=EDGE_CURVE('',#85,#86,#147,.T.);
#178=EDGE_CURVE('',#86,#87,#148,.T.);
#179=EDGE_CURVE('',#87,#83,#149,.T.);
#180=EDGE_CURVE('',#88,#83,#150,.T.);
#181=EDGE_CURVE('',#87,#89,#151,.T.);
#182=EDGE_CURVE('',#89,#90,#152,.T.);
#183=EDGE_CURVE('',#90,#88,#153,.T.);
#184=EDGE_CURVE('',#84,#91,#154,.T.);
#185=EDGE_CURVE('',#92,#91,#155,.T.);
#186=EDGE_CURVE('',#92,#93,#156,.T.);
#187=EDGE_CURVE('',#93,#85,#157,.T.);
#188=EDGE_CURVE('',#94,#94,#69,.T.);
#189=EDGE_CURVE('',#91,#95,#158,.T.);
#190=EDGE_CURVE('',#96,#88,#159,.T.);
#191=EDGE_CURVE('',#95,#96,#160,.T.);
#192=EDGE_CURVE('',#94,#97,#161,.T.);
#193=EDGE_CURVE('',#98,#97,#70,.T.);
#194=EDGE_CURVE('',#97,#98,#70,.T.);
#195=EDGE_CURVE('',#98,#99,#162,.T.);
#196=EDGE_CURVE('',#100,#99,#71,.T.);
#197=EDGE_CURVE('',#99,#100,#71,.T.);
#198=EDGE_CURVE('',#101,#102,#163,.T.);
#199=EDGE_CURVE('',#103,#102,#72,.T.);
#200=EDGE_CURVE('',#102,#103,#72,.T.);
#201=EDGE_CURVE('',#101,#101,#73,.T.);
#202=EDGE_CURVE('',#103,#104,#164,.T.);
#203=EDGE_CURVE('',#105,#104,#74,.T.);
#204=EDGE_CURVE('',#104,#105,#74,.T.);
#205=EDGE_CURVE('',#106,#107,#165,.T.);
#206=EDGE_CURVE('',#86,#106,#75,.T.);
#207=EDGE_CURVE('',#93,#86,#76,.T.);
#208=EDGE_CURVE('',#108,#93,#77,.T.);
#209=EDGE_CURVE('',#109,#108,#78,.T.);
#210=EDGE_CURVE('',#110,#109,#79,.T.);
#211=EDGE_CURVE('',#89,#110,#80,.T.);
#212=EDGE_CURVE('',#106,#89,#75,.T.);
#213=EDGE_CURVE('',#107,#111,#81,.T.);
#214=EDGE_CURVE('',#111,#107,#81,.T.);
#215=EDGE_CURVE('',#111,#112,#166,.T.);
#216=EDGE_CURVE('',#90,#110,#167,.T.);
#217=EDGE_CURVE('',#110,#113,#168,.T.);
#218=EDGE_CURVE('',#113,#96,#169,.T.);
#219=EDGE_CURVE('',#113,#109,#170,.T.);
#220=EDGE_CURVE('',#109,#114,#171,.T.);
#221=EDGE_CURVE('',#114,#95,#172,.T.);
#222=EDGE_CURVE('',#114,#108,#173,.T.);
#223=EDGE_CURVE('',#108,#92,#174,.T.);
#224=EDGE_CURVE('',#100,#101,#82,.T.);
#225=ORIENTED_EDGE('',*,*,#175,.T.);
#226=ORIENTED_EDGE('',*,*,#176,.F.);
#227=ORIENTED_EDGE('',*,*,#177,.T.);
#228=ORIENTED_EDGE('',*,*,#178,.T.);
#229=ORIENTED_EDGE('',*,*,#179,.T.);
#230=ORIENTED_EDGE('',*,*,#180,.T.);
#231=ORIENTED_EDGE('',*,*,#179,.F.);
#232=ORIENTED_EDGE('',*,*,#181,.T.);
#233=ORIENTED_EDGE('',*,*,#182,.T.);
#234=ORIENTED_EDGE('',*,*,#183,.T.);
#235=ORIENTED_EDGE('',*,*,#184,.T.);
#236=ORIENTED_EDGE('',*,*,#185,.F.);
#237=ORIENTED_EDGE('',*,*,#186,.T.);
#238=ORIENTED_EDGE('',*,*,#187,.T.);
#239=ORIENTED_EDGE('',*,*,#176,.T.);
#240=ORIENTED_EDGE('',*,*,#188,.F.);
#241=ORIENTED_EDGE('',*,*,#189,.F.);
#242=ORIENTED_EDGE('',*,*,#184,.F.);
#243=ORIENTED_EDGE('',*,*,#175,.F.);
#244=ORIENTED_EDGE('',*,*,#180,.F.);
#245=ORIENTED_EDGE('',*,*,#190,.F.);
#246=ORIENTED_EDGE('',*,*,#191,.F.);
#247=ORIENTED_EDGE('',*,*,#192,.T.);
#248=ORIENTED_EDGE('',*,*,#193,.F.);
#249=ORIENTED_EDGE('',*,*,#194,.F.);
#250=ORIENTED_EDGE('',*,*,#192,.F.);
#251=ORIENTED_EDGE('',*,*,#188,.T.);
#252=ORIENTED_EDGE('',*,*,#195,.T.);
#253=ORIENTED_EDGE('',*,*,#196,.F.);
#254=ORIENTED_EDGE('',*,*,#197,.F.);
#255=ORIENTED_EDGE('',*,*,#195,.F.);
#256=ORIENTED_EDGE('',*,*,#193,.T.);
#257=ORIENTED_EDGE('',*,*,#194,.T.);
#258=ORIENTED_EDGE('',*,*,#198,.T.);
#259=ORIENTED_EDGE('',*,*,#199,.F.);
#260=ORIENTED_EDGE('',*,*,#200,.F.);
#261=ORIENTED_EDGE('',*,*,#198,.F.);
#262=ORIENTED_EDGE('',*,*,#201,.T.);
#263=ORIENTED_EDGE('',*,*,#202,.T.);
#264=ORIENTED_EDGE('',*,*,#203,.F.);
#265=ORIENTED_EDGE('',*,*,#204,.F.);
#266=ORIENTED_EDGE('',*,*,#202,.F.);
#267=ORIENTED_EDGE('',*,*,#199,.T.);
#268=ORIENTED_EDGE('',*,*,#200,.T.);
#269=ORIENTED_EDGE('',*,*,#203,.T.);
#270=ORIENTED_EDGE('',*,*,#204,.T.);
#271=ORIENTED_EDGE('',*,*,#205,.F.);
#272=ORIENTED_EDGE('',*,*,#206,.F.);
#273=ORIENTED_EDGE('',*,*,#207,.F.);
#274=ORIENTED_EDGE('',*,*,#208,.F.);
#275=ORIENTED_EDGE('',*,*,#209,.F.);
#276=ORIENTED_EDGE('',*,*,#210,.F.);
#277=ORIENTED_EDGE('',*,*,#211,.F.);
#278=ORIENTED_EDGE('',*,*,#212,.F.);
#279=ORIENTED_EDGE('',*,*,#205,.T.);
#280=ORIENTED_EDGE('',*,*,#213,.T.);
#281=ORIENTED_EDGE('',*,*,#214,.T.);
#282=ORIENTED_EDGE('',*,*,#215,.F.);
#283=ORIENTED_EDGE('',*,*,#213,.F.);
#284=ORIENTED_EDGE('',*,*,#214,.F.);
#285=ORIENTED_EDGE('',*,*,#215,.T.);
#286=ORIENTED_EDGE('',*,*,#190,.T.);
#287=ORIENTED_EDGE('',*,*,#183,.F.);
#288=ORIENTED_EDGE('',*,*,#216,.T.);
#289=ORIENTED_EDGE('',*,*,#217,.T.);
#290=ORIENTED_EDGE('',*,*,#218,.T.);
#291=ORIENTED_EDGE('',*,*,#191,.T.);
#292=ORIENTED_EDGE('',*,*,#218,.F.);
#293=ORIENTED_EDGE('',*,*,#219,.T.);
#294=ORIENTED_EDGE('',*,*,#220,.T.);
#295=ORIENTED_EDGE('',*,*,#221,.T.);
#296=ORIENTED_EDGE('',*,*,#189,.T.);
#297=ORIENTED_EDGE('',*,*,#221,.F.);
#298=ORIENTED_EDGE('',*,*,#222,.T.);
#299=ORIENTED_EDGE('',*,*,#223,.T.);
#300=ORIENTED_EDGE('',*,*,#185,.T.);
#301=ORIENTED_EDGE('',*,*,#208,.T.);
#302=ORIENTED_EDGE('',*,*,#186,.F.);
#303=ORIENTED_EDGE('',*,*,#223,.F.);
#304=ORIENTED_EDGE('',*,*,#209,.T.);
#305=ORIENTED_EDGE('',*,*,#222,.F.);
#306=ORIENTED_EDGE('',*,*,#220,.F.);
#307=ORIENTED_EDGE('',*,*,#207,.T.);
#308=ORIENTED_EDGE('',*,*,#177,.F.);
#309=ORIENTED_EDGE('',*,*,#187,.F.);
#310=ORIENTED_EDGE('',*,*,#178,.F.);
#311=ORIENTED_EDGE('',*,*,#206,.T.);
#312=ORIENTED_EDGE('',*,*,#212,.T.);
#313=ORIENTED_EDGE('',*,*,#181,.F.);
#314=ORIENTED_EDGE('',*,*,#211,.T.);
#315=ORIENTED_EDGE('',*,*,#216,.F.);
#316=ORIENTED_EDGE('',*,*,#182,.F.);
#317=ORIENTED_EDGE('',*,*,#210,.T.);
#318=ORIENTED_EDGE('',*,*,#219,.F.);
#319=ORIENTED_EDGE('',*,*,#217,.F.);
#320=ORIENTED_EDGE('',*,*,#224,.F.);
#321=ORIENTED_EDGE('',*,*,#196,.T.);
#322=ORIENTED_EDGE('',*,*,#197,.T.);
#323=ORIENTED_EDGE('',*,*,#224,.T.);
#324=ORIENTED_EDGE('',*,*,#201,.F.);
#325=EDGE_LOOP('',(#225,#226,#227,#228,#229));
#326=EDGE_LOOP('',(#230,#231,#232,#233,#234));
#327=EDGE_LOOP('',(#235,#236,#237,#238,#239));
#328=EDGE_LOOP('',(#240));
#329=EDGE_LOOP('',(#241,#242,#243,#244,#245,#246));
#330=EDGE_LOOP('',(#247,#248,#249,#250,#251));
#331=EDGE_LOOP('',(#252,#253,#254,#255,#256,#257));
#332=EDGE_LOOP('',(#258,#259,#260,#261,#262));
#333=EDGE_LOOP('',(#263,#264,#265,#266,#267,#268));
#334=EDGE_LOOP('',(#269,#270));
#335=EDGE_LOOP('',(#271,#272,#273,#274,#275,#276,#277,#278,#279,#280,#281));
#336=EDGE_LOOP('',(#282,#283,#284,#285));
#337=EDGE_LOOP('',(#286,#287,#288,#289,#290));
#338=EDGE_LOOP('',(#291,#292,#293,#294,#295));
#339=EDGE_LOOP('',(#296,#297,#298,#299,#300));
#340=EDGE_LOOP('',(#301,#302,#303));
#341=EDGE_LOOP('',(#304,#305,#306));
#342=EDGE_LOOP('',(#307,#308,#309));
#343=EDGE_LOOP('',(#310,#311,#312,#313));
#344=EDGE_LOOP('',(#314,#315,#316));
#345=EDGE_LOOP('',(#317,#318,#319));
#346=EDGE_LOOP('',(#320,#321,#322,#323,#324));
#347=FACE_BOUND('',#325,.T.);
#348=FACE_BOUND('',#326,.T.);
#349=FACE_BOUND('',#327,.T.);
#350=FACE_BOUND('',#328,.T.);
#351=FACE_BOUND('',#329,.T.);
#352=FACE_BOUND('',#330,.T.);
#353=FACE_BOUND('',#331,.T.);
#354=FACE_BOUND('',#332,.T.);
#355=FACE_BOUND('',#333,.T.);
#356=FACE_BOUND('',#334,.T.);
#357=FACE_BOUND('',#335,.T.);
#358=FACE_BOUND('',#336,.T.);
#359=FACE_BOUND('',#337,.T.);
#360=FACE_BOUND('',#338,.T.);
#361=FACE_BOUND('',#339,.T.);
#362=FACE_BOUND('',#340,.T.);
#363=FACE_BOUND('',#341,.T.);
#364=FACE_BOUND('',#342,.T.);
#365=FACE_BOUND('',#343,.T.);
#366=FACE_BOUND('',#344,.T.);
#367=FACE_BOUND('',#345,.T.);
#368=FACE_BOUND('',#346,.T.);
#369=ADVANCED_FACE('',(#347),#607,.T.);
#370=ADVANCED_FACE('',(#348),#608,.T.);
#371=ADVANCED_FACE('',(#349),#609,.T.);
#372=ADVANCED_FACE('',(#350,#351),#610,.F.);
#373=ADVANCED_FACE('',(#352),#66,.T.);
#374=ADVANCED_FACE('',(#353),#63,.T.);
#375=ADVANCED_FACE('',(#354),#67,.T.);
#376=ADVANCED_FACE('',(#355),#64,.T.);
#377=ADVANCED_FACE('',(#356),#611,.F.);
#378=ADVANCED_FACE('',(#357),#68,.F.);
#379=ADVANCED_FACE('',(#358),#65,.F.);
#380=ADVANCED_FACE('',(#359),#612,.T.);
#381=ADVANCED_FACE('',(#360),#613,.T.);
#382=ADVANCED_FACE('',(#361),#614,.T.);
#383=ADVANCED_FACE('',(#362),#615,.F.);
#384=ADVANCED_FACE('',(#363),#616,.F.);
#385=ADVANCED_FACE('',(#364),#617,.F.);
#386=ADVANCED_FACE('',(#365),#618,.F.);
#387=ADVANCED_FACE('',(#366),#619,.F.);
#388=ADVANCED_FACE('',(#367),#620,.F.);
#389=ADVANCED_FACE('',(#368),#62,.F.);
#390=AXIS2_PLACEMENT_3D('',#510,#425,$);
#391=AXIS2_PLACEMENT_3D('',#521,#431,$);
#392=AXIS2_PLACEMENT_3D('',#529,#436,$);
#393=AXIS2_PLACEMENT_3D('',#537,#441,$);
#394=AXIS2_PLACEMENT_3D('',#538,#442,#443);
#395=AXIS2_PLACEMENT_3D('',#545,#447,#448);
#396=AXIS2_PLACEMENT_3D('',#548,#450,#451);
#397=AXIS2_PLACEMENT_3D('',#550,#452,#453);
#398=AXIS2_PLACEMENT_3D('',#553,#455,#456);
#399=AXIS2_PLACEMENT_3D('',#555,#457,#458);
#400=AXIS2_PLACEMENT_3D('',#559,#460,#461);
#401=AXIS2_PLACEMENT_3D('',#561,#462,#463);
#402=AXIS2_PLACEMENT_3D('',#562,#464,#465);
#403=AXIS2_PLACEMENT_3D('',#565,#467,#468);
#404=AXIS2_PLACEMENT_3D('',#567,#469,$);
#405=AXIS2_PLACEMENT_3D('',#568,#470,#471);
#406=AXIS2_PLACEMENT_3D('',#572,#473,#474);
#407=AXIS2_PLACEMENT_3D('',#573,#475,#476);
#408=AXIS2_PLACEMENT_3D('',#574,#477,#478);
#409=AXIS2_PLACEMENT_3D('',#576,#479,#480);
#410=AXIS2_PLACEMENT_3D('',#578,#481,#482);
#411=AXIS2_PLACEMENT_3D('',#580,#483,#484);
#412=AXIS2_PLACEMENT_3D('',#581,#485,#486);
#413=AXIS2_PLACEMENT_3D('',#583,#487,#488);
#414=AXIS2_PLACEMENT_3D('',#586,#490,$);
#415=AXIS2_PLACEMENT_3D('',#591,#494,$);
#416=AXIS2_PLACEMENT_3D('',#596,#498,$);
#417=AXIS2_PLACEMENT_3D('',#599,#501,$);
#418=AXIS2_PLACEMENT_3D('',#600,#502,$);
#419=AXIS2_PLACEMENT_3D('',#601,#503,$);
#420=AXIS2_PLACEMENT_3D('',#602,#504,$);
#421=AXIS2_PLACEMENT_3D('',#603,#505,$);
#422=AXIS2_PLACEMENT_3D('',#604,#506,$);
#423=AXIS2_PLACEMENT_3D('',#605,#507,$);
#424=AXIS2_PLACEMENT_3D('',#606,#508,#509);
#425=DIRECTION('',(0.,-0.866025403784439,0.5));
#426=DIRECTION('',(0.,-0.499999999999998,-0.86602540378444));
#427=DIRECTION('',(-1.,0.,0.));
#428=DIRECTION('',(0.,0.500000000000002,0.866025403784438));
#429=DIRECTION('',(0.,0.499999999999994,0.866025403784442));
#430=DIRECTION('',(-1.,0.,0.));
#431=DIRECTION('',(0.,-0.866025403784439,-0.5));
#432=DIRECTION('',(0.,0.499999999999998,-0.86602540378444));
#433=DIRECTION('',(0.,-0.499999999999994,0.866025403784442));
#434=DIRECTION('',(0.,-0.500000000000002,0.866025403784438));
#435=DIRECTION('',(-1.,0.,0.));
#436=DIRECTION('',(0.,0.,1.));
#437=DIRECTION('',(0.,-1.,0.));
#438=DIRECTION('',(-1.,0.,0.));
#439=DIRECTION('',(0.,1.,0.));
#440=DIRECTION('',(0.,1.,0.));
#441=DIRECTION('',(1.,0.,0.));
#442=DIRECTION('',(1.,0.,0.));
#443=DIRECTION('',(0.,0.,-3.765));
#444=DIRECTION('',(0.,-0.499999999999998,0.86602540378444));
#445=DIRECTION('',(0.,1.,0.));
#446=DIRECTION('',(0.,0.499999999999998,0.86602540378444));
#447=DIRECTION('',(-1.,0.,0.));
#448=DIRECTION('',(0.,0.,-3.765));
#449=DIRECTION('',(1.,0.,0.));
#450=DIRECTION('',(1.,0.,0.));
#451=DIRECTION('',(0.,0.,-3.765));
#452=DIRECTION('',(-1.,0.,0.));
#453=DIRECTION('',(0.,0.,3.765));
#454=DIRECTION('',(0.707106781184743,0.,-0.707106781188352));
#455=DIRECTION('',(1.,0.,0.));
#456=DIRECTION('',(0.,0.,-2.0585786438));
#457=DIRECTION('',(-1.,0.,0.));
#458=DIRECTION('',(0.,0.,-2.));
#459=DIRECTION('',(1.,0.,0.));
#460=DIRECTION('',(1.,0.,0.));
#461=DIRECTION('',(0.,0.,-2.));
#462=DIRECTION('',(1.,0.,0.));
#463=DIRECTION('',(0.,0.,-2.));
#464=DIRECTION('',(-1.,0.,0.));
#465=DIRECTION('',(0.,0.,2.));
#466=DIRECTION('',(0.707106781184743,0.,-0.707106781188352));
#467=DIRECTION('',(1.,0.,0.));
#468=DIRECTION('',(0.,0.,-1.5705));
#469=DIRECTION('',(-1.,0.,0.));
#470=DIRECTION('',(-1.,9.9357433097819E-17,0.));
#471=DIRECTION('',(1.24196791372274E-16,1.25,0.));
#472=DIRECTION('',(1.,-9.9357433097819E-17,0.));
#473=DIRECTION('',(1.,0.,0.));
#474=DIRECTION('',(0.,0.,-1.25));
#475=DIRECTION('',(1.,0.,0.));
#476=DIRECTION('',(0.,0.,-1.25));
#477=DIRECTION('',(1.,0.,0.));
#478=DIRECTION('',(0.,0.,-1.25));
#479=DIRECTION('',(1.,0.,0.));
#480=DIRECTION('',(0.,0.,-1.25));
#481=DIRECTION('',(1.,0.,0.));
#482=DIRECTION('',(0.,0.,-1.25));
#483=DIRECTION('',(1.,0.,0.));
#484=DIRECTION('',(0.,0.,-1.25));
#485=DIRECTION('',(1.,-9.9357433097819E-17,0.));
#486=DIRECTION('',(1.24196791372274E-16,1.25,0.));
#487=DIRECTION('',(-1.,9.9357433097819E-17,0.));
#488=DIRECTION('',(-1.24196791372274E-16,-1.25,0.));
#489=DIRECTION('',(0.499999999997054,0.86602540378614,0.));
#490=DIRECTION('',(0.,0.,-1.));
#491=DIRECTION('',(0.,-1.,0.));
#492=DIRECTION('',(0.,-1.,0.));
#493=DIRECTION('',(-1.,0.,0.));
#494=DIRECTION('',(0.,0.866025403784439,-0.5));
#495=DIRECTION('',(0.,-0.500000000000002,-0.866025403784438));
#496=DIRECTION('',(0.,-0.499999999999994,-0.866025403784442));
#497=DIRECTION('',(-1.,0.,0.));
#498=DIRECTION('',(0.,0.866025403784439,0.5));
#499=DIRECTION('',(0.,0.499999999999994,-0.866025403784442));
#500=DIRECTION('',(0.,0.500000000000002,-0.866025403784438));
#501=DIRECTION('',(1.,0.,0.));
#502=DIRECTION('',(1.,0.,0.));
#503=DIRECTION('',(1.,0.,0.));
#504=DIRECTION('',(1.,0.,0.));
#505=DIRECTION('',(1.,0.,0.));
#506=DIRECTION('',(1.,0.,0.));
#507=DIRECTION('',(1.,0.,0.));
#508=DIRECTION('',(0.,1.,0.));
#509=DIRECTION('',(0.,0.,-0.2));
#510=CARTESIAN_POINT('',(1.5,0.721687836487032,-1.25));
#511=CARTESIAN_POINT('',(0.,1.44337567297406,0.));
#512=CARTESIAN_POINT('',(0.,1.44337567297406,-6.66133814775094E-16));
#513=CARTESIAN_POINT('',(0.,0.721687836487032,-1.25));
#514=CARTESIAN_POINT('',(1.5,0.721687836487032,-1.25));
#515=CARTESIAN_POINT('',(1.5,0.721687836487032,-1.25));
#516=CARTESIAN_POINT('',(1.5,0.721687836487032,-1.25));
#517=CARTESIAN_POINT('',(1.5,1.08253175473055,-0.625));
#518=CARTESIAN_POINT('',(1.5,1.08253175473055,-0.625));
#519=CARTESIAN_POINT('',(1.5,1.44337567297406,-6.66133814775094E-16));
#520=CARTESIAN_POINT('',(1.5,1.44337567297406,0.));
#521=CARTESIAN_POINT('',(1.5,1.44337567297406,0.));
#522=CARTESIAN_POINT('',(0.,0.721687836487032,1.25));
#523=CARTESIAN_POINT('',(0.,0.72168783648703,1.25));
#524=CARTESIAN_POINT('',(1.5,1.44337567297406,0.));
#525=CARTESIAN_POINT('',(1.5,1.08253175473055,0.624999999999999));
#526=CARTESIAN_POINT('',(1.5,1.08253175473055,0.625));
#527=CARTESIAN_POINT('',(1.5,0.72168783648703,1.25));
#528=CARTESIAN_POINT('',(1.5,0.721687836487032,1.25));
#529=CARTESIAN_POINT('',(1.5,-0.721687836487032,-1.25));
#530=CARTESIAN_POINT('',(0.,0.721687836487032,-1.25));
#531=CARTESIAN_POINT('',(0.,-0.72168783648703,-1.25));
#532=CARTESIAN_POINT('',(1.5,-0.721687836487032,-1.25));
#533=CARTESIAN_POINT('',(1.5,-0.72168783648703,-1.25));
#534=CARTESIAN_POINT('',(1.5,-0.721687836487032,-1.25));
#535=CARTESIAN_POINT('',(1.5,-2.83110075948041E-16,-1.25));
#536=CARTESIAN_POINT('',(1.5,-1.49036149646729E-16,-1.25));
#537=CARTESIAN_POINT('',(0.,0.,0.));
#538=CARTESIAN_POINT('',(0.,0.,0.));
#539=CARTESIAN_POINT('',(0.,-4.61079519878978E-16,-3.765));
#540=CARTESIAN_POINT('',(0.,-0.721687836487032,-1.25));
#541=CARTESIAN_POINT('',(0.,-1.44337567297406,6.66133814775094E-16));
#542=CARTESIAN_POINT('',(0.,-0.721687836487032,1.25));
#543=CARTESIAN_POINT('',(0.,-0.721687836487032,1.25));
#544=CARTESIAN_POINT('',(0.,-1.44337567297406,0.));
#545=CARTESIAN_POINT('',(10.,0.,0.));
#546=CARTESIAN_POINT('',(-9.285,0.,-3.765));
#547=CARTESIAN_POINT('',(0.715,-2.30539759939489E-16,-3.765));
#548=CARTESIAN_POINT('',(0.715,0.,0.));
#549=CARTESIAN_POINT('',(0.715,0.,3.765));
#550=CARTESIAN_POINT('',(0.715,0.,0.));
#551=CARTESIAN_POINT('',(2.59206349186104,0.,1.88793650812938));
#552=CARTESIAN_POINT('',(2.4214213562258,-2.93019050329945E-11,2.0585786437885));
#553=CARTESIAN_POINT('',(2.42142135623731,0.,0.));
#554=CARTESIAN_POINT('',(2.42142135622581,-1.26051587347547E-16,-2.0585786437885));
#555=CARTESIAN_POINT('',(10.,0.,0.));
#556=CARTESIAN_POINT('',(2.13334271247462,0.,-2.));
#557=CARTESIAN_POINT('',(2.56284271247462,-2.44929359829471E-16,-2.));
#558=CARTESIAN_POINT('',(9.5705,-1.22464679914735E-16,-2.));
#559=CARTESIAN_POINT('',(9.5705,0.,0.));
#560=CARTESIAN_POINT('',(9.5705,0.,2.));
#561=CARTESIAN_POINT('',(2.56284271247462,0.,0.));
#562=CARTESIAN_POINT('',(9.5705,0.,0.));
#563=CARTESIAN_POINT('',(10.04295,0.,1.52754999999759));
#564=CARTESIAN_POINT('',(9.99999999999945,1.11022302462516E-16,1.57049999999945));
#565=CARTESIAN_POINT('',(10.,0.,0.));
#566=CARTESIAN_POINT('',(9.99999999999945,-9.6165389903113E-17,-1.57049999999945));
#567=CARTESIAN_POINT('',(10.,1.5705,0.));
#568=CARTESIAN_POINT('',(2.23480617405267,-2.22044604925031E-16,0.));
#569=CARTESIAN_POINT('',(0.77831216351297,1.25,0.));
#570=CARTESIAN_POINT('',(1.5,1.25,-3.82702124733548E-17));
#571=CARTESIAN_POINT('',(1.51311833756564,1.25,-7.65404249467096E-17));
#572=CARTESIAN_POINT('',(1.5,-1.49036149646729E-16,0.));
#573=CARTESIAN_POINT('',(1.5,-1.49036149646729E-16,0.));
#574=CARTESIAN_POINT('',(1.5,-1.49036149646729E-16,0.));
#575=CARTESIAN_POINT('',(1.5,-1.08253175473055,-0.624999999999999));
#576=CARTESIAN_POINT('',(1.5,-1.49036149646729E-16,0.));
#577=CARTESIAN_POINT('',(1.5,-1.08253175473055,0.625));
#578=CARTESIAN_POINT('',(1.5,-1.49036149646729E-16,0.));
#579=CARTESIAN_POINT('',(1.5,-1.87306362120084E-16,1.25));
#580=CARTESIAN_POINT('',(1.5,-1.49036149646729E-16,0.));
#581=CARTESIAN_POINT('',(1.51311833756564,-1.50339553993761E-16,0.));
#582=CARTESIAN_POINT('',(1.51311833756564,-1.25,-6.31651937259288E-16));
#583=CARTESIAN_POINT('',(1.51311833756564,-1.50339553993761E-16,0.));
#584=CARTESIAN_POINT('',(2.234806174047,-4.44089209850063E-16,0.));
#585=CARTESIAN_POINT('',(2.234806174047,-2.22044604924749E-16,0.));
#586=CARTESIAN_POINT('',(1.5,0.721687836487032,1.25));
#587=CARTESIAN_POINT('',(1.5,0.721687836487032,1.25));
#588=CARTESIAN_POINT('',(1.5,-1.49036149646729E-16,1.25));
#589=CARTESIAN_POINT('',(1.5,-0.721687836487032,1.25));
#590=CARTESIAN_POINT('',(1.5,-0.721687836487032,1.25));
#591=CARTESIAN_POINT('',(1.5,-0.721687836487032,1.25));
#592=CARTESIAN_POINT('',(1.5,-0.721687836487032,1.25));
#593=CARTESIAN_POINT('',(1.5,-1.08253175473055,0.625));
#594=CARTESIAN_POINT('',(1.5,-1.44337567297406,6.66133814775094E-16));
#595=CARTESIAN_POINT('',(1.5,-1.44337567297406,0.));
#596=CARTESIAN_POINT('',(1.5,-1.44337567297406,0.));
#597=CARTESIAN_POINT('',(1.5,-1.44337567297406,0.));
#598=CARTESIAN_POINT('',(1.5,-1.08253175473055,-0.625));
#599=CARTESIAN_POINT('',(1.5,0.,0.));
#600=CARTESIAN_POINT('',(1.5,0.,0.));
#601=CARTESIAN_POINT('',(1.5,0.,0.));
#602=CARTESIAN_POINT('',(1.5,0.,0.));
#603=CARTESIAN_POINT('',(1.5,0.,0.));
#604=CARTESIAN_POINT('',(1.5,0.,0.));
#605=CARTESIAN_POINT('',(2.56284271247462,0.,0.));
#606=CARTESIAN_POINT('',(2.56284271247462,0.,-2.2));
#607=PLANE('',#390);
#608=PLANE('',#391);
#609=PLANE('',#392);
#610=PLANE('',#393);
#611=PLANE('',#404);
#612=PLANE('',#414);
#613=PLANE('',#415);
#614=PLANE('',#416);
#615=PLANE('',#417);
#616=PLANE('',#418);
#617=PLANE('',#419);
#618=PLANE('',#420);
#619=PLANE('',#421);
#620=PLANE('',#422);
#621=CLOSED_SHELL('',(#369,#370,#371,#372,#373,#374,#375,#376,#377,#378,
#379,#380,#381,#382,#383,#384,#385,#386,#387,#388,#389));
#622=MANIFOLD_SOLID_BREP('',#621);
#623=ADVANCED_BREP_SHAPE_REPRESENTATION('',(#622),#61);
ENDSEC;
END-ISO-10303-21;
