ISO-10303-21;
HEADER;
/* Generated by software containing ST-Developer
 * from STEP Tools, Inc. (www.steptools.com) 
 */

FILE_DESCRIPTION(
/* description */ ('Alibre Inc.'),
/* implementation_level */ '2;1');

FILE_NAME(
/* name */ 'export-90A96A89-4FEE-470C-ABA8-48FE8D4D80CE',
/* time_stamp */ '2020-10-12T08:37:35+02:00',
/* author */ (''),
/* organization */ (''),
/* preprocessor_version */ 'ST-DEVELOPER v17',
/* originating_system */ 'Alibre',
/* authorisation */ '');

FILE_SCHEMA (('AUTOMOTIVE_DESIGN'));
ENDSEC;

DATA;
#10=STYLED_ITEM('NAME_0',(#45),#562);
#11=STYLED_ITEM('NAME_0',(#46),#315);
#12=STYLED_ITEM('NAME_0',(#46),#316);
#13=STYLED_ITEM('NAME_0',(#46),#317);
#14=STYLED_ITEM('NAME_0',(#46),#318);
#15=STYLED_ITEM('NAME_0',(#46),#319);
#16=STYLED_ITEM('NAME_0',(#46),#320);
#17=STYLED_ITEM('NAME_0',(#46),#321);
#18=STYLED_ITEM('NAME_0',(#46),#322);
#19=STYLED_ITEM('NAME_0',(#46),#323);
#20=STYLED_ITEM('NAME_0',(#46),#324);
#21=STYLED_ITEM('NAME_0',(#46),#325);
#22=STYLED_ITEM('NAME_0',(#46),#326);
#23=STYLED_ITEM('NAME_0',(#46),#327);
#24=STYLED_ITEM('NAME_0',(#46),#328);
#25=STYLED_ITEM('NAME_0',(#46),#329);
#26=STYLED_ITEM('NAME_0',(#46),#330);
#27=STYLED_ITEM('NAME_0',(#46),#331);
#28=STYLED_ITEM('NAME_0',(#46),#332);
#29=STYLED_ITEM('NAME_0',(#46),#333);
#30=STYLED_ITEM('NAME_0',(#46),#334);
#31=STYLED_ITEM('NAME_0',(#46),#335);
#32=MECHANICAL_DESIGN_GEOMETRIC_PRESENTATION_REPRESENTATION('NAME_0',(#10,
#11,#12,#13,#14,#15,#16,#17,#18,#19,#20,#21,#22,#23,#24,#25,#26,#27,#28,
#29,#30,#31),#61);
#33=COLOUR_RGB('',0.882352941176471,0.882352941176471,0.882352941176471);
#34=COLOUR_RGB('',0.686274509803922,0.686274509803922,0.686274509803922);
#35=FILL_AREA_STYLE_COLOUR('NAME_0',#33);
#36=FILL_AREA_STYLE_COLOUR('NAME_0',#34);
#37=FILL_AREA_STYLE('NAME_0',(#35));
#38=FILL_AREA_STYLE('NAME_0',(#36));
#39=SURFACE_STYLE_FILL_AREA(#37);
#40=SURFACE_STYLE_FILL_AREA(#38);
#41=SURFACE_SIDE_STYLE('NAME_0',(#39));
#42=SURFACE_SIDE_STYLE('NAME_0',(#40));
#43=SURFACE_STYLE_USAGE(.POSITIVE.,#41);
#44=SURFACE_STYLE_USAGE(.POSITIVE.,#42);
#45=PRESENTATION_STYLE_ASSIGNMENT((#43));
#46=PRESENTATION_STYLE_ASSIGNMENT((#44));
#47=PRODUCT_DEFINITION_CONTEXT('part definition',#54,'design');
#48=SHAPE_DEFINITION_REPRESENTATION(#49,#563);
#49=PRODUCT_DEFINITION_SHAPE('PRODUCT_VERSION_ID',
'PRODUCT_VERSION_DESCR',#50);
#50=PRODUCT_DEFINITION('PRODUCT_VERSION_ID','PRODUCT_VERSION_DESCR',#51,
#47);
#51=PRODUCT_DEFINITION_FORMATION_WITH_SPECIFIED_SOURCE(
'PRODUCT_VERSION_ID','PRODUCT_VERSION_DESCR',#56,.MADE.);
#52=PRODUCT_RELATED_PRODUCT_CATEGORY('part','part',(#56));
#53=APPLICATION_PROTOCOL_DEFINITION('Draft International Standard',
'automotive_design',1994,#54);
#54=APPLICATION_CONTEXT('automotive_Design');
#55=PRODUCT_CONTEXT('3D Mechanical Parts',#54,'mechanical');
#56=PRODUCT('HI_Screw ISO 7380-1 M8x25 07151.080.025(High)',
'5341 M8x25 Bolt ISO-7380-1 - 10.9','',(#55));
#57=(
LENGTH_UNIT()
NAMED_UNIT(*)
SI_UNIT(.MILLI.,.METRE.)
);
#58=(
NAMED_UNIT(*)
PLANE_ANGLE_UNIT()
SI_UNIT($,.RADIAN.)
);
#59=(
NAMED_UNIT(*)
SI_UNIT($,.STERADIAN.)
SOLID_ANGLE_UNIT()
);
#60=UNCERTAINTY_MEASURE_WITH_UNIT(LENGTH_MEASURE(1.E-6),#57,
'DISTANCE_ACCURACY_VALUE',
'Maximum model space distance between geometric entities at asserted c
onnectivities');
#61=(
GEOMETRIC_REPRESENTATION_CONTEXT(3)
GLOBAL_UNCERTAINTY_ASSIGNED_CONTEXT((#60))
GLOBAL_UNIT_ASSIGNED_CONTEXT((#59,#58,#57))
REPRESENTATION_CONTEXT('ID1','3D')
);
#62=CYLINDRICAL_SURFACE('',#366,4.);
#63=DEGENERATE_TOROIDAL_SURFACE('',#365,0.653327347916102,7.94999999999988,
 .F.);
#64=CONICAL_SURFACE('',#346,866.0254037844,1.0471975512);
#65=CONICAL_SURFACE('',#350,2.4,0.7853981634);
#66=CONICAL_SURFACE('',#352,2.4,0.7853981634);
#67=CONICAL_SURFACE('',#354,2.4,0.7853981634);
#68=CONICAL_SURFACE('',#359,2.4,0.7853981634);
#69=CONICAL_SURFACE('',#368,3.233,0.7853981634);
#70=CONICAL_SURFACE('',#372,2.4,0.7853981634);
#71=CONICAL_SURFACE('',#373,2.4,0.7853981634);
#72=CIRCLE('',#342,0.7);
#73=CIRCLE('',#343,4.7);
#74=CIRCLE('',#344,4.);
#75=CIRCLE('',#345,4.);
#76=CIRCLE('',#347,2.39999999317558);
#77=CIRCLE('',#348,2.39999999317558);
#78=CIRCLE('',#351,2.88675134595061);
#79=CIRCLE('',#353,2.88675134595061);
#80=CIRCLE('',#355,2.88675134595061);
#81=CIRCLE('',#357,6.9999999999996);
#82=CIRCLE('',#358,6.9999999999996);
#83=CIRCLE('',#360,2.88675134595061);
#84=CIRCLE('',#362,2.88675134595061);
#85=CIRCLE('',#363,2.88675134595061);
#86=CIRCLE('',#364,3.85000000000129);
#87=CIRCLE('',#367,4.);
#88=CIRCLE('',#369,3.233);
#89=TOROIDAL_SURFACE('',#341,4.7,0.7);
#90=(
BOUNDED_CURVE()
B_SPLINE_CURVE(2,(#461,#462,#463),.UNSPECIFIED.,.F.,.U.)
B_SPLINE_CURVE_WITH_KNOTS((3,3),(0.0883408668952192,3.11705097113276),
 .UNSPECIFIED.)
CURVE()
GEOMETRIC_REPRESENTATION_ITEM()
RATIONAL_B_SPLINE_CURVE((1.00937485262629,1.16552568575406,1.00937485262629))
REPRESENTATION_ITEM('')
);
#91=(
BOUNDED_CURVE()
B_SPLINE_CURVE(2,(#469,#470,#471),.UNSPECIFIED.,.F.,.U.)
B_SPLINE_CURVE_WITH_KNOTS((3,3),(0.088340866895222,3.11705097113277),
 .UNSPECIFIED.)
CURVE()
GEOMETRIC_REPRESENTATION_ITEM()
RATIONAL_B_SPLINE_CURVE((1.00937485262629,1.16552568575406,1.00937485262629))
REPRESENTATION_ITEM('')
);
#92=(
BOUNDED_CURVE()
B_SPLINE_CURVE(2,(#477,#478,#479),.UNSPECIFIED.,.F.,.U.)
B_SPLINE_CURVE_WITH_KNOTS((3,3),(0.0883408668952251,3.11705097113277),
 .UNSPECIFIED.)
CURVE()
GEOMETRIC_REPRESENTATION_ITEM()
RATIONAL_B_SPLINE_CURVE((1.00937485262629,1.16552568575406,1.00937485262629))
REPRESENTATION_ITEM('')
);
#93=(
BOUNDED_CURVE()
B_SPLINE_CURVE(2,(#488,#489,#490),.UNSPECIFIED.,.F.,.U.)
B_SPLINE_CURVE_WITH_KNOTS((3,3),(0.0883408668952248,3.11705097113278),
 .UNSPECIFIED.)
CURVE()
GEOMETRIC_REPRESENTATION_ITEM()
RATIONAL_B_SPLINE_CURVE((1.00937485262629,1.16552568575406,1.00937485262629))
REPRESENTATION_ITEM('')
);
#94=(
BOUNDED_CURVE()
B_SPLINE_CURVE(2,(#493,#494,#495),.UNSPECIFIED.,.F.,.U.)
B_SPLINE_CURVE_WITH_KNOTS((3,3),(0.088340866895225,3.11705097113277),
 .UNSPECIFIED.)
CURVE()
GEOMETRIC_REPRESENTATION_ITEM()
RATIONAL_B_SPLINE_CURVE((1.00937485262629,1.16552568575406,1.00937485262629))
REPRESENTATION_ITEM('')
);
#95=(
BOUNDED_CURVE()
B_SPLINE_CURVE(3,(#532,#533,#534,#535),.UNSPECIFIED.,.F.,.U.)
B_SPLINE_CURVE_WITH_KNOTS((4,4),(0.,6.28318530717959),.UNSPECIFIED.)
CURVE()
GEOMETRIC_REPRESENTATION_ITEM()
RATIONAL_B_SPLINE_CURVE((1.,0.960202771363583,0.960202771363583,1.))
REPRESENTATION_ITEM('')
);
#96=(
BOUNDED_CURVE()
B_SPLINE_CURVE(2,(#546,#547,#548),.UNSPECIFIED.,.F.,.U.)
B_SPLINE_CURVE_WITH_KNOTS((3,3),(0.0883408668952204,3.11705097113276),
 .UNSPECIFIED.)
CURVE()
GEOMETRIC_REPRESENTATION_ITEM()
RATIONAL_B_SPLINE_CURVE((1.00937485262629,1.16552568575406,1.00937485262629))
REPRESENTATION_ITEM('')
);
#97=VERTEX_POINT('',#455);
#98=VERTEX_POINT('',#456);
#99=VERTEX_POINT('',#458);
#100=VERTEX_POINT('',#460);
#101=VERTEX_POINT('',#466);
#102=VERTEX_POINT('',#467);
#103=VERTEX_POINT('',#474);
#104=VERTEX_POINT('',#475);
#105=VERTEX_POINT('',#482);
#106=VERTEX_POINT('',#483);
#107=VERTEX_POINT('',#485);
#108=VERTEX_POINT('',#487);
#109=VERTEX_POINT('',#498);
#110=VERTEX_POINT('',#499);
#111=VERTEX_POINT('',#502);
#112=VERTEX_POINT('',#506);
#113=VERTEX_POINT('',#507);
#114=VERTEX_POINT('',#509);
#115=VERTEX_POINT('',#521);
#116=VERTEX_POINT('',#522);
#117=VERTEX_POINT('',#530);
#118=VERTEX_POINT('',#538);
#119=VERTEX_POINT('',#542);
#120=VECTOR('',#375,1.);
#121=VECTOR('',#376,1.);
#122=VECTOR('',#377,1.);
#123=VECTOR('',#379,1.);
#124=VECTOR('',#380,1.);
#125=VECTOR('',#382,1.);
#126=VECTOR('',#383,1.);
#127=VECTOR('',#385,1.);
#128=VECTOR('',#386,1.);
#129=VECTOR('',#387,1.);
#130=VECTOR('',#389,1.);
#131=VECTOR('',#401,1.);
#132=VECTOR('',#407,1.);
#133=VECTOR('',#439,1.);
#134=VECTOR('',#444,1.);
#135=LINE('',#454,#120);
#136=LINE('',#457,#121);
#137=LINE('',#459,#122);
#138=LINE('',#465,#123);
#139=LINE('',#468,#124);
#140=LINE('',#473,#125);
#141=LINE('',#476,#126);
#142=LINE('',#481,#127);
#143=LINE('',#484,#128);
#144=LINE('',#486,#129);
#145=LINE('',#492,#130);
#146=LINE('',#505,#131);
#147=LINE('',#512,#132);
#148=LINE('',#537,#133);
#149=LINE('',#541,#134);
#150=EDGE_CURVE('',#97,#98,#135,.T.);
#151=EDGE_CURVE('',#97,#99,#136,.T.);
#152=EDGE_CURVE('',#99,#100,#137,.F.);
#153=EDGE_CURVE('',#98,#100,#90,.F.);
#154=EDGE_CURVE('',#101,#102,#138,.T.);
#155=EDGE_CURVE('',#101,#97,#139,.T.);
#156=EDGE_CURVE('',#102,#98,#91,.F.);
#157=EDGE_CURVE('',#103,#104,#140,.T.);
#158=EDGE_CURVE('',#103,#101,#141,.T.);
#159=EDGE_CURVE('',#104,#102,#92,.F.);
#160=EDGE_CURVE('',#105,#106,#142,.T.);
#161=EDGE_CURVE('',#105,#107,#143,.T.);
#162=EDGE_CURVE('',#107,#108,#144,.F.);
#163=EDGE_CURVE('',#106,#108,#93,.F.);
#164=EDGE_CURVE('',#99,#105,#145,.T.);
#165=EDGE_CURVE('',#100,#106,#94,.F.);
#166=EDGE_CURVE('',#109,#110,#72,.T.);
#167=EDGE_CURVE('',#109,#109,#73,.F.);
#168=EDGE_CURVE('',#111,#110,#74,.T.);
#169=EDGE_CURVE('',#110,#111,#75,.T.);
#170=EDGE_CURVE('',#112,#113,#146,.T.);
#171=EDGE_CURVE('',#114,#112,#76,.T.);
#172=EDGE_CURVE('',#112,#114,#77,.T.);
#173=EDGE_CURVE('',#107,#103,#147,.F.);
#174=EDGE_CURVE('',#106,#100,#78,.F.);
#175=EDGE_CURVE('',#108,#106,#79,.F.);
#176=EDGE_CURVE('',#100,#98,#80,.F.);
#177=EDGE_CURVE('',#115,#116,#81,.T.);
#178=EDGE_CURVE('',#116,#115,#82,.T.);
#179=EDGE_CURVE('',#98,#102,#83,.F.);
#180=EDGE_CURVE('',#104,#108,#84,.T.);
#181=EDGE_CURVE('',#102,#104,#85,.T.);
#182=EDGE_CURVE('',#117,#117,#86,.T.);
#183=EDGE_CURVE('',#117,#115,#95,.T.);
#184=EDGE_CURVE('',#118,#111,#148,.T.);
#185=EDGE_CURVE('',#118,#118,#87,.F.);
#186=EDGE_CURVE('',#118,#119,#149,.T.);
#187=EDGE_CURVE('',#119,#119,#88,.T.);
#188=EDGE_CURVE('',#108,#104,#96,.F.);
#189=ORIENTED_EDGE('',*,*,#150,.F.);
#190=ORIENTED_EDGE('',*,*,#151,.T.);
#191=ORIENTED_EDGE('',*,*,#152,.T.);
#192=ORIENTED_EDGE('',*,*,#153,.F.);
#193=ORIENTED_EDGE('',*,*,#154,.F.);
#194=ORIENTED_EDGE('',*,*,#155,.T.);
#195=ORIENTED_EDGE('',*,*,#150,.T.);
#196=ORIENTED_EDGE('',*,*,#156,.F.);
#197=ORIENTED_EDGE('',*,*,#157,.F.);
#198=ORIENTED_EDGE('',*,*,#158,.T.);
#199=ORIENTED_EDGE('',*,*,#154,.T.);
#200=ORIENTED_EDGE('',*,*,#159,.F.);
#201=ORIENTED_EDGE('',*,*,#160,.F.);
#202=ORIENTED_EDGE('',*,*,#161,.T.);
#203=ORIENTED_EDGE('',*,*,#162,.T.);
#204=ORIENTED_EDGE('',*,*,#163,.F.);
#205=ORIENTED_EDGE('',*,*,#152,.F.);
#206=ORIENTED_EDGE('',*,*,#164,.T.);
#207=ORIENTED_EDGE('',*,*,#160,.T.);
#208=ORIENTED_EDGE('',*,*,#165,.F.);
#209=ORIENTED_EDGE('',*,*,#166,.F.);
#210=ORIENTED_EDGE('',*,*,#167,.T.);
#211=ORIENTED_EDGE('',*,*,#166,.T.);
#212=ORIENTED_EDGE('',*,*,#168,.F.);
#213=ORIENTED_EDGE('',*,*,#169,.F.);
#214=ORIENTED_EDGE('',*,*,#170,.F.);
#215=ORIENTED_EDGE('',*,*,#171,.F.);
#216=ORIENTED_EDGE('',*,*,#172,.F.);
#217=ORIENTED_EDGE('',*,*,#170,.T.);
#218=ORIENTED_EDGE('',*,*,#171,.T.);
#219=ORIENTED_EDGE('',*,*,#172,.T.);
#220=ORIENTED_EDGE('',*,*,#164,.F.);
#221=ORIENTED_EDGE('',*,*,#151,.F.);
#222=ORIENTED_EDGE('',*,*,#155,.F.);
#223=ORIENTED_EDGE('',*,*,#158,.F.);
#224=ORIENTED_EDGE('',*,*,#173,.F.);
#225=ORIENTED_EDGE('',*,*,#161,.F.);
#226=ORIENTED_EDGE('',*,*,#174,.T.);
#227=ORIENTED_EDGE('',*,*,#165,.T.);
#228=ORIENTED_EDGE('',*,*,#175,.T.);
#229=ORIENTED_EDGE('',*,*,#163,.T.);
#230=ORIENTED_EDGE('',*,*,#176,.T.);
#231=ORIENTED_EDGE('',*,*,#153,.T.);
#232=ORIENTED_EDGE('',*,*,#177,.F.);
#233=ORIENTED_EDGE('',*,*,#178,.F.);
#234=ORIENTED_EDGE('',*,*,#167,.F.);
#235=ORIENTED_EDGE('',*,*,#179,.T.);
#236=ORIENTED_EDGE('',*,*,#156,.T.);
#237=ORIENTED_EDGE('',*,*,#174,.F.);
#238=ORIENTED_EDGE('',*,*,#175,.F.);
#239=ORIENTED_EDGE('',*,*,#180,.F.);
#240=ORIENTED_EDGE('',*,*,#181,.F.);
#241=ORIENTED_EDGE('',*,*,#179,.F.);
#242=ORIENTED_EDGE('',*,*,#176,.F.);
#243=ORIENTED_EDGE('',*,*,#182,.F.);
#244=ORIENTED_EDGE('',*,*,#183,.T.);
#245=ORIENTED_EDGE('',*,*,#177,.T.);
#246=ORIENTED_EDGE('',*,*,#178,.T.);
#247=ORIENTED_EDGE('',*,*,#183,.F.);
#248=ORIENTED_EDGE('',*,*,#182,.T.);
#249=ORIENTED_EDGE('',*,*,#184,.T.);
#250=ORIENTED_EDGE('',*,*,#168,.T.);
#251=ORIENTED_EDGE('',*,*,#169,.T.);
#252=ORIENTED_EDGE('',*,*,#184,.F.);
#253=ORIENTED_EDGE('',*,*,#185,.T.);
#254=ORIENTED_EDGE('',*,*,#186,.T.);
#255=ORIENTED_EDGE('',*,*,#187,.T.);
#256=ORIENTED_EDGE('',*,*,#186,.F.);
#257=ORIENTED_EDGE('',*,*,#185,.F.);
#258=ORIENTED_EDGE('',*,*,#187,.F.);
#259=ORIENTED_EDGE('',*,*,#162,.F.);
#260=ORIENTED_EDGE('',*,*,#173,.T.);
#261=ORIENTED_EDGE('',*,*,#157,.T.);
#262=ORIENTED_EDGE('',*,*,#188,.F.);
#263=ORIENTED_EDGE('',*,*,#181,.T.);
#264=ORIENTED_EDGE('',*,*,#159,.T.);
#265=ORIENTED_EDGE('',*,*,#180,.T.);
#266=ORIENTED_EDGE('',*,*,#188,.T.);
#267=EDGE_LOOP('',(#189,#190,#191,#192));
#268=EDGE_LOOP('',(#193,#194,#195,#196));
#269=EDGE_LOOP('',(#197,#198,#199,#200));
#270=EDGE_LOOP('',(#201,#202,#203,#204));
#271=EDGE_LOOP('',(#205,#206,#207,#208));
#272=EDGE_LOOP('',(#209,#210,#211,#212,#213));
#273=EDGE_LOOP('',(#214,#215,#216,#217));
#274=EDGE_LOOP('',(#218,#219));
#275=EDGE_LOOP('',(#220,#221,#222,#223,#224,#225));
#276=EDGE_LOOP('',(#226,#227));
#277=EDGE_LOOP('',(#228,#229));
#278=EDGE_LOOP('',(#230,#231));
#279=EDGE_LOOP('',(#232,#233));
#280=EDGE_LOOP('',(#234));
#281=EDGE_LOOP('',(#235,#236));
#282=EDGE_LOOP('',(#237,#238,#239,#240,#241,#242));
#283=EDGE_LOOP('',(#243));
#284=EDGE_LOOP('',(#244,#245,#246,#247,#248));
#285=EDGE_LOOP('',(#249,#250,#251,#252,#253));
#286=EDGE_LOOP('',(#254,#255,#256,#257));
#287=EDGE_LOOP('',(#258));
#288=EDGE_LOOP('',(#259,#260,#261,#262));
#289=EDGE_LOOP('',(#263,#264));
#290=EDGE_LOOP('',(#265,#266));
#291=FACE_BOUND('',#267,.T.);
#292=FACE_BOUND('',#268,.T.);
#293=FACE_BOUND('',#269,.T.);
#294=FACE_BOUND('',#270,.T.);
#295=FACE_BOUND('',#271,.T.);
#296=FACE_BOUND('',#272,.T.);
#297=FACE_BOUND('',#273,.T.);
#298=FACE_BOUND('',#274,.T.);
#299=FACE_BOUND('',#275,.T.);
#300=FACE_BOUND('',#276,.T.);
#301=FACE_BOUND('',#277,.T.);
#302=FACE_BOUND('',#278,.T.);
#303=FACE_BOUND('',#279,.T.);
#304=FACE_BOUND('',#280,.T.);
#305=FACE_BOUND('',#281,.T.);
#306=FACE_BOUND('',#282,.T.);
#307=FACE_BOUND('',#283,.T.);
#308=FACE_BOUND('',#284,.T.);
#309=FACE_BOUND('',#285,.T.);
#310=FACE_BOUND('',#286,.T.);
#311=FACE_BOUND('',#287,.T.);
#312=FACE_BOUND('',#288,.T.);
#313=FACE_BOUND('',#289,.T.);
#314=FACE_BOUND('',#290,.T.);
#315=ADVANCED_FACE('',(#291),#551,.T.);
#316=ADVANCED_FACE('',(#292),#552,.T.);
#317=ADVANCED_FACE('',(#293),#553,.T.);
#318=ADVANCED_FACE('',(#294),#554,.T.);
#319=ADVANCED_FACE('',(#295),#555,.T.);
#320=ADVANCED_FACE('',(#296),#89,.F.);
#321=ADVANCED_FACE('',(#297),#64,.F.);
#322=ADVANCED_FACE('',(#298,#299),#556,.F.);
#323=ADVANCED_FACE('',(#300),#65,.F.);
#324=ADVANCED_FACE('',(#301),#66,.F.);
#325=ADVANCED_FACE('',(#302),#67,.F.);
#326=ADVANCED_FACE('',(#303,#304),#557,.F.);
#327=ADVANCED_FACE('',(#305),#68,.F.);
#328=ADVANCED_FACE('',(#306,#307),#558,.F.);
#329=ADVANCED_FACE('',(#308),#63,.T.);
#330=ADVANCED_FACE('',(#309),#62,.T.);
#331=ADVANCED_FACE('',(#310),#69,.T.);
#332=ADVANCED_FACE('',(#311),#559,.F.);
#333=ADVANCED_FACE('',(#312),#560,.T.);
#334=ADVANCED_FACE('',(#313),#70,.F.);
#335=ADVANCED_FACE('',(#314),#71,.F.);
#336=AXIS2_PLACEMENT_3D('',#453,#374,$);
#337=AXIS2_PLACEMENT_3D('',#464,#378,$);
#338=AXIS2_PLACEMENT_3D('',#472,#381,$);
#339=AXIS2_PLACEMENT_3D('',#480,#384,$);
#340=AXIS2_PLACEMENT_3D('',#491,#388,$);
#341=AXIS2_PLACEMENT_3D('',#496,#390,$);
#342=AXIS2_PLACEMENT_3D('',#497,#391,#392);
#343=AXIS2_PLACEMENT_3D('',#500,#393,#394);
#344=AXIS2_PLACEMENT_3D('',#501,#395,#396);
#345=AXIS2_PLACEMENT_3D('',#503,#397,#398);
#346=AXIS2_PLACEMENT_3D('',#504,#399,#400);
#347=AXIS2_PLACEMENT_3D('',#508,#402,#403);
#348=AXIS2_PLACEMENT_3D('',#510,#404,#405);
#349=AXIS2_PLACEMENT_3D('',#511,#406,$);
#350=AXIS2_PLACEMENT_3D('',#513,#408,#409);
#351=AXIS2_PLACEMENT_3D('',#514,#410,#411);
#352=AXIS2_PLACEMENT_3D('',#515,#412,#413);
#353=AXIS2_PLACEMENT_3D('',#516,#414,#415);
#354=AXIS2_PLACEMENT_3D('',#517,#416,#417);
#355=AXIS2_PLACEMENT_3D('',#518,#418,#419);
#356=AXIS2_PLACEMENT_3D('',#519,#420,$);
#357=AXIS2_PLACEMENT_3D('',#520,#421,#422);
#358=AXIS2_PLACEMENT_3D('',#523,#423,#424);
#359=AXIS2_PLACEMENT_3D('',#524,#425,#426);
#360=AXIS2_PLACEMENT_3D('',#525,#427,#428);
#361=AXIS2_PLACEMENT_3D('',#526,#429,$);
#362=AXIS2_PLACEMENT_3D('',#527,#430,#431);
#363=AXIS2_PLACEMENT_3D('',#528,#432,#433);
#364=AXIS2_PLACEMENT_3D('',#529,#434,#435);
#365=AXIS2_PLACEMENT_3D('',#531,#436,$);
#366=AXIS2_PLACEMENT_3D('',#536,#437,#438);
#367=AXIS2_PLACEMENT_3D('',#539,#440,#441);
#368=AXIS2_PLACEMENT_3D('',#540,#442,#443);
#369=AXIS2_PLACEMENT_3D('',#543,#445,#446);
#370=AXIS2_PLACEMENT_3D('',#544,#447,$);
#371=AXIS2_PLACEMENT_3D('',#545,#448,$);
#372=AXIS2_PLACEMENT_3D('',#549,#449,#450);
#373=AXIS2_PLACEMENT_3D('',#550,#451,#452);
#374=DIRECTION('',(0.,-0.866025403784439,-0.5));
#375=DIRECTION('',(-1.,0.,0.));
#376=DIRECTION('',(0.,-0.5,0.866025403784439));
#377=DIRECTION('',(1.,0.,0.));
#378=DIRECTION('',(0.,-0.866025403784439,0.5));
#379=DIRECTION('',(-1.,0.,0.));
#380=DIRECTION('',(0.,0.5,0.866025403784439));
#381=DIRECTION('',(0.,0.,1.));
#382=DIRECTION('',(-1.,0.,0.));
#383=DIRECTION('',(0.,1.,0.));
#384=DIRECTION('',(0.,0.866025403784439,-0.5));
#385=DIRECTION('',(-1.,0.,0.));
#386=DIRECTION('',(0.,-0.5,-0.866025403784439));
#387=DIRECTION('',(1.,0.,0.));
#388=DIRECTION('',(0.,0.,-1.));
#389=DIRECTION('',(0.,-1.,0.));
#390=DIRECTION('',(1.,0.,0.));
#391=DIRECTION('',(0.,1.,0.));
#392=DIRECTION('',(0.,0.,-0.7));
#393=DIRECTION('',(-1.,0.,6.12323399573677E-17));
#394=DIRECTION('',(2.87791997799628E-16,0.,4.7));
#395=DIRECTION('',(1.,0.,-6.12323399573677E-17));
#396=DIRECTION('',(2.44929359829471E-16,0.,4.));
#397=DIRECTION('',(1.,0.,-6.12323399573677E-17));
#398=DIRECTION('',(2.44929359829471E-16,0.,4.));
#399=DIRECTION('',(-1.,1.83108029470004E-17,0.));
#400=DIRECTION('',(-1.58576205157926E-14,-866.0254037844,0.));
#401=DIRECTION('',(0.499999999997054,0.86602540378614,0.));
#402=DIRECTION('',(1.,0.,0.));
#403=DIRECTION('',(-4.39459269478404E-17,-2.39999999317558,0.));
#404=DIRECTION('',(1.,0.,0.));
#405=DIRECTION('',(-4.39459269478404E-17,-2.39999999317558,0.));
#406=DIRECTION('',(1.,0.,0.));
#407=DIRECTION('',(0.,-0.5,0.866025403784439));
#408=DIRECTION('',(-1.,-1.03623959927853E-16,0.));
#409=DIRECTION('',(2.48697503826847E-16,-2.4,0.));
#410=DIRECTION('',(1.,0.,-6.12323399573677E-17));
#411=DIRECTION('',(2.99136605794462E-16,-2.88675134595061,0.));
#412=DIRECTION('',(-1.,-1.03623959927853E-16,0.));
#413=DIRECTION('',(2.48697503826847E-16,-2.4,0.));
#414=DIRECTION('',(1.,0.,-6.12323399573677E-17));
#415=DIRECTION('',(2.99136605794462E-16,-2.88675134595061,0.));
#416=DIRECTION('',(-1.,-1.03623959927853E-16,0.));
#417=DIRECTION('',(2.48697503826847E-16,-2.4,0.));
#418=DIRECTION('',(1.,0.,-6.12323399573677E-17));
#419=DIRECTION('',(2.99136605794462E-16,-2.88675134595061,0.));
#420=DIRECTION('',(-1.,0.,6.12323399573677E-17));
#421=DIRECTION('',(-1.,0.,6.12323399573677E-17));
#422=DIRECTION('',(4.2862637970155E-16,0.,6.9999999999996));
#423=DIRECTION('',(-1.,0.,6.12323399573677E-17));
#424=DIRECTION('',(4.2862637970155E-16,0.,6.9999999999996));
#425=DIRECTION('',(-1.,-1.03623959927853E-16,0.));
#426=DIRECTION('',(2.48697503826847E-16,-2.4,0.));
#427=DIRECTION('',(1.,0.,-6.12323399573677E-17));
#428=DIRECTION('',(2.99136605794462E-16,-2.88675134595061,0.));
#429=DIRECTION('',(1.,0.,-6.12323399573677E-17));
#430=DIRECTION('',(-1.,0.,6.12323399573677E-17));
#431=DIRECTION('',(2.99136605794462E-16,-2.88675134595061,0.));
#432=DIRECTION('',(-1.,0.,6.12323399573677E-17));
#433=DIRECTION('',(2.99136605794462E-16,-2.88675134595061,0.));
#434=DIRECTION('',(1.,0.,-6.12323399573677E-17));
#435=DIRECTION('',(-2.35744508835945E-16,0.,-3.85000000000129));
#436=DIRECTION('',(1.,-5.91374474888534E-13,2.20177601008918E-12));
#437=DIRECTION('',(1.,0.,-6.12323399573677E-17));
#438=DIRECTION('',(2.44929359829471E-16,0.,4.));
#439=DIRECTION('',(-1.,0.,6.12323399573677E-17));
#440=DIRECTION('',(1.,0.,-6.12323399573677E-17));
#441=DIRECTION('',(2.44929359829471E-16,0.,4.));
#442=DIRECTION('',(-1.,0.,6.12323399573677E-17));
#443=DIRECTION('',(1.9796415508217E-16,0.,3.233));
#444=DIRECTION('',(0.707106781184743,0.,-0.707106781188352));
#445=DIRECTION('',(-1.,0.,6.12323399573677E-17));
#446=DIRECTION('',(1.9796415508217E-16,0.,3.233));
#447=DIRECTION('',(-1.,0.,6.12323399573677E-17));
#448=DIRECTION('',(0.,0.866025403784439,0.5));
#449=DIRECTION('',(-1.,-1.03623959927853E-16,0.));
#450=DIRECTION('',(2.48697503826847E-16,-2.4,0.));
#451=DIRECTION('',(-1.,-1.03623959927853E-16,0.));
#452=DIRECTION('',(2.48697503826847E-16,-2.4,0.));
#453=CARTESIAN_POINT('',(-1.8,2.88675134594813,4.44089209850063E-16));
#454=CARTESIAN_POINT('',(-1.8,2.88675134594813,5.88418203051333E-15));
#455=CARTESIAN_POINT('',(-1.8,2.88675134594813,5.6621374255883E-15));
#456=CARTESIAN_POINT('',(-4.39999999999751,2.88675134594813,6.20762561988263E-15));
#457=CARTESIAN_POINT('',(-1.8,2.52590742770461,0.625000000000001));
#458=CARTESIAN_POINT('',(-1.8,1.44337567297407,2.5));
#459=CARTESIAN_POINT('',(-1.8,1.44337567297407,2.5));
#460=CARTESIAN_POINT('',(-4.39999999999752,1.44337567297407,2.5));
#461=CARTESIAN_POINT('',(-4.39999999999752,1.44337567297407,2.5));
#462=CARTESIAN_POINT('',(-3.67831216351417,2.1650635094611,1.25));
#463=CARTESIAN_POINT('',(-4.39999999999751,2.88675134594813,5.35519419478247E-15));
#464=CARTESIAN_POINT('',(-1.8,1.44337567297406,-2.5));
#465=CARTESIAN_POINT('',(-1.8,1.44337567297406,-2.5));
#466=CARTESIAN_POINT('',(-1.8,1.44337567297406,-2.5));
#467=CARTESIAN_POINT('',(-4.39999999999751,1.44337567297406,-2.5));
#468=CARTESIAN_POINT('',(-1.8,1.80421959121758,-1.875));
#469=CARTESIAN_POINT('',(-4.39999999999751,2.88675134594813,5.23832859618003E-15));
#470=CARTESIAN_POINT('',(-3.67831216351416,2.16506350946109,-1.25));
#471=CARTESIAN_POINT('',(-4.39999999999751,1.44337567297406,-2.5));
#472=CARTESIAN_POINT('',(-1.8,-1.44337567297406,-2.5));
#473=CARTESIAN_POINT('',(-1.8,-1.44337567297407,-2.5));
#474=CARTESIAN_POINT('',(-1.8,-1.44337567297407,-2.5));
#475=CARTESIAN_POINT('',(-4.39999999999752,-1.44337567297407,-2.5));
#476=CARTESIAN_POINT('',(-1.8,-0.72168783648703,-2.5));
#477=CARTESIAN_POINT('',(-4.39999999999751,1.44337567297406,-2.5));
#478=CARTESIAN_POINT('',(-3.67831216351417,-1.74166236988071E-15,-2.5));
#479=CARTESIAN_POINT('',(-4.39999999999752,-1.44337567297407,-2.5));
#480=CARTESIAN_POINT('',(-1.8,-1.44337567297406,2.5));
#481=CARTESIAN_POINT('',(-1.8,-1.44337567297406,2.5));
#482=CARTESIAN_POINT('',(-1.8,-1.44337567297406,2.5));
#483=CARTESIAN_POINT('',(-4.39999999999751,-1.44337567297406,2.5));
#484=CARTESIAN_POINT('',(-1.8,-1.80421959121758,1.875));
#485=CARTESIAN_POINT('',(-1.8,-2.88675134594813,-5.55111512312578E-15));
#486=CARTESIAN_POINT('',(-1.8,-2.88675134594813,-5.55111512312578E-15));
#487=CARTESIAN_POINT('',(-4.39999999999751,-2.88675134594813,-5.43768755850184E-15));
#488=CARTESIAN_POINT('',(-4.39999999999751,-2.88675134594813,-5.73328877849625E-15));
#489=CARTESIAN_POINT('',(-3.67831216351416,-2.16506350946109,1.25));
#490=CARTESIAN_POINT('',(-4.39999999999751,-1.44337567297406,2.5));
#491=CARTESIAN_POINT('',(-1.8,1.44337567297406,2.5));
#492=CARTESIAN_POINT('',(-1.8,0.72168783648703,2.5));
#493=CARTESIAN_POINT('',(-4.39999999999751,-1.44337567297406,2.5));
#494=CARTESIAN_POINT('',(-3.67831216351417,2.56045185054177E-15,2.5));
#495=CARTESIAN_POINT('',(-4.39999999999752,1.44337567297407,2.5));
#496=CARTESIAN_POINT('',(0.699999999999999,0.,0.));
#497=CARTESIAN_POINT('',(0.699999999999999,0.,-4.7));
#498=CARTESIAN_POINT('',(-5.53810469705595E-16,-5.75583995599256E-16,-4.7));
#499=CARTESIAN_POINT('',(0.7,-4.89858719658941E-16,-4.));
#500=CARTESIAN_POINT('',(-1.11022302462516E-16,0.,4.28626379701573E-17));
#501=CARTESIAN_POINT('',(0.699999999999999,0.,0.));
#502=CARTESIAN_POINT('',(0.700000000000001,2.44929359829471E-16,4.));
#503=CARTESIAN_POINT('',(0.699999999999999,0.,0.));
#504=CARTESIAN_POINT('',(-500.414359353945,9.13002928067494E-15,0.));
#505=CARTESIAN_POINT('',(498.199999996049,863.625403791224,0.));
#506=CARTESIAN_POINT('',(-1.79999999999998,-2.39999999658785,1.69692038195985E-16));
#507=CARTESIAN_POINT('',(-0.414359357895847,-1.13699523817992E-13,0.));
#508=CARTESIAN_POINT('',(-1.80000000000001,7.88860905221012E-30,0.));
#509=CARTESIAN_POINT('',(-1.80000000000003,8.04068480885885E-9,-2.39999999658785));
#510=CARTESIAN_POINT('',(-1.80000000000001,7.88860905221012E-30,0.));
#511=CARTESIAN_POINT('',(-1.8,0.,0.));
#512=CARTESIAN_POINT('',(-1.8,-2.52590742770461,-0.625));
#513=CARTESIAN_POINT('',(-3.91324865405187,-2.1898319384506E-16,0.));
#514=CARTESIAN_POINT('',(-4.4,-2.69422295812418E-16,0.));
#515=CARTESIAN_POINT('',(-3.91324865405187,-2.1898319384506E-16,0.));
#516=CARTESIAN_POINT('',(-4.4,-2.69422295812418E-16,0.));
#517=CARTESIAN_POINT('',(-3.91324865405187,-2.1898319384506E-16,0.));
#518=CARTESIAN_POINT('',(-4.4,-2.69422295812418E-16,0.));
#519=CARTESIAN_POINT('',(1.22464679914735E-16,0.,4.));
#520=CARTESIAN_POINT('',(-4.44089209850063E-16,-2.22044604925031E-13,7.89056224503139E-13));
#521=CARTESIAN_POINT('',(-3.04733242657648E-12,-5.70574342460947E-16,-6.99999999999914));
#522=CARTESIAN_POINT('',(-3.0462376663823E-12,3.39259570834463E-13,6.99999999999914));
#523=CARTESIAN_POINT('',(-4.44089209850063E-16,-2.22044604925031E-13,7.89056224503139E-13));
#524=CARTESIAN_POINT('',(-3.91324865405187,-2.1898319384506E-16,0.));
#525=CARTESIAN_POINT('',(-4.4,-2.69422295812418E-16,0.));
#526=CARTESIAN_POINT('',(-4.4,0.,7.));
#527=CARTESIAN_POINT('',(-4.4,-2.69422295812418E-16,0.));
#528=CARTESIAN_POINT('',(-4.4,-2.69422295812418E-16,0.));
#529=CARTESIAN_POINT('',(-4.4,-2.22044604925031E-13,7.89325646798951E-13));
#530=CARTESIAN_POINT('',(-4.39999999999998,-4.15977866440473E-16,-3.85000000000002));
#531=CARTESIAN_POINT('',(2.15152980589247,-2.22044604925031E-13,7.88924481298636E-13));
#532=CARTESIAN_POINT('',(-4.4,0.,-3.85));
#533=CARTESIAN_POINT('',(-3.33589066138603,0.,-5.39808733855129));
#534=CARTESIAN_POINT('',(-1.80843551294498,0.,-6.49160636527613));
#535=CARTESIAN_POINT('',(-3.03576608295941E-15,0.,-7.));
#536=CARTESIAN_POINT('',(-4.4,0.,2.69422295812418E-16));
#537=CARTESIAN_POINT('',(29.333,0.,4.));
#538=CARTESIAN_POINT('',(24.233000000001,-4.89858719658941E-16,4.00000000000195));
#539=CARTESIAN_POINT('',(24.2330000000039,0.,-1.48384329418713E-15));
#540=CARTESIAN_POINT('',(25.,0.,-1.53080849893419E-15));
#541=CARTESIAN_POINT('',(24.3097,0.,3.92330000000352));
#542=CARTESIAN_POINT('',(25.,-3.95928310164339E-16,3.233));
#543=CARTESIAN_POINT('',(25.,0.,-1.53080849893419E-15));
#544=CARTESIAN_POINT('',(25.,0.,-1.53080849893419E-15));
#545=CARTESIAN_POINT('',(-1.8,-2.88675134594813,-4.44089209850063E-16));
#546=CARTESIAN_POINT('',(-4.39999999999752,-1.44337567297407,-2.5));
#547=CARTESIAN_POINT('',(-3.67831216351417,-2.1650635094611,-1.25));
#548=CARTESIAN_POINT('',(-4.39999999999751,-2.88675134594813,-5.98764331663098E-15));
#549=CARTESIAN_POINT('',(-3.91324865405187,-2.1898319384506E-16,0.));
#550=CARTESIAN_POINT('',(-3.91324865405187,-2.1898319384506E-16,0.));
#551=PLANE('',#336);
#552=PLANE('',#337);
#553=PLANE('',#338);
#554=PLANE('',#339);
#555=PLANE('',#340);
#556=PLANE('',#349);
#557=PLANE('',#356);
#558=PLANE('',#361);
#559=PLANE('',#370);
#560=PLANE('',#371);
#561=CLOSED_SHELL('',(#315,#316,#317,#318,#319,#320,#321,#322,#323,#324,
#325,#326,#327,#328,#329,#330,#331,#332,#333,#334,#335));
#562=MANIFOLD_SOLID_BREP('',#561);
#563=ADVANCED_BREP_SHAPE_REPRESENTATION('',(#562),#61);
ENDSEC;
END-ISO-10303-21;
