ISO-10303-21;
HEADER;
/* Generated by software containing ST-Developer
 * from STEP Tools, Inc. (www.steptools.com) 
 */

FILE_DESCRIPTION(
/* description */ ('Alibre Inc.'),
/* implementation_level */ '2;1');

FILE_NAME(
/* name */ 'export-F7D66152-71EE-4C54-A639-E7D80E935A75',
/* time_stamp */ '2021-03-19T13:56:13+01:00',
/* author */ (''),
/* organization */ (''),
/* preprocessor_version */ 'ST-DEVELOPER v17',
/* originating_system */ 'Alibre',
/* authorisation */ '');

FILE_SCHEMA (('AUTOMOTIVE_DESIGN'));
ENDSEC;

DATA;
#10=STYLED_ITEM('NAME_0',(#44),#586);
#11=STYLED_ITEM('NAME_0',(#45),#329);
#12=STYLED_ITEM('NAME_0',(#45),#330);
#13=STYLED_ITEM('NAME_0',(#45),#331);
#14=STYLED_ITEM('NAME_0',(#45),#332);
#15=STYLED_ITEM('NAME_0',(#45),#333);
#16=STYLED_ITEM('NAME_0',(#45),#334);
#17=STYLED_ITEM('NAME_0',(#45),#335);
#18=STYLED_ITEM('NAME_0',(#45),#336);
#19=STYLED_ITEM('NAME_0',(#45),#337);
#20=STYLED_ITEM('NAME_0',(#45),#338);
#21=STYLED_ITEM('NAME_0',(#45),#339);
#22=STYLED_ITEM('NAME_0',(#45),#340);
#23=STYLED_ITEM('NAME_0',(#45),#341);
#24=STYLED_ITEM('NAME_0',(#45),#342);
#25=STYLED_ITEM('NAME_0',(#45),#343);
#26=STYLED_ITEM('NAME_0',(#45),#344);
#27=STYLED_ITEM('NAME_0',(#45),#345);
#28=STYLED_ITEM('NAME_0',(#45),#346);
#29=STYLED_ITEM('NAME_0',(#45),#347);
#30=STYLED_ITEM('NAME_0',(#45),#348);
#31=MECHANICAL_DESIGN_GEOMETRIC_PRESENTATION_REPRESENTATION('NAME_0',(#10,
#11,#12,#13,#14,#15,#16,#17,#18,#19,#20,#21,#22,#23,#24,#25,#26,#27,#28,
#29,#30),#60);
#32=COLOUR_RGB('',0.882352941176471,0.882352941176471,0.882352941176471);
#33=COLOUR_RGB('',0.686274509803922,0.686274509803922,0.686274509803922);
#34=FILL_AREA_STYLE_COLOUR('NAME_0',#32);
#35=FILL_AREA_STYLE_COLOUR('NAME_0',#33);
#36=FILL_AREA_STYLE('NAME_0',(#34));
#37=FILL_AREA_STYLE('NAME_0',(#35));
#38=SURFACE_STYLE_FILL_AREA(#36);
#39=SURFACE_STYLE_FILL_AREA(#37);
#40=SURFACE_SIDE_STYLE('NAME_0',(#38));
#41=SURFACE_SIDE_STYLE('NAME_0',(#39));
#42=SURFACE_STYLE_USAGE(.POSITIVE.,#40);
#43=SURFACE_STYLE_USAGE(.POSITIVE.,#41);
#44=PRESENTATION_STYLE_ASSIGNMENT((#42));
#45=PRESENTATION_STYLE_ASSIGNMENT((#43));
#46=PRODUCT_DEFINITION_CONTEXT('part definition',#53,'design');
#47=SHAPE_DEFINITION_REPRESENTATION(#48,#587);
#48=PRODUCT_DEFINITION_SHAPE('PRODUCT_VERSION_ID',
'PRODUCT_VERSION_DESCR',#49);
#49=PRODUCT_DEFINITION('PRODUCT_VERSION_ID','PRODUCT_VERSION_DESCR',#50,
#46);
#50=PRODUCT_DEFINITION_FORMATION_WITH_SPECIFIED_SOURCE(
'PRODUCT_VERSION_ID','PRODUCT_VERSION_DESCR',#55,.MADE.);
#51=PRODUCT_RELATED_PRODUCT_CATEGORY('part','part',(#55));
#52=APPLICATION_PROTOCOL_DEFINITION('Draft International Standard',
'automotive_design',1994,#53);
#53=APPLICATION_CONTEXT('automotive_Design');
#54=PRODUCT_CONTEXT('3D Mechanical Parts',#53,'mechanical');
#55=PRODUCT(
'HI_Hexagon bolts  ISO4017/DIN933 M8x16 01210.080.016 (High)',
'5513 M8x16 Bolt Hexagonal DIN-933','',(#54));
#56=(
LENGTH_UNIT()
NAMED_UNIT(*)
SI_UNIT(.MILLI.,.METRE.)
);
#57=(
NAMED_UNIT(*)
PLANE_ANGLE_UNIT()
SI_UNIT($,.RADIAN.)
);
#58=(
NAMED_UNIT(*)
SI_UNIT($,.STERADIAN.)
SOLID_ANGLE_UNIT()
);
#59=UNCERTAINTY_MEASURE_WITH_UNIT(LENGTH_MEASURE(1.E-6),#56,
'DISTANCE_ACCURACY_VALUE',
'Maximum model space distance between geometric entities at asserted c
onnectivities');
#60=(
GEOMETRIC_REPRESENTATION_CONTEXT(3)
GLOBAL_UNCERTAINTY_ASSIGNED_CONTEXT((#59))
GLOBAL_UNIT_ASSIGNED_CONTEXT((#58,#57,#56))
REPRESENTATION_CONTEXT('ID1','3D')
);
#61=CONICAL_SURFACE('',#367,4.,0.7853981634);
#62=CONICAL_SURFACE('',#372,6.5,1.0471975512);
#63=CONICAL_SURFACE('',#374,6.5,1.0471975512);
#64=CONICAL_SURFACE('',#376,6.5,1.0471975512);
#65=CONICAL_SURFACE('',#378,6.5,1.0471975512);
#66=CONICAL_SURFACE('',#380,6.5,1.0471975512);
#67=CONICAL_SURFACE('',#382,6.5,1.0471975512);
#68=TOROIDAL_SURFACE('',#360,4.4,0.4);
#69=CYLINDRICAL_SURFACE('',#356,5.815);
#70=CYLINDRICAL_SURFACE('',#364,4.);
#71=CIRCLE('',#355,5.815);
#72=CIRCLE('',#357,5.815);
#73=CIRCLE('',#359,4.4);
#74=CIRCLE('',#361,0.4);
#75=CIRCLE('',#362,4.);
#76=CIRCLE('',#363,4.);
#77=CIRCLE('',#365,4.);
#78=CIRCLE('',#366,4.);
#79=CIRCLE('',#368,3.23299999999609);
#80=CIRCLE('',#369,3.23299999999609);
#81=CIRCLE('',#373,6.5);
#82=CIRCLE('',#375,6.5);
#83=CIRCLE('',#377,6.5);
#84=CIRCLE('',#379,6.5);
#85=CIRCLE('',#381,6.5);
#86=CIRCLE('',#383,6.5);
#87=VECTOR('',#386,1.);
#88=VECTOR('',#387,1.);
#89=VECTOR('',#388,1.);
#90=VECTOR('',#390,1.);
#91=VECTOR('',#391,1.);
#92=VECTOR('',#393,1.);
#93=VECTOR('',#394,1.);
#94=VECTOR('',#396,1.);
#95=VECTOR('',#397,1.);
#96=VECTOR('',#398,1.);
#97=VECTOR('',#400,1.);
#98=VECTOR('',#404,1.);
#99=VECTOR('',#407,1.);
#100=VECTOR('',#422,1.);
#101=VECTOR('',#429,1.);
#102=LINE('',#467,#87);
#103=LINE('',#469,#88);
#104=LINE('',#471,#89);
#105=LINE('',#481,#90);
#106=LINE('',#483,#91);
#107=LINE('',#493,#92);
#108=LINE('',#495,#93);
#109=LINE('',#506,#94);
#110=LINE('',#508,#95);
#111=LINE('',#510,#96);
#112=LINE('',#520,#97);
#113=LINE('',#527,#98);
#114=LINE('',#529,#99);
#115=LINE('',#542,#100);
#116=LINE('',#548,#101);
#117=VERTEX_POINT('',#465);
#118=VERTEX_POINT('',#466);
#119=VERTEX_POINT('',#468);
#120=VERTEX_POINT('',#470);
#121=VERTEX_POINT('',#472);
#122=VERTEX_POINT('',#480);
#123=VERTEX_POINT('',#482);
#124=VERTEX_POINT('',#484);
#125=VERTEX_POINT('',#492);
#126=VERTEX_POINT('',#494);
#127=VERTEX_POINT('',#496);
#128=VERTEX_POINT('',#504);
#129=VERTEX_POINT('',#505);
#130=VERTEX_POINT('',#507);
#131=VERTEX_POINT('',#509);
#132=VERTEX_POINT('',#511);
#133=VERTEX_POINT('',#519);
#134=VERTEX_POINT('',#526);
#135=VERTEX_POINT('',#530);
#136=VERTEX_POINT('',#534);
#137=VERTEX_POINT('',#537);
#138=VERTEX_POINT('',#539);
#139=VERTEX_POINT('',#543);
#140=VERTEX_POINT('',#545);
#141=VERTEX_POINT('',#549);
#142=VERTEX_POINT('',#551);
#143=VERTEX_POINT('',#558);
#144=(
BOUNDED_CURVE()
B_SPLINE_CURVE(2,(#462,#463,#464),.UNSPECIFIED.,.F.,.U.)
B_SPLINE_CURVE_WITH_KNOTS((3,3),(0.150485373183294,3.97520018303101),
 .UNSPECIFIED.)
CURVE()
GEOMETRIC_REPRESENTATION_ITEM()
RATIONAL_B_SPLINE_CURVE((1.00624527733191,1.08407862040431,1.08407862040431))
REPRESENTATION_ITEM('')
);
#145=(
BOUNDED_CURVE()
B_SPLINE_CURVE(2,(#473,#474,#475),.UNSPECIFIED.,.F.,.U.)
B_SPLINE_CURVE_WITH_KNOTS((3,3),(3.97520018303094,7.79991499287863),
 .UNSPECIFIED.)
CURVE()
GEOMETRIC_REPRESENTATION_ITEM()
RATIONAL_B_SPLINE_CURVE((1.0840786204043,1.0840786204043,1.00624527733191))
REPRESENTATION_ITEM('')
);
#146=(
BOUNDED_CURVE()
B_SPLINE_CURVE(2,(#477,#478,#479),.UNSPECIFIED.,.F.,.U.)
B_SPLINE_CURVE_WITH_KNOTS((3,3),(0.150485373181749,3.97520018302917),
 .UNSPECIFIED.)
CURVE()
GEOMETRIC_REPRESENTATION_ITEM()
RATIONAL_B_SPLINE_CURVE((1.00624527733185,1.08407862040424,1.08407862040424))
REPRESENTATION_ITEM('')
);
#147=(
BOUNDED_CURVE()
B_SPLINE_CURVE(2,(#485,#486,#487),.UNSPECIFIED.,.F.,.U.)
B_SPLINE_CURVE_WITH_KNOTS((3,3),(3.97520018303008,7.79991499287764),
 .UNSPECIFIED.)
CURVE()
GEOMETRIC_REPRESENTATION_ITEM()
RATIONAL_B_SPLINE_CURVE((1.08407862040427,1.08407862040427,1.00624527733188))
REPRESENTATION_ITEM('')
);
#148=(
BOUNDED_CURVE()
B_SPLINE_CURVE(2,(#489,#490,#491),.UNSPECIFIED.,.F.,.U.)
B_SPLINE_CURVE_WITH_KNOTS((3,3),(0.15048537318175,3.97520018302917),
 .UNSPECIFIED.)
CURVE()
GEOMETRIC_REPRESENTATION_ITEM()
RATIONAL_B_SPLINE_CURVE((1.00624527733185,1.08407862040423,1.08407862040423))
REPRESENTATION_ITEM('')
);
#149=(
BOUNDED_CURVE()
B_SPLINE_CURVE(2,(#497,#498,#499),.UNSPECIFIED.,.F.,.U.)
B_SPLINE_CURVE_WITH_KNOTS((3,3),(3.97520018303007,7.79991499287763),
 .UNSPECIFIED.)
CURVE()
GEOMETRIC_REPRESENTATION_ITEM()
RATIONAL_B_SPLINE_CURVE((1.08407862040427,1.08407862040427,1.00624527733188))
REPRESENTATION_ITEM('')
);
#150=(
BOUNDED_CURVE()
B_SPLINE_CURVE(2,(#501,#502,#503),.UNSPECIFIED.,.F.,.U.)
B_SPLINE_CURVE_WITH_KNOTS((3,3),(0.150485373181748,3.97520018302917),
 .UNSPECIFIED.)
CURVE()
GEOMETRIC_REPRESENTATION_ITEM()
RATIONAL_B_SPLINE_CURVE((1.00624527733185,1.08407862040423,1.08407862040424))
REPRESENTATION_ITEM('')
);
#151=(
BOUNDED_CURVE()
B_SPLINE_CURVE(2,(#512,#513,#514),.UNSPECIFIED.,.F.,.U.)
B_SPLINE_CURVE_WITH_KNOTS((3,3),(3.97520018303007,7.79991499287764),
 .UNSPECIFIED.)
CURVE()
GEOMETRIC_REPRESENTATION_ITEM()
RATIONAL_B_SPLINE_CURVE((1.08407862040427,1.08407862040427,1.00624527733188))
REPRESENTATION_ITEM('')
);
#152=(
BOUNDED_CURVE()
B_SPLINE_CURVE(2,(#516,#517,#518),.UNSPECIFIED.,.F.,.U.)
B_SPLINE_CURVE_WITH_KNOTS((3,3),(0.150485373183234,3.97520018303094),
 .UNSPECIFIED.)
CURVE()
GEOMETRIC_REPRESENTATION_ITEM()
RATIONAL_B_SPLINE_CURVE((1.00624527733191,1.0840786204043,1.0840786204043))
REPRESENTATION_ITEM('')
);
#153=(
BOUNDED_CURVE()
B_SPLINE_CURVE(2,(#521,#522,#523),.UNSPECIFIED.,.F.,.U.)
B_SPLINE_CURVE_WITH_KNOTS((3,3),(3.97520018303101,7.79991499287871),
 .UNSPECIFIED.)
CURVE()
GEOMETRIC_REPRESENTATION_ITEM()
RATIONAL_B_SPLINE_CURVE((1.08407862040431,1.08407862040431,1.00624527733191))
REPRESENTATION_ITEM('')
);
#154=(
BOUNDED_CURVE()
B_SPLINE_CURVE(2,(#555,#556,#557),.UNSPECIFIED.,.F.,.U.)
B_SPLINE_CURVE_WITH_KNOTS((3,3),(0.15048537318175,3.97520018302917),
 .UNSPECIFIED.)
CURVE()
GEOMETRIC_REPRESENTATION_ITEM()
RATIONAL_B_SPLINE_CURVE((1.00624527733185,1.08407862040423,1.08407862040423))
REPRESENTATION_ITEM('')
);
#155=(
BOUNDED_CURVE()
B_SPLINE_CURVE(2,(#559,#560,#561),.UNSPECIFIED.,.F.,.U.)
B_SPLINE_CURVE_WITH_KNOTS((3,3),(3.97520018303007,7.79991499287763),
 .UNSPECIFIED.)
CURVE()
GEOMETRIC_REPRESENTATION_ITEM()
RATIONAL_B_SPLINE_CURVE((1.08407862040427,1.08407862040427,1.00624527733188))
REPRESENTATION_ITEM('')
);
#156=EDGE_CURVE('',#117,#118,#144,.T.);
#157=EDGE_CURVE('',#117,#119,#102,.T.);
#158=EDGE_CURVE('',#120,#119,#103,.T.);
#159=EDGE_CURVE('',#121,#120,#104,.F.);
#160=EDGE_CURVE('',#118,#121,#145,.T.);
#161=EDGE_CURVE('',#121,#122,#146,.T.);
#162=EDGE_CURVE('',#123,#120,#105,.T.);
#163=EDGE_CURVE('',#124,#123,#106,.F.);
#164=EDGE_CURVE('',#122,#124,#147,.T.);
#165=EDGE_CURVE('',#124,#125,#148,.T.);
#166=EDGE_CURVE('',#126,#123,#107,.T.);
#167=EDGE_CURVE('',#127,#126,#108,.F.);
#168=EDGE_CURVE('',#125,#127,#149,.T.);
#169=EDGE_CURVE('',#128,#129,#150,.T.);
#170=EDGE_CURVE('',#128,#130,#109,.T.);
#171=EDGE_CURVE('',#131,#130,#110,.T.);
#172=EDGE_CURVE('',#132,#131,#111,.F.);
#173=EDGE_CURVE('',#129,#132,#151,.T.);
#174=EDGE_CURVE('',#127,#133,#152,.T.);
#175=EDGE_CURVE('',#130,#126,#112,.T.);
#176=EDGE_CURVE('',#133,#128,#153,.T.);
#177=EDGE_CURVE('',#134,#134,#71,.F.);
#178=EDGE_CURVE('',#119,#131,#113,.F.);
#179=EDGE_CURVE('',#134,#135,#114,.T.);
#180=EDGE_CURVE('',#135,#135,#72,.T.);
#181=EDGE_CURVE('',#136,#136,#73,.F.);
#182=EDGE_CURVE('',#136,#137,#74,.T.);
#183=EDGE_CURVE('',#138,#137,#75,.F.);
#184=EDGE_CURVE('',#137,#138,#76,.F.);
#185=EDGE_CURVE('',#138,#139,#115,.T.);
#186=EDGE_CURVE('',#140,#139,#77,.T.);
#187=EDGE_CURVE('',#139,#140,#78,.T.);
#188=EDGE_CURVE('',#140,#141,#116,.T.);
#189=EDGE_CURVE('',#142,#141,#79,.F.);
#190=EDGE_CURVE('',#141,#142,#80,.F.);
#191=EDGE_CURVE('',#132,#143,#154,.T.);
#192=EDGE_CURVE('',#143,#117,#155,.T.);
#193=EDGE_CURVE('',#129,#133,#81,.T.);
#194=EDGE_CURVE('',#133,#125,#82,.T.);
#195=EDGE_CURVE('',#143,#129,#83,.T.);
#196=EDGE_CURVE('',#118,#143,#84,.T.);
#197=EDGE_CURVE('',#122,#118,#85,.T.);
#198=EDGE_CURVE('',#125,#122,#86,.T.);
#199=ORIENTED_EDGE('',*,*,#156,.F.);
#200=ORIENTED_EDGE('',*,*,#157,.T.);
#201=ORIENTED_EDGE('',*,*,#158,.F.);
#202=ORIENTED_EDGE('',*,*,#159,.F.);
#203=ORIENTED_EDGE('',*,*,#160,.F.);
#204=ORIENTED_EDGE('',*,*,#161,.F.);
#205=ORIENTED_EDGE('',*,*,#159,.T.);
#206=ORIENTED_EDGE('',*,*,#162,.F.);
#207=ORIENTED_EDGE('',*,*,#163,.F.);
#208=ORIENTED_EDGE('',*,*,#164,.F.);
#209=ORIENTED_EDGE('',*,*,#165,.F.);
#210=ORIENTED_EDGE('',*,*,#163,.T.);
#211=ORIENTED_EDGE('',*,*,#166,.F.);
#212=ORIENTED_EDGE('',*,*,#167,.F.);
#213=ORIENTED_EDGE('',*,*,#168,.F.);
#214=ORIENTED_EDGE('',*,*,#169,.F.);
#215=ORIENTED_EDGE('',*,*,#170,.T.);
#216=ORIENTED_EDGE('',*,*,#171,.F.);
#217=ORIENTED_EDGE('',*,*,#172,.F.);
#218=ORIENTED_EDGE('',*,*,#173,.F.);
#219=ORIENTED_EDGE('',*,*,#174,.F.);
#220=ORIENTED_EDGE('',*,*,#167,.T.);
#221=ORIENTED_EDGE('',*,*,#175,.F.);
#222=ORIENTED_EDGE('',*,*,#170,.F.);
#223=ORIENTED_EDGE('',*,*,#176,.F.);
#224=ORIENTED_EDGE('',*,*,#177,.F.);
#225=ORIENTED_EDGE('',*,*,#175,.T.);
#226=ORIENTED_EDGE('',*,*,#166,.T.);
#227=ORIENTED_EDGE('',*,*,#162,.T.);
#228=ORIENTED_EDGE('',*,*,#158,.T.);
#229=ORIENTED_EDGE('',*,*,#178,.T.);
#230=ORIENTED_EDGE('',*,*,#171,.T.);
#231=ORIENTED_EDGE('',*,*,#179,.T.);
#232=ORIENTED_EDGE('',*,*,#180,.F.);
#233=ORIENTED_EDGE('',*,*,#179,.F.);
#234=ORIENTED_EDGE('',*,*,#177,.T.);
#235=ORIENTED_EDGE('',*,*,#181,.F.);
#236=ORIENTED_EDGE('',*,*,#180,.T.);
#237=ORIENTED_EDGE('',*,*,#182,.F.);
#238=ORIENTED_EDGE('',*,*,#181,.T.);
#239=ORIENTED_EDGE('',*,*,#182,.T.);
#240=ORIENTED_EDGE('',*,*,#183,.F.);
#241=ORIENTED_EDGE('',*,*,#184,.F.);
#242=ORIENTED_EDGE('',*,*,#185,.T.);
#243=ORIENTED_EDGE('',*,*,#186,.F.);
#244=ORIENTED_EDGE('',*,*,#187,.F.);
#245=ORIENTED_EDGE('',*,*,#185,.F.);
#246=ORIENTED_EDGE('',*,*,#183,.T.);
#247=ORIENTED_EDGE('',*,*,#184,.T.);
#248=ORIENTED_EDGE('',*,*,#188,.T.);
#249=ORIENTED_EDGE('',*,*,#189,.F.);
#250=ORIENTED_EDGE('',*,*,#190,.F.);
#251=ORIENTED_EDGE('',*,*,#188,.F.);
#252=ORIENTED_EDGE('',*,*,#186,.T.);
#253=ORIENTED_EDGE('',*,*,#187,.T.);
#254=ORIENTED_EDGE('',*,*,#189,.T.);
#255=ORIENTED_EDGE('',*,*,#190,.T.);
#256=ORIENTED_EDGE('',*,*,#191,.F.);
#257=ORIENTED_EDGE('',*,*,#172,.T.);
#258=ORIENTED_EDGE('',*,*,#178,.F.);
#259=ORIENTED_EDGE('',*,*,#157,.F.);
#260=ORIENTED_EDGE('',*,*,#192,.F.);
#261=ORIENTED_EDGE('',*,*,#169,.T.);
#262=ORIENTED_EDGE('',*,*,#193,.T.);
#263=ORIENTED_EDGE('',*,*,#176,.T.);
#264=ORIENTED_EDGE('',*,*,#168,.T.);
#265=ORIENTED_EDGE('',*,*,#174,.T.);
#266=ORIENTED_EDGE('',*,*,#194,.T.);
#267=ORIENTED_EDGE('',*,*,#191,.T.);
#268=ORIENTED_EDGE('',*,*,#195,.T.);
#269=ORIENTED_EDGE('',*,*,#173,.T.);
#270=ORIENTED_EDGE('',*,*,#156,.T.);
#271=ORIENTED_EDGE('',*,*,#196,.T.);
#272=ORIENTED_EDGE('',*,*,#192,.T.);
#273=ORIENTED_EDGE('',*,*,#160,.T.);
#274=ORIENTED_EDGE('',*,*,#161,.T.);
#275=ORIENTED_EDGE('',*,*,#197,.T.);
#276=ORIENTED_EDGE('',*,*,#164,.T.);
#277=ORIENTED_EDGE('',*,*,#165,.T.);
#278=ORIENTED_EDGE('',*,*,#198,.T.);
#279=ORIENTED_EDGE('',*,*,#195,.F.);
#280=ORIENTED_EDGE('',*,*,#196,.F.);
#281=ORIENTED_EDGE('',*,*,#197,.F.);
#282=ORIENTED_EDGE('',*,*,#198,.F.);
#283=ORIENTED_EDGE('',*,*,#194,.F.);
#284=ORIENTED_EDGE('',*,*,#193,.F.);
#285=EDGE_LOOP('',(#199,#200,#201,#202,#203));
#286=EDGE_LOOP('',(#204,#205,#206,#207,#208));
#287=EDGE_LOOP('',(#209,#210,#211,#212,#213));
#288=EDGE_LOOP('',(#214,#215,#216,#217,#218));
#289=EDGE_LOOP('',(#219,#220,#221,#222,#223));
#290=EDGE_LOOP('',(#224));
#291=EDGE_LOOP('',(#225,#226,#227,#228,#229,#230));
#292=EDGE_LOOP('',(#231,#232,#233,#234));
#293=EDGE_LOOP('',(#235));
#294=EDGE_LOOP('',(#236));
#295=EDGE_LOOP('',(#237,#238,#239,#240,#241));
#296=EDGE_LOOP('',(#242,#243,#244,#245,#246,#247));
#297=EDGE_LOOP('',(#248,#249,#250,#251,#252,#253));
#298=EDGE_LOOP('',(#254,#255));
#299=EDGE_LOOP('',(#256,#257,#258,#259,#260));
#300=EDGE_LOOP('',(#261,#262,#263));
#301=EDGE_LOOP('',(#264,#265,#266));
#302=EDGE_LOOP('',(#267,#268,#269));
#303=EDGE_LOOP('',(#270,#271,#272));
#304=EDGE_LOOP('',(#273,#274,#275));
#305=EDGE_LOOP('',(#276,#277,#278));
#306=EDGE_LOOP('',(#279,#280,#281,#282,#283,#284));
#307=FACE_BOUND('',#285,.T.);
#308=FACE_BOUND('',#286,.T.);
#309=FACE_BOUND('',#287,.T.);
#310=FACE_BOUND('',#288,.T.);
#311=FACE_BOUND('',#289,.T.);
#312=FACE_BOUND('',#290,.T.);
#313=FACE_BOUND('',#291,.T.);
#314=FACE_BOUND('',#292,.T.);
#315=FACE_BOUND('',#293,.T.);
#316=FACE_BOUND('',#294,.T.);
#317=FACE_BOUND('',#295,.T.);
#318=FACE_BOUND('',#296,.T.);
#319=FACE_BOUND('',#297,.T.);
#320=FACE_BOUND('',#298,.T.);
#321=FACE_BOUND('',#299,.T.);
#322=FACE_BOUND('',#300,.T.);
#323=FACE_BOUND('',#301,.T.);
#324=FACE_BOUND('',#302,.T.);
#325=FACE_BOUND('',#303,.T.);
#326=FACE_BOUND('',#304,.T.);
#327=FACE_BOUND('',#305,.T.);
#328=FACE_BOUND('',#306,.T.);
#329=ADVANCED_FACE('',(#307),#575,.T.);
#330=ADVANCED_FACE('',(#308),#576,.T.);
#331=ADVANCED_FACE('',(#309),#577,.T.);
#332=ADVANCED_FACE('',(#310),#578,.T.);
#333=ADVANCED_FACE('',(#311),#579,.T.);
#334=ADVANCED_FACE('',(#312,#313),#580,.F.);
#335=ADVANCED_FACE('',(#314),#69,.T.);
#336=ADVANCED_FACE('',(#315,#316),#581,.F.);
#337=ADVANCED_FACE('',(#317),#68,.F.);
#338=ADVANCED_FACE('',(#318),#70,.T.);
#339=ADVANCED_FACE('',(#319),#61,.T.);
#340=ADVANCED_FACE('',(#320),#582,.F.);
#341=ADVANCED_FACE('',(#321),#583,.T.);
#342=ADVANCED_FACE('',(#322),#62,.T.);
#343=ADVANCED_FACE('',(#323),#63,.T.);
#344=ADVANCED_FACE('',(#324),#64,.T.);
#345=ADVANCED_FACE('',(#325),#65,.T.);
#346=ADVANCED_FACE('',(#326),#66,.T.);
#347=ADVANCED_FACE('',(#327),#67,.T.);
#348=ADVANCED_FACE('',(#328),#584,.F.);
#349=AXIS2_PLACEMENT_3D('',#461,#385,$);
#350=AXIS2_PLACEMENT_3D('',#476,#389,$);
#351=AXIS2_PLACEMENT_3D('',#488,#392,$);
#352=AXIS2_PLACEMENT_3D('',#500,#395,$);
#353=AXIS2_PLACEMENT_3D('',#515,#399,$);
#354=AXIS2_PLACEMENT_3D('',#524,#401,$);
#355=AXIS2_PLACEMENT_3D('',#525,#402,#403);
#356=AXIS2_PLACEMENT_3D('',#528,#405,#406);
#357=AXIS2_PLACEMENT_3D('',#531,#408,#409);
#358=AXIS2_PLACEMENT_3D('',#532,#410,$);
#359=AXIS2_PLACEMENT_3D('',#533,#411,#412);
#360=AXIS2_PLACEMENT_3D('',#535,#413,$);
#361=AXIS2_PLACEMENT_3D('',#536,#414,#415);
#362=AXIS2_PLACEMENT_3D('',#538,#416,#417);
#363=AXIS2_PLACEMENT_3D('',#540,#418,#419);
#364=AXIS2_PLACEMENT_3D('',#541,#420,#421);
#365=AXIS2_PLACEMENT_3D('',#544,#423,#424);
#366=AXIS2_PLACEMENT_3D('',#546,#425,#426);
#367=AXIS2_PLACEMENT_3D('',#547,#427,#428);
#368=AXIS2_PLACEMENT_3D('',#550,#430,#431);
#369=AXIS2_PLACEMENT_3D('',#552,#432,#433);
#370=AXIS2_PLACEMENT_3D('',#553,#434,$);
#371=AXIS2_PLACEMENT_3D('',#554,#435,$);
#372=AXIS2_PLACEMENT_3D('',#562,#436,#437);
#373=AXIS2_PLACEMENT_3D('',#563,#438,#439);
#374=AXIS2_PLACEMENT_3D('',#564,#440,#441);
#375=AXIS2_PLACEMENT_3D('',#565,#442,#443);
#376=AXIS2_PLACEMENT_3D('',#566,#444,#445);
#377=AXIS2_PLACEMENT_3D('',#567,#446,#447);
#378=AXIS2_PLACEMENT_3D('',#568,#448,#449);
#379=AXIS2_PLACEMENT_3D('',#569,#450,#451);
#380=AXIS2_PLACEMENT_3D('',#570,#452,#453);
#381=AXIS2_PLACEMENT_3D('',#571,#454,#455);
#382=AXIS2_PLACEMENT_3D('',#572,#456,#457);
#383=AXIS2_PLACEMENT_3D('',#573,#458,#459);
#384=AXIS2_PLACEMENT_3D('',#574,#460,$);
#385=DIRECTION('',(0.,0.,-1.));
#386=DIRECTION('',(1.,0.,0.));
#387=DIRECTION('',(-1.48029736616688E-15,1.,0.));
#388=DIRECTION('',(-1.,0.,0.));
#389=DIRECTION('',(0.,-0.866025403784439,-0.5));
#390=DIRECTION('',(-7.4014868308344E-16,0.5,-0.866025403784439));
#391=DIRECTION('',(-1.,0.,0.));
#392=DIRECTION('',(0.,-0.866025403784439,0.5));
#393=DIRECTION('',(7.4014868308344E-16,-0.5,-0.866025403784439));
#394=DIRECTION('',(-1.,0.,0.));
#395=DIRECTION('',(0.,0.866025403784439,0.5));
#396=DIRECTION('',(1.,0.,0.));
#397=DIRECTION('',(7.4014868308344E-16,-0.5,0.866025403784439));
#398=DIRECTION('',(-1.,0.,0.));
#399=DIRECTION('',(0.,0.,1.));
#400=DIRECTION('',(1.48029736616688E-15,-1.,0.));
#401=DIRECTION('',(-1.,-1.48029736616688E-15,0.));
#402=DIRECTION('',(-1.,-1.48029736616688E-15,0.));
#403=DIRECTION('',(-8.60792918426041E-15,5.815,0.));
#404=DIRECTION('',(7.4014868308344E-16,-0.5,-0.866025403784439));
#405=DIRECTION('',(-1.,-1.48029736616688E-15,0.));
#406=DIRECTION('',(-8.60792918426041E-15,5.815,0.));
#407=DIRECTION('',(1.,1.48029736616688E-15,0.));
#408=DIRECTION('',(1.,0.,0.));
#409=DIRECTION('',(-8.60792918426041E-15,5.815,0.));
#410=DIRECTION('',(-1.,0.,0.));
#411=DIRECTION('',(-1.,0.,0.));
#412=DIRECTION('',(0.,0.,4.4));
#413=DIRECTION('',(1.,6.34413156928661E-16,0.));
#414=DIRECTION('',(0.,0.,1.));
#415=DIRECTION('',(-2.53765262771464E-16,0.4,0.));
#416=DIRECTION('',(-1.,0.,0.));
#417=DIRECTION('',(0.,0.,-4.));
#418=DIRECTION('',(-1.,0.,0.));
#419=DIRECTION('',(0.,0.,-4.));
#420=DIRECTION('',(-1.,0.,0.));
#421=DIRECTION('',(0.,0.,-4.));
#422=DIRECTION('',(1.,0.,0.));
#423=DIRECTION('',(1.,0.,0.));
#424=DIRECTION('',(0.,0.,-4.));
#425=DIRECTION('',(1.,0.,0.));
#426=DIRECTION('',(0.,0.,-4.));
#427=DIRECTION('',(-1.,0.,0.));
#428=DIRECTION('',(0.,0.,4.));
#429=DIRECTION('',(0.707106781184743,0.,-0.707106781188352));
#430=DIRECTION('',(-1.,0.,0.));
#431=DIRECTION('',(0.,0.,3.23299999999609));
#432=DIRECTION('',(-1.,0.,0.));
#433=DIRECTION('',(0.,0.,3.23299999999609));
#434=DIRECTION('',(-1.,0.,0.));
#435=DIRECTION('',(0.,0.866025403784439,-0.5));
#436=DIRECTION('',(1.,0.,0.));
#437=DIRECTION('',(0.,0.,-6.5));
#438=DIRECTION('',(1.,0.,0.));
#439=DIRECTION('',(0.,0.,-6.5));
#440=DIRECTION('',(1.,0.,0.));
#441=DIRECTION('',(0.,0.,-6.5));
#442=DIRECTION('',(1.,0.,0.));
#443=DIRECTION('',(0.,0.,-6.5));
#444=DIRECTION('',(1.,0.,0.));
#445=DIRECTION('',(0.,0.,-6.5));
#446=DIRECTION('',(1.,0.,0.));
#447=DIRECTION('',(0.,0.,-6.5));
#448=DIRECTION('',(1.,0.,0.));
#449=DIRECTION('',(0.,0.,-6.5));
#450=DIRECTION('',(1.,0.,0.));
#451=DIRECTION('',(0.,0.,-6.5));
#452=DIRECTION('',(1.,0.,0.));
#453=DIRECTION('',(0.,0.,-6.5));
#454=DIRECTION('',(1.,0.,0.));
#455=DIRECTION('',(0.,0.,-6.5));
#456=DIRECTION('',(1.,0.,0.));
#457=DIRECTION('',(0.,0.,-6.5));
#458=DIRECTION('',(1.,0.,0.));
#459=DIRECTION('',(0.,0.,-6.5));
#460=DIRECTION('',(1.,0.,0.));
#461=CARTESIAN_POINT('',(-5.3,-3.75277674973257,-6.5));
#462=CARTESIAN_POINT('',(-4.71944341640396,3.75277674973204,-6.5));
#463=CARTESIAN_POINT('',(-5.30000000000001,1.74166975080208,-6.5));
#464=CARTESIAN_POINT('',(-5.30000000000001,0.,-6.5));
#465=CARTESIAN_POINT('',(-4.7194434164038,3.75277674973257,-6.5));
#466=CARTESIAN_POINT('',(-5.3,-7.9602041944578E-16,-6.5));
#467=CARTESIAN_POINT('',(-5.3,3.75277674973257,-6.5));
#468=CARTESIAN_POINT('',(-0.599999999999995,3.75277674973257,-6.5));
#469=CARTESIAN_POINT('',(-0.599999999999993,2.02361162513372,-6.5));
#470=CARTESIAN_POINT('',(-0.599999999999984,-3.75277674973256,-6.5));
#471=CARTESIAN_POINT('',(-5.3,-3.75277674973256,-6.5));
#472=CARTESIAN_POINT('',(-4.71944341640381,-3.75277674973256,-6.5));
#473=CARTESIAN_POINT('',(-5.30000000000001,-1.63858672790518E-15,-6.5));
#474=CARTESIAN_POINT('',(-5.30000000000001,-1.74166975080208,-6.5));
#475=CARTESIAN_POINT('',(-4.71944341640396,-3.75277674973203,-6.5));
#476=CARTESIAN_POINT('',(-5.3,-7.50555349946513,0.));
#477=CARTESIAN_POINT('',(-4.71944341640396,-3.75277674973283,-6.49999999999954));
#478=CARTESIAN_POINT('',(-5.30000000000001,-4.75833024919781,-4.75833024919751));
#479=CARTESIAN_POINT('',(-5.30000000000001,-5.62916512459885,-3.25));
#480=CARTESIAN_POINT('',(-5.3,-5.62916512459885,-3.25));
#481=CARTESIAN_POINT('',(-0.599999999999981,-5.59235931203199,-3.31374953737966));
#482=CARTESIAN_POINT('',(-0.599999999999978,-7.50555349946513,5.10702591327572E-15));
#483=CARTESIAN_POINT('',(-5.3,-7.50555349946513,5.10702591327572E-15));
#484=CARTESIAN_POINT('',(-4.71944341640381,-7.50555349946513,4.86845424919481E-15));
#485=CARTESIAN_POINT('',(-5.30000000000001,-5.62916512459885,-3.25));
#486=CARTESIAN_POINT('',(-5.30000000000001,-6.49999999999989,-1.74166975080248));
#487=CARTESIAN_POINT('',(-4.71944341640396,-7.50555349946486,-4.60489572029355E-13));
#488=CARTESIAN_POINT('',(-5.3,-3.75277674973257,6.5));
#489=CARTESIAN_POINT('',(-4.71944341640396,-7.50555349946487,4.67399191232902E-13));
#490=CARTESIAN_POINT('',(-5.30000000000001,-6.49999999999989,1.74166975080249));
#491=CARTESIAN_POINT('',(-5.30000000000001,-5.62916512459885,3.25000000000001));
#492=CARTESIAN_POINT('',(-5.3,-5.62916512459885,3.25));
#493=CARTESIAN_POINT('',(-0.599999999999984,-3.71597093716571,6.56374953737966));
#494=CARTESIAN_POINT('',(-0.599999999999985,-3.75277674973257,6.5));
#495=CARTESIAN_POINT('',(-5.3,-3.75277674973257,6.5));
#496=CARTESIAN_POINT('',(-4.7194434164038,-3.75277674973257,6.5));
#497=CARTESIAN_POINT('',(-5.30000000000001,-5.62916512459885,3.25));
#498=CARTESIAN_POINT('',(-5.30000000000001,-4.75833024919781,4.75833024919752));
#499=CARTESIAN_POINT('',(-4.71944341640396,-3.75277674973284,6.49999999999954));
#500=CARTESIAN_POINT('',(-5.3,7.50555349946513,0.));
#501=CARTESIAN_POINT('',(-4.71944341640396,3.75277674973283,6.49999999999954));
#502=CARTESIAN_POINT('',(-5.30000000000001,4.75833024919781,4.75833024919752));
#503=CARTESIAN_POINT('',(-5.30000000000001,5.62916512459885,3.25));
#504=CARTESIAN_POINT('',(-4.7194434164038,3.75277674973256,6.5));
#505=CARTESIAN_POINT('',(-5.3,5.62916512459885,3.25));
#506=CARTESIAN_POINT('',(-5.3,3.75277674973256,6.5));
#507=CARTESIAN_POINT('',(-0.599999999999995,3.75277674973256,6.5));
#508=CARTESIAN_POINT('',(-0.600000000000001,7.54235931203199,-0.063749537379658));
#509=CARTESIAN_POINT('',(-0.600000000000001,7.50555349946513,-5.10702591327572E-15));
#510=CARTESIAN_POINT('',(-5.3,7.50555349946513,-5.10702591327572E-15));
#511=CARTESIAN_POINT('',(-4.71944341640381,7.50555349946513,-4.86845424919481E-15));
#512=CARTESIAN_POINT('',(-5.30000000000001,5.62916512459885,3.25));
#513=CARTESIAN_POINT('',(-5.30000000000001,6.49999999999989,1.74166975080248));
#514=CARTESIAN_POINT('',(-4.71944341640396,7.50555349946486,4.60489572029355E-13));
#515=CARTESIAN_POINT('',(-5.3,3.75277674973257,6.5));
#516=CARTESIAN_POINT('',(-4.71944341640396,-3.75277674973204,6.5));
#517=CARTESIAN_POINT('',(-5.30000000000001,-1.74166975080208,6.5));
#518=CARTESIAN_POINT('',(-5.30000000000001,0.,6.5));
#519=CARTESIAN_POINT('',(-5.3,1.56465782978927E-16,6.5));
#520=CARTESIAN_POINT('',(-0.599999999999998,5.77638837486629,6.5));
#521=CARTESIAN_POINT('',(-5.30000000000001,0.,6.5));
#522=CARTESIAN_POINT('',(-5.30000000000001,1.74166975080208,6.5));
#523=CARTESIAN_POINT('',(-4.71944341640396,3.75277674973203,6.5));
#524=CARTESIAN_POINT('',(-0.600000000000001,7.8,0.));
#525=CARTESIAN_POINT('',(-0.599999999999989,-1.77635683940024E-15,0.));
#526=CARTESIAN_POINT('',(-0.599999999999999,5.815,-7.12132113704186E-16));
#527=CARTESIAN_POINT('',(-0.599999999999997,5.66597093716571,-3.18625046262034));
#528=CARTESIAN_POINT('',(0.,-8.88178419700125E-16,0.));
#529=CARTESIAN_POINT('',(-0.599999999999991,5.815,0.));
#530=CARTESIAN_POINT('',(2.59052039078936E-17,5.815,-7.12132113704186E-16));
#531=CARTESIAN_POINT('',(1.15463194561017E-14,-8.88178419700108E-16,0.));
#532=CARTESIAN_POINT('',(0.,7.8,0.));
#533=CARTESIAN_POINT('',(0.,0.,0.));
#534=CARTESIAN_POINT('',(-3.88578058618805E-16,4.4,-5.38844591624835E-16));
#535=CARTESIAN_POINT('',(0.400000000000002,0.,0.));
#536=CARTESIAN_POINT('',(0.399999999999999,4.4,0.));
#537=CARTESIAN_POINT('',(0.400000000000001,4.,-1.22464679914735E-16));
#538=CARTESIAN_POINT('',(0.400000000000002,0.,0.));
#539=CARTESIAN_POINT('',(0.400000000000002,-3.67394039744206E-16,-4.));
#540=CARTESIAN_POINT('',(0.400000000000002,0.,0.));
#541=CARTESIAN_POINT('',(16.,0.,0.));
#542=CARTESIAN_POINT('',(-0.367000000000001,0.,-4.));
#543=CARTESIAN_POINT('',(15.233,-2.44929359829471E-16,-4.));
#544=CARTESIAN_POINT('',(15.233,0.,0.));
#545=CARTESIAN_POINT('',(15.233,0.,4.));
#546=CARTESIAN_POINT('',(15.233,0.,0.));
#547=CARTESIAN_POINT('',(15.233,0.,0.));
#548=CARTESIAN_POINT('',(16.0767,0.,3.15629999999569));
#549=CARTESIAN_POINT('',(15.999999999999,2.22044604925031E-16,3.23299999999902));
#550=CARTESIAN_POINT('',(16.,0.,0.));
#551=CARTESIAN_POINT('',(15.999999999999,-1.97964155082289E-16,-3.23299999999902));
#552=CARTESIAN_POINT('',(16.,0.,0.));
#553=CARTESIAN_POINT('',(16.,3.233,0.));
#554=CARTESIAN_POINT('',(-5.3,3.75277674973257,-6.5));
#555=CARTESIAN_POINT('',(-4.71944341640396,7.50555349946487,-4.67399191232902E-13));
#556=CARTESIAN_POINT('',(-5.30000000000001,6.49999999999989,-1.74166975080249));
#557=CARTESIAN_POINT('',(-5.30000000000001,5.62916512459885,-3.25));
#558=CARTESIAN_POINT('',(-5.3,5.62916512459885,-3.25));
#559=CARTESIAN_POINT('',(-5.30000000000001,5.62916512459885,-3.25));
#560=CARTESIAN_POINT('',(-5.30000000000001,4.75833024919781,-4.75833024919752));
#561=CARTESIAN_POINT('',(-4.71944341640396,3.75277674973284,-6.49999999999954));
#562=CARTESIAN_POINT('',(-5.30000000000001,0.,0.));
#563=CARTESIAN_POINT('',(-5.3,0.,0.));
#564=CARTESIAN_POINT('',(-5.30000000000001,0.,0.));
#565=CARTESIAN_POINT('',(-5.3,0.,0.));
#566=CARTESIAN_POINT('',(-5.30000000000001,0.,0.));
#567=CARTESIAN_POINT('',(-5.3,0.,0.));
#568=CARTESIAN_POINT('',(-5.30000000000001,0.,0.));
#569=CARTESIAN_POINT('',(-5.3,0.,0.));
#570=CARTESIAN_POINT('',(-5.30000000000001,0.,0.));
#571=CARTESIAN_POINT('',(-5.3,0.,0.));
#572=CARTESIAN_POINT('',(-5.30000000000001,0.,0.));
#573=CARTESIAN_POINT('',(-5.3,0.,0.));
#574=CARTESIAN_POINT('',(-5.3,0.,0.));
#575=PLANE('',#349);
#576=PLANE('',#350);
#577=PLANE('',#351);
#578=PLANE('',#352);
#579=PLANE('',#353);
#580=PLANE('',#354);
#581=PLANE('',#358);
#582=PLANE('',#370);
#583=PLANE('',#371);
#584=PLANE('',#384);
#585=CLOSED_SHELL('',(#329,#330,#331,#332,#333,#334,#335,#336,#337,#338,
#339,#340,#341,#342,#343,#344,#345,#346,#347,#348));
#586=MANIFOLD_SOLID_BREP('',#585);
#587=ADVANCED_BREP_SHAPE_REPRESENTATION('',(#586),#60);
ENDSEC;
END-ISO-10303-21;
