ISO-10303-21;
HEADER;
/* Generated by software containing ST-Developer
 * from STEP Tools, Inc. (www.steptools.com) 
 */

FILE_DESCRIPTION(
/* description */ ('Alibre Inc.'),
/* implementation_level */ '2;1');

FILE_NAME(
/* name */ 'export-6BC01AD3-79AE-410E-B204-16B720F44843',
/* time_stamp */ '2021-05-10T21:10:42+02:00',
/* author */ (''),
/* organization */ (''),
/* preprocessor_version */ 'ST-DEVELOPER v17',
/* originating_system */ 'Alibre',
/* authorisation */ '');

FILE_SCHEMA (('AUTOMOTIVE_DESIGN'));
ENDSEC;

DATA;
#10=STYLED_ITEM('NAME_0',(#18),#191);
#11=MECHANICAL_DESIGN_GEOMETRIC_PRESENTATION_REPRESENTATION('NAME_0',(#10),
#33);
#12=COLOUR_RGB('',0.,0.,0.);
#13=FILL_AREA_STYLE_COLOUR('NAME_0',#12);
#14=FILL_AREA_STYLE('NAME_0',(#13));
#15=SURFACE_STYLE_FILL_AREA(#14);
#16=SURFACE_SIDE_STYLE('NAME_0',(#15));
#17=SURFACE_STYLE_USAGE(.POSITIVE.,#16);
#18=PRESENTATION_STYLE_ASSIGNMENT((#17));
#19=PRODUCT_DEFINITION_CONTEXT('part definition',#26,'design');
#20=SHAPE_DEFINITION_REPRESENTATION(#21,#192);
#21=PRODUCT_DEFINITION_SHAPE('PRODUCT_VERSION_ID',
'PRODUCT_VERSION_DESCR',#22);
#22=PRODUCT_DEFINITION('PRODUCT_VERSION_ID','PRODUCT_VERSION_DESCR',#23,
#19);
#23=PRODUCT_DEFINITION_FORMATION_WITH_SPECIFIED_SOURCE(
'PRODUCT_VERSION_ID','PRODUCT_VERSION_DESCR',#28,.MADE.);
#24=PRODUCT_RELATED_PRODUCT_CATEGORY('part','part',(#28));
#25=APPLICATION_PROTOCOL_DEFINITION('Draft International Standard',
'automotive_design',1994,#26);
#26=APPLICATION_CONTEXT('automotive_Design');
#27=PRODUCT_CONTEXT('3D Mechanical Parts',#26,'mechanical');
#28=PRODUCT('','5596 Spacer 17x23.2 L=7mm','',(#27));
#29=(
LENGTH_UNIT()
NAMED_UNIT(*)
SI_UNIT(.MILLI.,.METRE.)
);
#30=(
NAMED_UNIT(*)
PLANE_ANGLE_UNIT()
SI_UNIT($,.RADIAN.)
);
#31=(
NAMED_UNIT(*)
SI_UNIT($,.STERADIAN.)
SOLID_ANGLE_UNIT()
);
#32=UNCERTAINTY_MEASURE_WITH_UNIT(LENGTH_MEASURE(1.E-6),#29,
'DISTANCE_ACCURACY_VALUE',
'Maximum model space distance between geometric entities at asserted c
onnectivities');
#33=(
GEOMETRIC_REPRESENTATION_CONTEXT(3)
GLOBAL_UNCERTAINTY_ASSIGNED_CONTEXT((#32))
GLOBAL_UNIT_ASSIGNED_CONTEXT((#31,#30,#29))
REPRESENTATION_CONTEXT('ID1','3D')
);
#34=CONICAL_SURFACE('',#131,11.35,0.785398163397448);
#35=CONICAL_SURFACE('',#135,8.75,0.785398163397448);
#36=CYLINDRICAL_SURFACE('',#125,8.5);
#37=CYLINDRICAL_SURFACE('',#129,11.6);
#38=PLANE('',#123);
#39=PLANE('',#133);
#40=VERTEX_POINT('',#166);
#41=VERTEX_POINT('',#168);
#42=VERTEX_POINT('',#171);
#43=VERTEX_POINT('',#174);
#44=VERTEX_POINT('',#177);
#45=VERTEX_POINT('',#180);
#46=VERTEX_POINT('',#183);
#47=VERTEX_POINT('',#186);
#48=CIRCLE('',#121,8.5);
#49=CIRCLE('',#122,8.7);
#50=CIRCLE('',#124,11.4);
#51=CIRCLE('',#126,8.5);
#52=CIRCLE('',#128,11.6);
#53=CIRCLE('',#130,11.6);
#54=CIRCLE('',#132,11.35);
#55=CIRCLE('',#134,8.75);
#56=EDGE_CURVE('',#40,#40,#48,.T.);
#57=EDGE_CURVE('',#41,#41,#49,.T.);
#58=EDGE_CURVE('',#42,#42,#50,.T.);
#59=EDGE_CURVE('',#43,#43,#51,.T.);
#60=EDGE_CURVE('',#44,#44,#52,.T.);
#61=EDGE_CURVE('',#45,#45,#53,.T.);
#62=EDGE_CURVE('',#46,#46,#54,.T.);
#63=EDGE_CURVE('',#47,#47,#55,.T.);
#64=ORIENTED_EDGE('',*,*,#56,.T.);
#65=ORIENTED_EDGE('',*,*,#57,.T.);
#66=ORIENTED_EDGE('',*,*,#58,.F.);
#67=ORIENTED_EDGE('',*,*,#57,.F.);
#68=ORIENTED_EDGE('',*,*,#59,.F.);
#69=ORIENTED_EDGE('',*,*,#56,.F.);
#70=ORIENTED_EDGE('',*,*,#58,.T.);
#71=ORIENTED_EDGE('',*,*,#60,.T.);
#72=ORIENTED_EDGE('',*,*,#61,.F.);
#73=ORIENTED_EDGE('',*,*,#60,.F.);
#74=ORIENTED_EDGE('',*,*,#62,.T.);
#75=ORIENTED_EDGE('',*,*,#61,.T.);
#76=ORIENTED_EDGE('',*,*,#63,.F.);
#77=ORIENTED_EDGE('',*,*,#62,.F.);
#78=ORIENTED_EDGE('',*,*,#63,.T.);
#79=ORIENTED_EDGE('',*,*,#59,.T.);
#80=EDGE_LOOP('',(#64));
#81=EDGE_LOOP('',(#65));
#82=EDGE_LOOP('',(#66));
#83=EDGE_LOOP('',(#67));
#84=EDGE_LOOP('',(#68));
#85=EDGE_LOOP('',(#69));
#86=EDGE_LOOP('',(#70));
#87=EDGE_LOOP('',(#71));
#88=EDGE_LOOP('',(#72));
#89=EDGE_LOOP('',(#73));
#90=EDGE_LOOP('',(#74));
#91=EDGE_LOOP('',(#75));
#92=EDGE_LOOP('',(#76));
#93=EDGE_LOOP('',(#77));
#94=EDGE_LOOP('',(#78));
#95=EDGE_LOOP('',(#79));
#96=FACE_BOUND('',#80,.T.);
#97=FACE_BOUND('',#81,.T.);
#98=FACE_BOUND('',#82,.T.);
#99=FACE_BOUND('',#83,.T.);
#100=FACE_BOUND('',#84,.T.);
#101=FACE_BOUND('',#85,.T.);
#102=FACE_BOUND('',#86,.T.);
#103=FACE_BOUND('',#87,.T.);
#104=FACE_BOUND('',#88,.T.);
#105=FACE_BOUND('',#89,.T.);
#106=FACE_BOUND('',#90,.T.);
#107=FACE_BOUND('',#91,.T.);
#108=FACE_BOUND('',#92,.T.);
#109=FACE_BOUND('',#93,.T.);
#110=FACE_BOUND('',#94,.T.);
#111=FACE_BOUND('',#95,.T.);
#112=ADVANCED_FACE('',(#96,#97),#188,.T.);
#113=ADVANCED_FACE('',(#98,#99),#38,.F.);
#114=ADVANCED_FACE('',(#100,#101),#36,.F.);
#115=ADVANCED_FACE('',(#102,#103),#189,.T.);
#116=ADVANCED_FACE('',(#104,#105),#37,.T.);
#117=ADVANCED_FACE('',(#106,#107),#34,.T.);
#118=ADVANCED_FACE('',(#108,#109),#39,.T.);
#119=ADVANCED_FACE('',(#110,#111),#35,.F.);
#120=AXIS2_PLACEMENT_3D('',#164,#136,$);
#121=AXIS2_PLACEMENT_3D('',#165,#137,#138);
#122=AXIS2_PLACEMENT_3D('',#167,#139,#140);
#123=AXIS2_PLACEMENT_3D('',#169,#141,$);
#124=AXIS2_PLACEMENT_3D('',#170,#142,#143);
#125=AXIS2_PLACEMENT_3D('',#172,#144,#145);
#126=AXIS2_PLACEMENT_3D('',#173,#146,#147);
#127=AXIS2_PLACEMENT_3D('',#175,#148,$);
#128=AXIS2_PLACEMENT_3D('',#176,#149,#150);
#129=AXIS2_PLACEMENT_3D('',#178,#151,#152);
#130=AXIS2_PLACEMENT_3D('',#179,#153,#154);
#131=AXIS2_PLACEMENT_3D('',#181,#155,#156);
#132=AXIS2_PLACEMENT_3D('',#182,#157,#158);
#133=AXIS2_PLACEMENT_3D('',#184,#159,$);
#134=AXIS2_PLACEMENT_3D('',#185,#160,#161);
#135=AXIS2_PLACEMENT_3D('',#187,#162,#163);
#136=DIRECTION('',(0.,0.,1.));
#137=DIRECTION('',(0.,0.,1.));
#138=DIRECTION('',(-8.5,1.04094977927525E-15,0.));
#139=DIRECTION('',(0.,0.,-1.));
#140=DIRECTION('',(-8.7,1.0654427152582E-15,0.));
#141=DIRECTION('',(0.,0.,1.));
#142=DIRECTION('',(0.,0.,1.));
#143=DIRECTION('',(-11.4,1.39609735102798E-15,0.));
#144=DIRECTION('',(0.,0.,1.));
#145=DIRECTION('',(8.5,0.,0.));
#146=DIRECTION('',(0.,0.,-1.));
#147=DIRECTION('',(-8.5,0.,0.));
#148=DIRECTION('',(0.,0.,1.));
#149=DIRECTION('',(0.,0.,-1.));
#150=DIRECTION('',(-11.6,1.42059028701093E-15,0.));
#151=DIRECTION('',(0.,0.,1.));
#152=DIRECTION('',(11.6,0.,0.));
#153=DIRECTION('',(0.,0.,1.));
#154=DIRECTION('',(-11.6,0.,0.));
#155=DIRECTION('',(0.,0.,-1.));
#156=DIRECTION('',(-11.35,0.,0.));
#157=DIRECTION('',(0.,0.,-1.));
#158=DIRECTION('',(-11.35,0.,0.));
#159=DIRECTION('',(0.,0.,1.));
#160=DIRECTION('',(0.,0.,1.));
#161=DIRECTION('',(-8.75,0.,0.));
#162=DIRECTION('',(0.,0.,1.));
#163=DIRECTION('',(-8.75,0.,0.));
#164=CARTESIAN_POINT('',(0.,0.,0.2));
#165=CARTESIAN_POINT('',(0.,0.,0.2));
#166=CARTESIAN_POINT('',(8.5,0.,0.2));
#167=CARTESIAN_POINT('',(0.,0.,0.));
#168=CARTESIAN_POINT('',(8.7,-2.13088543051639E-15,0.));
#169=CARTESIAN_POINT('',(0.,0.,0.));
#170=CARTESIAN_POINT('',(0.,0.,0.));
#171=CARTESIAN_POINT('',(11.4,0.,0.));
#172=CARTESIAN_POINT('',(0.,0.,0.));
#173=CARTESIAN_POINT('',(0.,0.,6.75));
#174=CARTESIAN_POINT('',(8.5,-1.04094977927525E-15,6.75));
#175=CARTESIAN_POINT('',(0.,0.,0.2));
#176=CARTESIAN_POINT('',(0.,0.,0.2));
#177=CARTESIAN_POINT('',(11.6,-2.84118057402186E-15,0.2));
#178=CARTESIAN_POINT('',(0.,0.,0.));
#179=CARTESIAN_POINT('',(0.,0.,6.75));
#180=CARTESIAN_POINT('',(11.6,1.42059028701093E-15,6.75));
#181=CARTESIAN_POINT('',(0.,0.,7.));
#182=CARTESIAN_POINT('',(0.,0.,7.));
#183=CARTESIAN_POINT('',(11.35,-1.38997411703225E-15,7.));
#184=CARTESIAN_POINT('',(0.,0.,7.));
#185=CARTESIAN_POINT('',(0.,0.,7.));
#186=CARTESIAN_POINT('',(8.75,1.07156594925393E-15,7.));
#187=CARTESIAN_POINT('',(0.,0.,7.));
#188=TOROIDAL_SURFACE('',#120,8.7,0.2);
#189=TOROIDAL_SURFACE('',#127,11.4,0.2);
#190=CLOSED_SHELL('',(#112,#113,#114,#115,#116,#117,#118,#119));
#191=MANIFOLD_SOLID_BREP('',#190);
#192=ADVANCED_BREP_SHAPE_REPRESENTATION('',(#191),#33);
ENDSEC;
END-ISO-10303-21;
