ISO-10303-21;
HEADER;

/* File generated by Alibre Version V22 */

FILE_DESCRIPTION(('HOOPS Exchange Step'),'2;1');

FILE_NAME('C:\\Users\\Gebruiker\\AppData\\Local\\Temp\\Alibre Design\\export-7A28F461-0CC7-464D-ABC2-6EBC1AC1B038.stp',
'2021-05-10T21:10:56+02:00',
('Engineering'),
('Alibre'),
'HOOPS Exchange 2020.1',
'Alibre',
'Unknown authorisation');

FILE_SCHEMA( ('AP242_MANAGED_MODEL_BASED_3D_ENGINEERING_MIM_LF {1 0 10303 442 1 1 4 }') );

ENDSEC;

DATA;
#3=(NAMED_UNIT(*)PLANE_ANGLE_UNIT()SI_UNIT($,.RADIAN.));
#4=PLANE_ANGLE_MEASURE_WITH_UNIT(PLANE_ANGLE_MEASURE(0.0174532925),#3);
#5=(CONVERSION_BASED_UNIT('DEGREE',#4)NAMED_UNIT(#6)PLANE_ANGLE_UNIT());
#6=DIMENSIONAL_EXPONENTS(0.,0.,0.,0.,0.,0.,0.);
#7=(NAMED_UNIT(*)SI_UNIT($,.STERADIAN.)SOLID_ANGLE_UNIT());
#8=(LENGTH_UNIT()NAMED_UNIT(*)SI_UNIT(.MILLI.,.METRE.));
#9=UNCERTAINTY_MEASURE_WITH_UNIT(LENGTH_MEASURE(1.000000E-06),#8,'DISTANCE_ACCURACY_VALUE','Maximum Tolerance applied to model');
#10=(GEOMETRIC_REPRESENTATION_CONTEXT(3)GLOBAL_UNCERTAINTY_ASSIGNED_CONTEXT((#9))GLOBAL_UNIT_ASSIGNED_CONTEXT((#8,#5,#7))REPRESENTATION_CONTEXT('','5596 Spacer 17x23.2 L=7mm'));
#12=CARTESIAN_POINT('',(0.,0.,0.));
#13=DIRECTION('',(0.,0.,1.));
#14=DIRECTION('',(1.,0.,0.));
#15=AXIS2_PLACEMENT_3D('',#12,#13,#14);
#27=CARTESIAN_POINT('',(0.,0.,0.2));
#28=DIRECTION('',(0.,0.,1.));
#29=DIRECTION('',(1.,0.,-0.));
#30=AXIS2_PLACEMENT_3D('',#27,#28,#29);
#31=TOROIDAL_SURFACE('',#30,8.7,0.2);
#32=CARTESIAN_POINT('',(-8.7,0.,0.));
#33=VERTEX_POINT('',#32);
#34=CARTESIAN_POINT('',(-8.5,0.,0.2));
#35=VERTEX_POINT('',#34);
#36=CARTESIAN_POINT('',(-8.7,0.,0.2));
#37=DIRECTION('',(-0.,-1.,-0.));
#38=DIRECTION('',(-1.,0.,0.));
#39=AXIS2_PLACEMENT_3D('',#36,#37,#38);
#40=CIRCLE('',#39,0.2);
#41=EDGE_CURVE('',#33,#35,#40,.T.);
#42=ORIENTED_EDGE('',*,*,#41,.T.);
#43=CARTESIAN_POINT('',(8.5,0.,0.2));
#44=VERTEX_POINT('',#43);
#45=CARTESIAN_POINT('',(0.,0.,0.2));
#46=DIRECTION('',(0.,0.,1.));
#47=DIRECTION('',(-1.,0.,0.));
#48=AXIS2_PLACEMENT_3D('',#45,#46,#47);
#49=CIRCLE('',#48,8.5);
#50=EDGE_CURVE('',#35,#44,#49,.T.);
#51=ORIENTED_EDGE('',*,*,#50,.T.);
#52=CARTESIAN_POINT('',(0.,0.,0.2));
#53=DIRECTION('',(0.,0.,1.));
#54=DIRECTION('',(-1.,0.,0.));
#55=AXIS2_PLACEMENT_3D('',#52,#53,#54);
#56=CIRCLE('',#55,8.5);
#57=EDGE_CURVE('',#44,#35,#56,.T.);
#58=ORIENTED_EDGE('',*,*,#57,.T.);
#59=ORIENTED_EDGE('',*,*,#41,.F.);
#60=CARTESIAN_POINT('',(8.7,-0.,0.));
#61=VERTEX_POINT('',#60);
#62=CARTESIAN_POINT('',(0.,0.,0.));
#63=DIRECTION('',(0.,0.,-1.));
#64=DIRECTION('',(-1.,0.,0.));
#65=AXIS2_PLACEMENT_3D('',#62,#63,#64);
#66=CIRCLE('',#65,8.7);
#67=EDGE_CURVE('',#33,#61,#66,.T.);
#68=ORIENTED_EDGE('',*,*,#67,.T.);
#69=CARTESIAN_POINT('',(0.,0.,0.));
#70=DIRECTION('',(0.,0.,-1.));
#71=DIRECTION('',(-1.,0.,0.));
#72=AXIS2_PLACEMENT_3D('',#69,#70,#71);
#73=CIRCLE('',#72,8.7);
#74=EDGE_CURVE('',#61,#33,#73,.T.);
#75=ORIENTED_EDGE('',*,*,#74,.T.);
#76=EDGE_LOOP('',(#42,#51,#58,#59,#68,#75));
#77=FACE_BOUND('',#76,.T.);
#78=ADVANCED_FACE('',(#77),#31,.T.);
#79=CARTESIAN_POINT('',(0.,0.,0.));
#80=DIRECTION('',(0.,0.,1.));
#81=DIRECTION('',(1.,0.,0.));
#82=AXIS2_PLACEMENT_3D('',#79,#80,#81);
#83=PLANE('',#82);
#84=CARTESIAN_POINT('',(-11.4,-0.,0.));
#85=VERTEX_POINT('',#84);
#86=CARTESIAN_POINT('',(11.4,0.,0.));
#87=VERTEX_POINT('',#86);
#88=CARTESIAN_POINT('',(0.,0.,0.));
#89=DIRECTION('',(0.,0.,1.));
#90=DIRECTION('',(-1.,0.,0.));
#91=AXIS2_PLACEMENT_3D('',#88,#89,#90);
#92=CIRCLE('',#91,11.4);
#93=EDGE_CURVE('',#85,#87,#92,.T.);
#94=ORIENTED_EDGE('',*,*,#93,.F.);
#95=CARTESIAN_POINT('',(0.,0.,0.));
#96=DIRECTION('',(0.,0.,1.));
#97=DIRECTION('',(-1.,0.,0.));
#98=AXIS2_PLACEMENT_3D('',#95,#96,#97);
#99=CIRCLE('',#98,11.4);
#100=EDGE_CURVE('',#87,#85,#99,.T.);
#101=ORIENTED_EDGE('',*,*,#100,.F.);
#102=EDGE_LOOP('',(#94,#101));
#103=FACE_BOUND('',#102,.T.);
#104=ORIENTED_EDGE('',*,*,#67,.F.);
#105=ORIENTED_EDGE('',*,*,#74,.F.);
#106=EDGE_LOOP('',(#104,#105));
#107=FACE_BOUND('',#106,.T.);
#108=ADVANCED_FACE('',(#103,#107),#83,.F.);
#109=CARTESIAN_POINT('',(0.,0.,0.));
#110=DIRECTION('',(0.,0.,1.));
#111=DIRECTION('',(1.,0.,0.));
#112=AXIS2_PLACEMENT_3D('',#109,#110,#111);
#113=CYLINDRICAL_SURFACE('',#112,8.5);
#114=CARTESIAN_POINT('',(-8.5,0.,6.75));
#115=VERTEX_POINT('',#114);
#116=CARTESIAN_POINT('',(-8.5,0.,6.75));
#117=DIRECTION('',(-0.,-0.,-1.));
#118=VECTOR('',#117,6.55);
#119=LINE('',#116,#118);
#120=EDGE_CURVE('',#115,#35,#119,.T.);
#121=ORIENTED_EDGE('',*,*,#120,.F.);
#122=CARTESIAN_POINT('',(8.5,-0.,6.75));
#123=VERTEX_POINT('',#122);
#124=CARTESIAN_POINT('',(0.,0.,6.75));
#125=DIRECTION('',(0.,0.,-1.));
#126=DIRECTION('',(-1.,0.,0.));
#127=AXIS2_PLACEMENT_3D('',#124,#125,#126);
#128=CIRCLE('',#127,8.5);
#129=EDGE_CURVE('',#123,#115,#128,.T.);
#130=ORIENTED_EDGE('',*,*,#129,.F.);
#131=CARTESIAN_POINT('',(0.,0.,6.75));
#132=DIRECTION('',(0.,0.,-1.));
#133=DIRECTION('',(-1.,0.,0.));
#134=AXIS2_PLACEMENT_3D('',#131,#132,#133);
#135=CIRCLE('',#134,8.5);
#136=EDGE_CURVE('',#115,#123,#135,.T.);
#137=ORIENTED_EDGE('',*,*,#136,.F.);
#138=ORIENTED_EDGE('',*,*,#120,.T.);
#139=ORIENTED_EDGE('',*,*,#57,.F.);
#140=ORIENTED_EDGE('',*,*,#50,.F.);
#141=EDGE_LOOP('',(#121,#130,#137,#138,#139,#140));
#142=FACE_BOUND('',#141,.T.);
#143=ADVANCED_FACE('',(#142),#113,.F.);
#144=CARTESIAN_POINT('',(0.,0.,0.2));
#145=DIRECTION('',(0.,0.,1.));
#146=DIRECTION('',(1.,0.,-0.));
#147=AXIS2_PLACEMENT_3D('',#144,#145,#146);
#148=TOROIDAL_SURFACE('',#147,11.4,0.2);
#149=CARTESIAN_POINT('',(-11.6,0.,0.2));
#150=VERTEX_POINT('',#149);
#151=CARTESIAN_POINT('',(-11.4,0.,0.2));
#152=DIRECTION('',(-0.,-1.,-0.));
#153=DIRECTION('',(-1.,0.,0.));
#154=AXIS2_PLACEMENT_3D('',#151,#152,#153);
#155=CIRCLE('',#154,0.2);
#156=EDGE_CURVE('',#150,#85,#155,.T.);
#157=ORIENTED_EDGE('',*,*,#156,.T.);
#158=ORIENTED_EDGE('',*,*,#93,.T.);
#159=ORIENTED_EDGE('',*,*,#100,.T.);
#160=ORIENTED_EDGE('',*,*,#156,.F.);
#161=CARTESIAN_POINT('',(11.6,-0.,0.2));
#162=VERTEX_POINT('',#161);
#163=CARTESIAN_POINT('',(0.,0.,0.2));
#164=DIRECTION('',(0.,0.,-1.));
#165=DIRECTION('',(-1.,0.,0.));
#166=AXIS2_PLACEMENT_3D('',#163,#164,#165);
#167=CIRCLE('',#166,11.6);
#168=EDGE_CURVE('',#150,#162,#167,.T.);
#169=ORIENTED_EDGE('',*,*,#168,.T.);
#170=CARTESIAN_POINT('',(0.,0.,0.2));
#171=DIRECTION('',(0.,0.,-1.));
#172=DIRECTION('',(-1.,0.,0.));
#173=AXIS2_PLACEMENT_3D('',#170,#171,#172);
#174=CIRCLE('',#173,11.6);
#175=EDGE_CURVE('',#162,#150,#174,.T.);
#176=ORIENTED_EDGE('',*,*,#175,.T.);
#177=EDGE_LOOP('',(#157,#158,#159,#160,#169,#176));
#178=FACE_BOUND('',#177,.T.);
#179=ADVANCED_FACE('',(#178),#148,.T.);
#180=CARTESIAN_POINT('',(0.,0.,0.));
#181=DIRECTION('',(0.,0.,1.));
#182=DIRECTION('',(1.,0.,0.));
#183=AXIS2_PLACEMENT_3D('',#180,#181,#182);
#184=CYLINDRICAL_SURFACE('',#183,11.6);
#185=CARTESIAN_POINT('',(-11.6,0.,6.75));
#186=VERTEX_POINT('',#185);
#187=CARTESIAN_POINT('',(-11.6,0.,6.75));
#188=DIRECTION('',(-0.,-0.,-1.));
#189=VECTOR('',#188,6.55);
#190=LINE('',#187,#189);
#191=EDGE_CURVE('',#186,#150,#190,.T.);
#192=ORIENTED_EDGE('',*,*,#191,.T.);
#193=ORIENTED_EDGE('',*,*,#175,.F.);
#194=ORIENTED_EDGE('',*,*,#168,.F.);
#195=ORIENTED_EDGE('',*,*,#191,.F.);
#196=CARTESIAN_POINT('',(11.6,0.,6.75));
#197=VERTEX_POINT('',#196);
#198=CARTESIAN_POINT('',(0.,0.,6.75));
#199=DIRECTION('',(0.,0.,1.));
#200=DIRECTION('',(-1.,0.,0.));
#201=AXIS2_PLACEMENT_3D('',#198,#199,#200);
#202=CIRCLE('',#201,11.6);
#203=EDGE_CURVE('',#197,#186,#202,.T.);
#204=ORIENTED_EDGE('',*,*,#203,.F.);
#205=CARTESIAN_POINT('',(0.,0.,6.75));
#206=DIRECTION('',(0.,0.,1.));
#207=DIRECTION('',(-1.,0.,0.));
#208=AXIS2_PLACEMENT_3D('',#205,#206,#207);
#209=CIRCLE('',#208,11.6);
#210=EDGE_CURVE('',#186,#197,#209,.T.);
#211=ORIENTED_EDGE('',*,*,#210,.F.);
#212=EDGE_LOOP('',(#192,#193,#194,#195,#204,#211));
#213=FACE_BOUND('',#212,.T.);
#214=ADVANCED_FACE('',(#213),#184,.T.);
#215=CARTESIAN_POINT('',(0.,0.,7.));
#216=DIRECTION('',(0.,0.,-1.));
#217=DIRECTION('',(-1.,0.,0.));
#218=AXIS2_PLACEMENT_3D('',#215,#216,#217);
#219=CONICAL_SURFACE('',#218,11.35,45.);
#220=CARTESIAN_POINT('',(11.35,-0.,7.));
#221=VERTEX_POINT('',#220);
#222=CARTESIAN_POINT('',(11.35,0.,7.));
#223=DIRECTION('',(0.707106781,0.,-0.707106781));
#224=VECTOR('',#223,0.353553391);
#225=LINE('',#222,#224);
#226=EDGE_CURVE('',#221,#197,#225,.T.);
#227=ORIENTED_EDGE('',*,*,#226,.T.);
#228=ORIENTED_EDGE('',*,*,#203,.T.);
#229=ORIENTED_EDGE('',*,*,#210,.T.);
#230=ORIENTED_EDGE('',*,*,#226,.F.);
#231=CARTESIAN_POINT('',(0.,0.,7.));
#232=DIRECTION('',(0.,0.,-1.));
#233=DIRECTION('',(-1.,0.,0.));
#234=AXIS2_PLACEMENT_3D('',#231,#232,#233);
#235=CIRCLE('',#234,11.35);
#236=EDGE_CURVE('',#221,#221,#235,.T.);
#237=ORIENTED_EDGE('',*,*,#236,.T.);
#238=EDGE_LOOP('',(#227,#228,#229,#230,#237));
#239=FACE_BOUND('',#238,.T.);
#240=ADVANCED_FACE('',(#239),#219,.T.);
#241=CARTESIAN_POINT('',(0.,0.,7.));
#242=DIRECTION('',(0.,0.,1.));
#243=DIRECTION('',(1.,0.,0.));
#244=AXIS2_PLACEMENT_3D('',#241,#242,#243);
#245=PLANE('',#244);
#246=CARTESIAN_POINT('',(8.75,0.,7.));
#247=VERTEX_POINT('',#246);
#248=CARTESIAN_POINT('',(0.,0.,7.));
#249=DIRECTION('',(0.,0.,1.));
#250=DIRECTION('',(-1.,0.,0.));
#251=AXIS2_PLACEMENT_3D('',#248,#249,#250);
#252=CIRCLE('',#251,8.75);
#253=EDGE_CURVE('',#247,#247,#252,.T.);
#254=ORIENTED_EDGE('',*,*,#253,.F.);
#255=EDGE_LOOP('',(#254));
#256=FACE_BOUND('',#255,.T.);
#257=ORIENTED_EDGE('',*,*,#236,.F.);
#258=EDGE_LOOP('',(#257));
#259=FACE_BOUND('',#258,.T.);
#260=ADVANCED_FACE('',(#256,#259),#245,.T.);
#261=CARTESIAN_POINT('',(0.,0.,7.));
#262=DIRECTION('',(0.,0.,1.));
#263=DIRECTION('',(-1.,0.,0.));
#264=AXIS2_PLACEMENT_3D('',#261,#262,#263);
#265=CONICAL_SURFACE('',#264,8.75,45.);
#266=CARTESIAN_POINT('',(8.75,-0.,7.));
#267=DIRECTION('',(-0.707106781,0.,-0.707106781));
#268=VECTOR('',#267,0.353553391);
#269=LINE('',#266,#268);
#270=EDGE_CURVE('',#247,#123,#269,.T.);
#271=ORIENTED_EDGE('',*,*,#270,.F.);
#272=ORIENTED_EDGE('',*,*,#253,.T.);
#273=ORIENTED_EDGE('',*,*,#270,.T.);
#274=ORIENTED_EDGE('',*,*,#129,.T.);
#275=ORIENTED_EDGE('',*,*,#136,.T.);
#276=EDGE_LOOP('',(#271,#272,#273,#274,#275));
#277=FACE_BOUND('',#276,.T.);
#278=ADVANCED_FACE('',(#277),#265,.F.);
#279=CLOSED_SHELL('',(#78,#108,#143,#179,#214,#240,#260,#278));
#280=MANIFOLD_SOLID_BREP('alibrePartClosedBody',#279);
#281=DRAUGHTING_PRE_DEFINED_COLOUR('black');
#282=FILL_AREA_STYLE_COLOUR('',#281);
#283=FILL_AREA_STYLE('',(#282));
#284=SURFACE_STYLE_FILL_AREA(#283);
#285=SURFACE_SIDE_STYLE('',(#284));
#286=SURFACE_STYLE_USAGE(.BOTH.,#285);
#287=PRESENTATION_STYLE_ASSIGNMENT((#286));
#26=STYLED_ITEM('',(#287),#280);
#16=SHAPE_REPRESENTATION('5596 Spacer 17x23.2 L=7mm',(#15),#10);
#17=ADVANCED_BREP_SHAPE_REPRESENTATION('5596 Spacer 17x23.2 L=7mm',(#280),#10);
#295=SHAPE_REPRESENTATION_RELATIONSHIP('','',#16,#17);
#296=CARTESIAN_POINT('',(0.,0.,0.));
#297=DIRECTION('',(0.,0.,1.));
#298=DIRECTION('',(1.,0.,0.));
#299=AXIS2_PLACEMENT_3D('',#296,#297,#298);
#301=MAPPED_ITEM('',#300,#299);
#300=REPRESENTATION_MAP(#299,#16);
#302=APPLICATION_CONTEXT('Managed model based 3d engineering');
#303=APPLICATION_PROTOCOL_DEFINITION('international standard','ap242_managed_model_based_3d_engineering',2013,#302);
#304=PRODUCT_CONTEXT('',#302,'mechanical');
#305=PRODUCT_DEFINITION_CONTEXT('part definition',#302,'design');
#24=PRODUCT('5596 Spacer 17x23.2 L=7mm','5596 Spacer 17x23.2 L=7mm','',(#304));
#306=PRODUCT_RELATED_PRODUCT_CATEGORY('part','',(#24));
#307=PRODUCT_DEFINITION_FORMATION_WITH_SPECIFIED_SOURCE('','',#24,.NOT_KNOWN.);
#25=PRODUCT_DEFINITION('design','',#307,#305);
#23=PRODUCT_DEFINITION_SHAPE('','',#25);
#308=SHAPE_DEFINITION_REPRESENTATION(#23,#16);
#11=DRAUGHTING_MODEL('',(#301),#10);
#1=MECHANICAL_DESIGN_GEOMETRIC_PRESENTATION_REPRESENTATION('',(#26),#10);
ENDSEC;
END-ISO-10303-21;
