ISO-10303-21;
HEADER;
/* Generated by software containing ST-Developer
 * from STEP Tools, Inc. (www.steptools.com) 
 */

FILE_DESCRIPTION(
/* description */ ('Alibre Inc.'),
/* implementation_level */ '2;1');

FILE_NAME(
/* name */ 'export-64C6224C-E328-459D-B2BA-92624E6C26B8',
/* time_stamp */ '2022-01-18T09:34:12+01:00',
/* author */ (''),
/* organization */ (''),
/* preprocessor_version */ 'ST-DEVELOPER v17',
/* originating_system */ 'Alibre',
/* authorisation */ '');

FILE_SCHEMA (('AUTOMOTIVE_DESIGN'));
ENDSEC;

DATA;
#10=STYLED_ITEM('NAME_0',(#43),#580);
#11=STYLED_ITEM('NAME_0',(#44),#336);
#12=STYLED_ITEM('NAME_0',(#44),#337);
#13=STYLED_ITEM('NAME_0',(#44),#338);
#14=STYLED_ITEM('NAME_0',(#44),#339);
#15=STYLED_ITEM('NAME_0',(#44),#340);
#16=STYLED_ITEM('NAME_0',(#44),#341);
#17=STYLED_ITEM('NAME_0',(#44),#342);
#18=STYLED_ITEM('NAME_0',(#44),#343);
#19=STYLED_ITEM('NAME_0',(#44),#344);
#20=STYLED_ITEM('NAME_0',(#44),#345);
#21=STYLED_ITEM('NAME_0',(#44),#346);
#22=STYLED_ITEM('NAME_0',(#44),#347);
#23=STYLED_ITEM('NAME_0',(#44),#348);
#24=STYLED_ITEM('NAME_0',(#44),#349);
#25=STYLED_ITEM('NAME_0',(#44),#350);
#26=STYLED_ITEM('NAME_0',(#44),#351);
#27=STYLED_ITEM('NAME_0',(#44),#352);
#28=STYLED_ITEM('NAME_0',(#44),#353);
#29=STYLED_ITEM('NAME_0',(#44),#354);
#30=MECHANICAL_DESIGN_GEOMETRIC_PRESENTATION_REPRESENTATION('NAME_0',(#10,
#11,#12,#13,#14,#15,#16,#17,#18,#19,#20,#21,#22,#23,#24,#25,#26,#27,#28,
#29),#59);
#31=COLOUR_RGB('',0.882352941176471,0.882352941176471,0.882352941176471);
#32=COLOUR_RGB('',0.686274509803922,0.686274509803922,0.686274509803922);
#33=FILL_AREA_STYLE_COLOUR('NAME_0',#31);
#34=FILL_AREA_STYLE_COLOUR('NAME_0',#32);
#35=FILL_AREA_STYLE('NAME_0',(#33));
#36=FILL_AREA_STYLE('NAME_0',(#34));
#37=SURFACE_STYLE_FILL_AREA(#35);
#38=SURFACE_STYLE_FILL_AREA(#36);
#39=SURFACE_SIDE_STYLE('NAME_0',(#37));
#40=SURFACE_SIDE_STYLE('NAME_0',(#38));
#41=SURFACE_STYLE_USAGE(.POSITIVE.,#39);
#42=SURFACE_STYLE_USAGE(.POSITIVE.,#40);
#43=PRESENTATION_STYLE_ASSIGNMENT((#41));
#44=PRESENTATION_STYLE_ASSIGNMENT((#42));
#45=PRODUCT_DEFINITION_CONTEXT('part definition',#52,'design');
#46=SHAPE_DEFINITION_REPRESENTATION(#47,#581);
#47=PRODUCT_DEFINITION_SHAPE('PRODUCT_VERSION_ID',
'PRODUCT_VERSION_DESCR',#48);
#48=PRODUCT_DEFINITION('PRODUCT_VERSION_ID','PRODUCT_VERSION_DESCR',#49,
#45);
#49=PRODUCT_DEFINITION_FORMATION_WITH_SPECIFIED_SOURCE(
'PRODUCT_VERSION_ID','PRODUCT_VERSION_DESCR',#54,.MADE.);
#50=PRODUCT_RELATED_PRODUCT_CATEGORY('part','part',(#54));
#51=APPLICATION_PROTOCOL_DEFINITION('Draft International Standard',
'automotive_design',1994,#52);
#52=APPLICATION_CONTEXT('automotive_Design');
#53=PRODUCT_CONTEXT('3D Mechanical Parts',#52,'mechanical');
#54=PRODUCT('HI_Zylinderschraube DIN 7984 M5x20 07090.050.020(High)',
'5803 M5x20 Bolt DIN-7984 08.8','',(#53));
#55=(
LENGTH_UNIT()
NAMED_UNIT(*)
SI_UNIT(.MILLI.,.METRE.)
);
#56=(
NAMED_UNIT(*)
PLANE_ANGLE_UNIT()
SI_UNIT($,.RADIAN.)
);
#57=(
NAMED_UNIT(*)
SI_UNIT($,.STERADIAN.)
SOLID_ANGLE_UNIT()
);
#58=UNCERTAINTY_MEASURE_WITH_UNIT(LENGTH_MEASURE(1.E-6),#55,
'DISTANCE_ACCURACY_VALUE',
'Maximum model space distance between geometric entities at asserted c
onnectivities');
#59=(
GEOMETRIC_REPRESENTATION_CONTEXT(3)
GLOBAL_UNCERTAINTY_ASSIGNED_CONTEXT((#58))
GLOBAL_UNIT_ASSIGNED_CONTEXT((#57,#56,#55))
REPRESENTATION_CONTEXT('ID1','3D')
);
#60=(
BOUNDED_CURVE()
B_SPLINE_CURVE(2,(#512,#513,#514),.UNSPECIFIED.,.F.,.U.)
B_SPLINE_CURVE_WITH_KNOTS((3,3),(0.142651302072592,1.94988938010591),
 .UNSPECIFIED.)
CURVE()
GEOMETRIC_REPRESENTATION_ITEM()
RATIONAL_B_SPLINE_CURVE((1.02706286843511,1.18595004713137,1.02706286843511))
REPRESENTATION_ITEM('')
);
#61=(
BOUNDED_CURVE()
B_SPLINE_CURVE(2,(#516,#517,#518),.UNSPECIFIED.,.F.,.U.)
B_SPLINE_CURVE_WITH_KNOTS((3,3),(0.142651302076722,1.94988938011173),
 .UNSPECIFIED.)
CURVE()
GEOMETRIC_REPRESENTATION_ITEM()
RATIONAL_B_SPLINE_CURVE((1.02706286843595,1.18595004713233,1.02706286843595))
REPRESENTATION_ITEM('')
);
#62=(
BOUNDED_CURVE()
B_SPLINE_CURVE(2,(#520,#521,#522),.UNSPECIFIED.,.F.,.U.)
B_SPLINE_CURVE_WITH_KNOTS((3,3),(0.142651302074026,1.94988938010793),
 .UNSPECIFIED.)
CURVE()
GEOMETRIC_REPRESENTATION_ITEM()
RATIONAL_B_SPLINE_CURVE((1.0270628684354,1.1859500471317,1.0270628684354))
REPRESENTATION_ITEM('')
);
#63=(
BOUNDED_CURVE()
B_SPLINE_CURVE(2,(#524,#525,#526),.UNSPECIFIED.,.F.,.U.)
B_SPLINE_CURVE_WITH_KNOTS((3,3),(0.142651302072592,1.9498893801059),
 .UNSPECIFIED.)
CURVE()
GEOMETRIC_REPRESENTATION_ITEM()
RATIONAL_B_SPLINE_CURVE((1.02706286843511,1.18595004713136,1.02706286843511))
REPRESENTATION_ITEM('')
);
#64=(
BOUNDED_CURVE()
B_SPLINE_CURVE(2,(#528,#529,#530),.UNSPECIFIED.,.F.,.U.)
B_SPLINE_CURVE_WITH_KNOTS((3,3),(0.142651302075661,1.94988938011024),
 .UNSPECIFIED.)
CURVE()
GEOMETRIC_REPRESENTATION_ITEM()
RATIONAL_B_SPLINE_CURVE((1.02706286843574,1.18595004713208,1.02706286843574))
REPRESENTATION_ITEM('')
);
#65=(
BOUNDED_CURVE()
B_SPLINE_CURVE(2,(#532,#533,#534),.UNSPECIFIED.,.F.,.U.)
B_SPLINE_CURVE_WITH_KNOTS((3,3),(0.142651302074028,1.94988938010794),
 .UNSPECIFIED.)
CURVE()
GEOMETRIC_REPRESENTATION_ITEM()
RATIONAL_B_SPLINE_CURVE((1.02706286843541,1.18595004713171,1.02706286843541))
REPRESENTATION_ITEM('')
);
#66=PLANE('',#369);
#67=PLANE('',#373);
#68=PLANE('',#376);
#69=PLANE('',#377);
#70=PLANE('',#388);
#71=PLANE('',#389);
#72=PLANE('',#390);
#73=PLANE('',#391);
#74=PLANE('',#392);
#75=PLANE('',#393);
#76=CONICAL_SURFACE('',#363,2.5127341645,0.3587706703);
#77=CONICAL_SURFACE('',#375,1.74,1.0471975512);
#78=CONICAL_SURFACE('',#385,2.5,0.7853981634);
#79=TOROIDAL_SURFACE('',#359,2.7,0.2);
#80=TOROIDAL_SURFACE('',#366,2.85,0.2);
#81=TOROIDAL_SURFACE('',#378,4.15,0.1);
#82=TOROIDAL_SURFACE('',#381,3.75,0.5);
#83=CIRCLE('',#356,2.5);
#84=CIRCLE('',#357,2.5);
#85=CIRCLE('',#358,2.5);
#86=CIRCLE('',#360,0.2);
#87=CIRCLE('',#361,2.51273416450036);
#88=CIRCLE('',#362,2.51273416450036);
#89=CIRCLE('',#364,2.66273416451214);
#90=CIRCLE('',#365,2.66273416451214);
#91=CIRCLE('',#367,0.2);
#92=CIRCLE('',#368,2.85);
#93=CIRCLE('',#370,3.75);
#94=CIRCLE('',#371,1.74);
#95=CIRCLE('',#372,1.74);
#96=CIRCLE('',#374,4.15);
#97=CIRCLE('',#379,0.1);
#98=CIRCLE('',#380,4.25);
#99=CIRCLE('',#382,0.5);
#100=CIRCLE('',#383,4.25);
#101=CIRCLE('',#386,2.0094999999975);
#102=CIRCLE('',#387,2.0094999999975);
#103=VERTEX_POINT('',#477);
#104=VERTEX_POINT('',#478);
#105=VERTEX_POINT('',#480);
#106=VERTEX_POINT('',#485);
#107=VERTEX_POINT('',#487);
#108=VERTEX_POINT('',#491);
#109=VERTEX_POINT('',#493);
#110=VERTEX_POINT('',#497);
#111=VERTEX_POINT('',#501);
#112=VERTEX_POINT('',#503);
#113=VERTEX_POINT('',#504);
#114=VERTEX_POINT('',#508);
#115=VERTEX_POINT('',#511);
#116=VERTEX_POINT('',#515);
#117=VERTEX_POINT('',#519);
#118=VERTEX_POINT('',#523);
#119=VERTEX_POINT('',#527);
#120=VERTEX_POINT('',#531);
#121=VERTEX_POINT('',#537);
#122=VERTEX_POINT('',#539);
#123=VERTEX_POINT('',#543);
#124=VERTEX_POINT('',#547);
#125=VERTEX_POINT('',#551);
#126=VERTEX_POINT('',#557);
#127=VERTEX_POINT('',#559);
#128=VERTEX_POINT('',#564);
#129=VERTEX_POINT('',#566);
#130=VERTEX_POINT('',#568);
#131=VECTOR('',#396,1.);
#132=VECTOR('',#412,1.);
#133=VECTOR('',#434,1.);
#134=VECTOR('',#436,1.);
#135=VECTOR('',#437,1.);
#136=VECTOR('',#438,1.);
#137=VECTOR('',#440,1.);
#138=VECTOR('',#441,1.);
#139=VECTOR('',#454,1.);
#140=VECTOR('',#457,1.);
#141=VECTOR('',#464,1.);
#142=VECTOR('',#465,1.);
#143=VECTOR('',#466,1.);
#144=VECTOR('',#467,1.);
#145=VECTOR('',#469,1.);
#146=VECTOR('',#471,1.);
#147=VECTOR('',#473,1.);
#148=LINE('',#476,#131);
#149=LINE('',#490,#132);
#150=LINE('',#510,#133);
#151=LINE('',#536,#134);
#152=LINE('',#538,#135);
#153=LINE('',#540,#136);
#154=LINE('',#542,#137);
#155=LINE('',#544,#138);
#156=LINE('',#554,#139);
#157=LINE('',#556,#140);
#158=LINE('',#563,#141);
#159=LINE('',#565,#142);
#160=LINE('',#567,#143);
#161=LINE('',#569,#144);
#162=LINE('',#571,#145);
#163=LINE('',#573,#146);
#164=LINE('',#575,#147);
#165=EDGE_CURVE('',#103,#104,#148,.T.);
#166=EDGE_CURVE('',#105,#104,#83,.T.);
#167=EDGE_CURVE('',#104,#105,#84,.T.);
#168=EDGE_CURVE('',#103,#103,#85,.F.);
#169=EDGE_CURVE('',#106,#103,#86,.T.);
#170=EDGE_CURVE('',#106,#107,#87,.F.);
#171=EDGE_CURVE('',#107,#106,#88,.F.);
#172=EDGE_CURVE('',#108,#107,#149,.T.);
#173=EDGE_CURVE('',#108,#109,#89,.F.);
#174=EDGE_CURVE('',#109,#108,#90,.F.);
#175=EDGE_CURVE('',#110,#109,#91,.T.);
#176=EDGE_CURVE('',#110,#110,#92,.F.);
#177=EDGE_CURVE('',#111,#111,#93,.T.);
#178=EDGE_CURVE('',#112,#113,#94,.F.);
#179=EDGE_CURVE('',#113,#112,#95,.F.);
#180=EDGE_CURVE('',#114,#114,#96,.F.);
#181=EDGE_CURVE('',#113,#115,#150,.T.);
#182=EDGE_CURVE('',#116,#115,#60,.F.);
#183=EDGE_CURVE('',#117,#116,#61,.F.);
#184=EDGE_CURVE('',#118,#117,#62,.F.);
#185=EDGE_CURVE('',#119,#118,#63,.F.);
#186=EDGE_CURVE('',#120,#119,#64,.F.);
#187=EDGE_CURVE('',#115,#120,#65,.F.);
#188=EDGE_CURVE('',#121,#115,#151,.F.);
#189=EDGE_CURVE('',#122,#120,#152,.T.);
#190=EDGE_CURVE('',#122,#121,#153,.T.);
#191=EDGE_CURVE('',#123,#119,#154,.T.);
#192=EDGE_CURVE('',#123,#122,#155,.T.);
#193=EDGE_CURVE('',#114,#124,#97,.T.);
#194=EDGE_CURVE('',#124,#124,#98,.F.);
#195=EDGE_CURVE('',#125,#111,#99,.T.);
#196=EDGE_CURVE('',#125,#125,#100,.F.);
#197=EDGE_CURVE('',#125,#124,#156,.T.);
#198=EDGE_CURVE('',#105,#126,#157,.T.);
#199=EDGE_CURVE('',#127,#126,#101,.F.);
#200=EDGE_CURVE('',#126,#127,#102,.F.);
#201=EDGE_CURVE('',#128,#123,#158,.F.);
#202=EDGE_CURVE('',#129,#128,#159,.F.);
#203=EDGE_CURVE('',#130,#129,#160,.F.);
#204=EDGE_CURVE('',#121,#130,#161,.F.);
#205=EDGE_CURVE('',#128,#118,#162,.T.);
#206=EDGE_CURVE('',#129,#117,#163,.T.);
#207=EDGE_CURVE('',#130,#116,#164,.T.);
#208=ORIENTED_EDGE('',*,*,#165,.T.);
#209=ORIENTED_EDGE('',*,*,#166,.F.);
#210=ORIENTED_EDGE('',*,*,#167,.F.);
#211=ORIENTED_EDGE('',*,*,#165,.F.);
#212=ORIENTED_EDGE('',*,*,#168,.T.);
#213=ORIENTED_EDGE('',*,*,#169,.F.);
#214=ORIENTED_EDGE('',*,*,#170,.T.);
#215=ORIENTED_EDGE('',*,*,#171,.T.);
#216=ORIENTED_EDGE('',*,*,#169,.T.);
#217=ORIENTED_EDGE('',*,*,#168,.F.);
#218=ORIENTED_EDGE('',*,*,#172,.T.);
#219=ORIENTED_EDGE('',*,*,#170,.F.);
#220=ORIENTED_EDGE('',*,*,#171,.F.);
#221=ORIENTED_EDGE('',*,*,#172,.F.);
#222=ORIENTED_EDGE('',*,*,#173,.T.);
#223=ORIENTED_EDGE('',*,*,#174,.T.);
#224=ORIENTED_EDGE('',*,*,#175,.F.);
#225=ORIENTED_EDGE('',*,*,#176,.T.);
#226=ORIENTED_EDGE('',*,*,#175,.T.);
#227=ORIENTED_EDGE('',*,*,#173,.F.);
#228=ORIENTED_EDGE('',*,*,#174,.F.);
#229=ORIENTED_EDGE('',*,*,#177,.F.);
#230=ORIENTED_EDGE('',*,*,#178,.T.);
#231=ORIENTED_EDGE('',*,*,#179,.T.);
#232=ORIENTED_EDGE('',*,*,#176,.F.);
#233=ORIENTED_EDGE('',*,*,#180,.T.);
#234=ORIENTED_EDGE('',*,*,#181,.F.);
#235=ORIENTED_EDGE('',*,*,#178,.F.);
#236=ORIENTED_EDGE('',*,*,#179,.F.);
#237=ORIENTED_EDGE('',*,*,#181,.T.);
#238=ORIENTED_EDGE('',*,*,#182,.F.);
#239=ORIENTED_EDGE('',*,*,#183,.F.);
#240=ORIENTED_EDGE('',*,*,#184,.F.);
#241=ORIENTED_EDGE('',*,*,#185,.F.);
#242=ORIENTED_EDGE('',*,*,#186,.F.);
#243=ORIENTED_EDGE('',*,*,#187,.F.);
#244=ORIENTED_EDGE('',*,*,#188,.T.);
#245=ORIENTED_EDGE('',*,*,#187,.T.);
#246=ORIENTED_EDGE('',*,*,#189,.F.);
#247=ORIENTED_EDGE('',*,*,#190,.T.);
#248=ORIENTED_EDGE('',*,*,#189,.T.);
#249=ORIENTED_EDGE('',*,*,#186,.T.);
#250=ORIENTED_EDGE('',*,*,#191,.F.);
#251=ORIENTED_EDGE('',*,*,#192,.T.);
#252=ORIENTED_EDGE('',*,*,#193,.T.);
#253=ORIENTED_EDGE('',*,*,#194,.T.);
#254=ORIENTED_EDGE('',*,*,#193,.F.);
#255=ORIENTED_EDGE('',*,*,#180,.F.);
#256=ORIENTED_EDGE('',*,*,#195,.T.);
#257=ORIENTED_EDGE('',*,*,#177,.T.);
#258=ORIENTED_EDGE('',*,*,#195,.F.);
#259=ORIENTED_EDGE('',*,*,#196,.F.);
#260=ORIENTED_EDGE('',*,*,#197,.T.);
#261=ORIENTED_EDGE('',*,*,#194,.F.);
#262=ORIENTED_EDGE('',*,*,#197,.F.);
#263=ORIENTED_EDGE('',*,*,#196,.T.);
#264=ORIENTED_EDGE('',*,*,#198,.T.);
#265=ORIENTED_EDGE('',*,*,#199,.F.);
#266=ORIENTED_EDGE('',*,*,#200,.F.);
#267=ORIENTED_EDGE('',*,*,#198,.F.);
#268=ORIENTED_EDGE('',*,*,#166,.T.);
#269=ORIENTED_EDGE('',*,*,#167,.T.);
#270=ORIENTED_EDGE('',*,*,#199,.T.);
#271=ORIENTED_EDGE('',*,*,#200,.T.);
#272=ORIENTED_EDGE('',*,*,#192,.F.);
#273=ORIENTED_EDGE('',*,*,#201,.F.);
#274=ORIENTED_EDGE('',*,*,#202,.F.);
#275=ORIENTED_EDGE('',*,*,#203,.F.);
#276=ORIENTED_EDGE('',*,*,#204,.F.);
#277=ORIENTED_EDGE('',*,*,#190,.F.);
#278=ORIENTED_EDGE('',*,*,#191,.T.);
#279=ORIENTED_EDGE('',*,*,#185,.T.);
#280=ORIENTED_EDGE('',*,*,#205,.F.);
#281=ORIENTED_EDGE('',*,*,#201,.T.);
#282=ORIENTED_EDGE('',*,*,#205,.T.);
#283=ORIENTED_EDGE('',*,*,#184,.T.);
#284=ORIENTED_EDGE('',*,*,#206,.F.);
#285=ORIENTED_EDGE('',*,*,#202,.T.);
#286=ORIENTED_EDGE('',*,*,#206,.T.);
#287=ORIENTED_EDGE('',*,*,#183,.T.);
#288=ORIENTED_EDGE('',*,*,#207,.F.);
#289=ORIENTED_EDGE('',*,*,#203,.T.);
#290=ORIENTED_EDGE('',*,*,#207,.T.);
#291=ORIENTED_EDGE('',*,*,#182,.T.);
#292=ORIENTED_EDGE('',*,*,#188,.F.);
#293=ORIENTED_EDGE('',*,*,#204,.T.);
#294=EDGE_LOOP('',(#208,#209,#210,#211,#212));
#295=EDGE_LOOP('',(#213,#214,#215,#216,#217));
#296=EDGE_LOOP('',(#218,#219,#220,#221,#222,#223));
#297=EDGE_LOOP('',(#224,#225,#226,#227,#228));
#298=EDGE_LOOP('',(#229));
#299=EDGE_LOOP('',(#230,#231));
#300=EDGE_LOOP('',(#232));
#301=EDGE_LOOP('',(#233));
#302=EDGE_LOOP('',(#234,#235,#236,#237,#238,#239,#240,#241,#242,#243));
#303=EDGE_LOOP('',(#244,#245,#246,#247));
#304=EDGE_LOOP('',(#248,#249,#250,#251));
#305=EDGE_LOOP('',(#252,#253,#254,#255));
#306=EDGE_LOOP('',(#256,#257,#258,#259));
#307=EDGE_LOOP('',(#260,#261,#262,#263));
#308=EDGE_LOOP('',(#264,#265,#266,#267,#268,#269));
#309=EDGE_LOOP('',(#270,#271));
#310=EDGE_LOOP('',(#272,#273,#274,#275,#276,#277));
#311=EDGE_LOOP('',(#278,#279,#280,#281));
#312=EDGE_LOOP('',(#282,#283,#284,#285));
#313=EDGE_LOOP('',(#286,#287,#288,#289));
#314=EDGE_LOOP('',(#290,#291,#292,#293));
#315=FACE_BOUND('',#294,.T.);
#316=FACE_BOUND('',#295,.T.);
#317=FACE_BOUND('',#296,.T.);
#318=FACE_BOUND('',#297,.T.);
#319=FACE_BOUND('',#298,.T.);
#320=FACE_BOUND('',#299,.T.);
#321=FACE_BOUND('',#300,.T.);
#322=FACE_BOUND('',#301,.T.);
#323=FACE_BOUND('',#302,.T.);
#324=FACE_BOUND('',#303,.T.);
#325=FACE_BOUND('',#304,.T.);
#326=FACE_BOUND('',#305,.T.);
#327=FACE_BOUND('',#306,.T.);
#328=FACE_BOUND('',#307,.T.);
#329=FACE_BOUND('',#308,.T.);
#330=FACE_BOUND('',#309,.T.);
#331=FACE_BOUND('',#310,.T.);
#332=FACE_BOUND('',#311,.T.);
#333=FACE_BOUND('',#312,.T.);
#334=FACE_BOUND('',#313,.T.);
#335=FACE_BOUND('',#314,.T.);
#336=ADVANCED_FACE('',(#315),#577,.T.);
#337=ADVANCED_FACE('',(#316),#79,.F.);
#338=ADVANCED_FACE('',(#317),#76,.T.);
#339=ADVANCED_FACE('',(#318),#80,.F.);
#340=ADVANCED_FACE('',(#319,#320),#66,.F.);
#341=ADVANCED_FACE('',(#321,#322),#67,.F.);
#342=ADVANCED_FACE('',(#323),#77,.F.);
#343=ADVANCED_FACE('',(#324),#68,.T.);
#344=ADVANCED_FACE('',(#325),#69,.T.);
#345=ADVANCED_FACE('',(#326),#81,.T.);
#346=ADVANCED_FACE('',(#327),#82,.T.);
#347=ADVANCED_FACE('',(#328),#578,.T.);
#348=ADVANCED_FACE('',(#329),#78,.T.);
#349=ADVANCED_FACE('',(#330),#70,.F.);
#350=ADVANCED_FACE('',(#331),#71,.F.);
#351=ADVANCED_FACE('',(#332),#72,.T.);
#352=ADVANCED_FACE('',(#333),#73,.T.);
#353=ADVANCED_FACE('',(#334),#74,.T.);
#354=ADVANCED_FACE('',(#335),#75,.T.);
#355=AXIS2_PLACEMENT_3D('',#475,#394,#395);
#356=AXIS2_PLACEMENT_3D('',#479,#397,#398);
#357=AXIS2_PLACEMENT_3D('',#481,#399,#400);
#358=AXIS2_PLACEMENT_3D('',#482,#401,#402);
#359=AXIS2_PLACEMENT_3D('',#483,#403,$);
#360=AXIS2_PLACEMENT_3D('',#484,#404,#405);
#361=AXIS2_PLACEMENT_3D('',#486,#406,#407);
#362=AXIS2_PLACEMENT_3D('',#488,#408,#409);
#363=AXIS2_PLACEMENT_3D('',#489,#410,#411);
#364=AXIS2_PLACEMENT_3D('',#492,#413,#414);
#365=AXIS2_PLACEMENT_3D('',#494,#415,#416);
#366=AXIS2_PLACEMENT_3D('',#495,#417,$);
#367=AXIS2_PLACEMENT_3D('',#496,#418,#419);
#368=AXIS2_PLACEMENT_3D('',#498,#420,#421);
#369=AXIS2_PLACEMENT_3D('',#499,#422,$);
#370=AXIS2_PLACEMENT_3D('',#500,#423,#424);
#371=AXIS2_PLACEMENT_3D('',#502,#425,#426);
#372=AXIS2_PLACEMENT_3D('',#505,#427,#428);
#373=AXIS2_PLACEMENT_3D('',#506,#429,$);
#374=AXIS2_PLACEMENT_3D('',#507,#430,#431);
#375=AXIS2_PLACEMENT_3D('',#509,#432,#433);
#376=AXIS2_PLACEMENT_3D('',#535,#435,$);
#377=AXIS2_PLACEMENT_3D('',#541,#439,$);
#378=AXIS2_PLACEMENT_3D('',#545,#442,$);
#379=AXIS2_PLACEMENT_3D('',#546,#443,#444);
#380=AXIS2_PLACEMENT_3D('',#548,#445,#446);
#381=AXIS2_PLACEMENT_3D('',#549,#447,$);
#382=AXIS2_PLACEMENT_3D('',#550,#448,#449);
#383=AXIS2_PLACEMENT_3D('',#552,#450,#451);
#384=AXIS2_PLACEMENT_3D('',#553,#452,#453);
#385=AXIS2_PLACEMENT_3D('',#555,#455,#456);
#386=AXIS2_PLACEMENT_3D('',#558,#458,#459);
#387=AXIS2_PLACEMENT_3D('',#560,#460,#461);
#388=AXIS2_PLACEMENT_3D('',#561,#462,$);
#389=AXIS2_PLACEMENT_3D('',#562,#463,$);
#390=AXIS2_PLACEMENT_3D('',#570,#468,$);
#391=AXIS2_PLACEMENT_3D('',#572,#470,$);
#392=AXIS2_PLACEMENT_3D('',#574,#472,$);
#393=AXIS2_PLACEMENT_3D('',#576,#474,$);
#394=DIRECTION('',(-1.,0.,0.));
#395=DIRECTION('',(0.,0.,-2.5));
#396=DIRECTION('',(1.,0.,0.));
#397=DIRECTION('',(1.,0.,0.));
#398=DIRECTION('',(0.,0.,-2.5));
#399=DIRECTION('',(1.,0.,0.));
#400=DIRECTION('',(0.,0.,-2.5));
#401=DIRECTION('',(-1.,0.,0.));
#402=DIRECTION('',(0.,0.,-2.5));
#403=DIRECTION('',(1.,0.,0.));
#404=DIRECTION('',(0.,1.,0.));
#405=DIRECTION('',(0.,0.,-0.2));
#406=DIRECTION('',(-1.,0.,0.));
#407=DIRECTION('',(0.,0.,2.51273416450036));
#408=DIRECTION('',(-1.,0.,0.));
#409=DIRECTION('',(0.,0.,2.51273416450036));
#410=DIRECTION('',(-1.,0.,0.));
#411=DIRECTION('',(0.,0.,2.5127341645));
#412=DIRECTION('',(0.936329177558712,0.,-0.351123441615946));
#413=DIRECTION('',(-1.,0.,0.));
#414=DIRECTION('',(0.,0.,2.66273416451214));
#415=DIRECTION('',(-1.,0.,0.));
#416=DIRECTION('',(0.,0.,2.66273416451214));
#417=DIRECTION('',(1.,0.,0.));
#418=DIRECTION('',(0.,1.,0.));
#419=DIRECTION('',(0.,0.,-0.2));
#420=DIRECTION('',(-1.,0.,0.));
#421=DIRECTION('',(0.,0.,2.85));
#422=DIRECTION('',(1.,0.,0.));
#423=DIRECTION('',(1.,0.,0.));
#424=DIRECTION('',(0.,0.,-3.75));
#425=DIRECTION('',(-1.,0.,0.));
#426=DIRECTION('',(3.20737996394704E-16,-1.74,0.));
#427=DIRECTION('',(-1.,0.,0.));
#428=DIRECTION('',(3.20737996394704E-16,-1.74,0.));
#429=DIRECTION('',(-1.,0.,0.));
#430=DIRECTION('',(-1.,0.,0.));
#431=DIRECTION('',(0.,0.,4.15));
#432=DIRECTION('',(-1.,-1.84332181836037E-16,0.));
#433=DIRECTION('',(3.20737996394704E-16,-1.74,0.));
#434=DIRECTION('',(0.499999999997053,0.86602540378614,0.));
#435=DIRECTION('',(0.,0.866025403784439,-0.5));
#436=DIRECTION('',(1.,0.,0.));
#437=DIRECTION('',(-1.,0.,0.));
#438=DIRECTION('',(0.,-0.5,-0.866025403784439));
#439=DIRECTION('',(0.,0.,-1.));
#440=DIRECTION('',(-1.,0.,0.));
#441=DIRECTION('',(0.,-1.,0.));
#442=DIRECTION('',(1.,0.,0.));
#443=DIRECTION('',(0.,1.,0.));
#444=DIRECTION('',(0.,0.,-0.1));
#445=DIRECTION('',(-1.,0.,0.));
#446=DIRECTION('',(0.,0.,-4.25));
#447=DIRECTION('',(1.,0.,0.));
#448=DIRECTION('',(0.,1.,0.));
#449=DIRECTION('',(0.,0.,-0.5));
#450=DIRECTION('',(-1.,0.,0.));
#451=DIRECTION('',(0.,0.,-4.25));
#452=DIRECTION('',(-1.,0.,0.));
#453=DIRECTION('',(0.,0.,-4.25));
#454=DIRECTION('',(1.,0.,0.));
#455=DIRECTION('',(-1.,0.,0.));
#456=DIRECTION('',(0.,0.,2.5));
#457=DIRECTION('',(0.707106781184743,0.,-0.707106781188352));
#458=DIRECTION('',(-1.,0.,0.));
#459=DIRECTION('',(0.,0.,2.0094999999975));
#460=DIRECTION('',(-1.,0.,0.));
#461=DIRECTION('',(0.,0.,2.0094999999975));
#462=DIRECTION('',(-1.,0.,0.));
#463=DIRECTION('',(1.,0.,0.));
#464=DIRECTION('',(0.,0.5,-0.866025403784439));
#465=DIRECTION('',(0.,-0.5,-0.866025403784439));
#466=DIRECTION('',(0.,-1.,0.));
#467=DIRECTION('',(0.,-0.5,0.866025403784439));
#468=DIRECTION('',(0.,-0.866025403784439,-0.5));
#469=DIRECTION('',(-1.,0.,0.));
#470=DIRECTION('',(0.,-0.866025403784439,0.5));
#471=DIRECTION('',(-1.,0.,0.));
#472=DIRECTION('',(0.,0.,1.));
#473=DIRECTION('',(-1.,0.,0.));
#474=DIRECTION('',(0.,0.866025403784439,0.5));
#475=CARTESIAN_POINT('',(20.,0.,0.));
#476=CARTESIAN_POINT('',(0.109500000000008,0.,-2.5));
#477=CARTESIAN_POINT('',(0.600000000000009,-3.06161699786838E-16,-2.5));
#478=CARTESIAN_POINT('',(19.5095,-1.53080849893419E-16,-2.5));
#479=CARTESIAN_POINT('',(19.5095,0.,0.));
#480=CARTESIAN_POINT('',(19.5095,0.,2.5));
#481=CARTESIAN_POINT('',(19.5095,0.,0.));
#482=CARTESIAN_POINT('',(0.600000000000018,0.,0.));
#483=CARTESIAN_POINT('',(0.600000000000018,0.,0.));
#484=CARTESIAN_POINT('',(0.600000000000018,0.,-2.7));
#485=CARTESIAN_POINT('',(0.529775311680071,4.04078472254875E-16,-2.51273416449395));
#486=CARTESIAN_POINT('',(0.529775311681369,0.,0.));
#487=CARTESIAN_POINT('',(0.529775311680071,-1.26973872225922E-15,2.51273416449395));
#488=CARTESIAN_POINT('',(0.529775311681369,0.,0.));
#489=CARTESIAN_POINT('',(0.529775311682341,0.,0.));
#490=CARTESIAN_POINT('',(0.169775311682326,0.,2.64773416451209));
#491=CARTESIAN_POINT('',(0.129775311682262,-1.90165023913981E-11,2.66273416450066));
#492=CARTESIAN_POINT('',(0.129775311685767,0.,0.));
#493=CARTESIAN_POINT('',(0.129775311682262,-1.6304544357604E-16,-2.66273416449983));
#494=CARTESIAN_POINT('',(0.129775311685767,0.,0.));
#495=CARTESIAN_POINT('',(0.2,0.,0.));
#496=CARTESIAN_POINT('',(0.2,0.,-2.85));
#497=CARTESIAN_POINT('',(-1.08420217248551E-16,-3.49024337756996E-16,-2.85));
#498=CARTESIAN_POINT('',(0.,0.,0.));
#499=CARTESIAN_POINT('',(-3.5,0.,0.));
#500=CARTESIAN_POINT('',(-3.5,0.,0.));
#501=CARTESIAN_POINT('',(-3.5,-4.59242549680257E-16,-3.75));
#502=CARTESIAN_POINT('',(-3.5,3.68664363672075E-17,0.));
#503=CARTESIAN_POINT('',(-3.5,1.74,-1.0654427152582E-16));
#504=CARTESIAN_POINT('',(-3.5,-1.74,1.0654427152582E-16));
#505=CARTESIAN_POINT('',(-3.5,3.68664363672075E-17,0.));
#506=CARTESIAN_POINT('',(0.,4.25,0.));
#507=CARTESIAN_POINT('',(0.,0.,0.));
#508=CARTESIAN_POINT('',(4.06575814682064E-17,-5.08228421646152E-16,-4.15));
#509=CARTESIAN_POINT('',(-3.5,3.68664363672075E-17,0.));
#510=CARTESIAN_POINT('',(-3.3473741354877,-1.4756442481135,0.));
#511=CARTESIAN_POINT('',(-3.49541053161009,-1.73205080756888,-2.43218003705263E-15));
#512=CARTESIAN_POINT('',(-3.49541053161009,-1.73205080756888,-2.64837381812472E-15));
#513=CARTESIAN_POINT('',(-3.24541053161205,-1.29903810567666,-0.750000000000001));
#514=CARTESIAN_POINT('',(-3.49541053161009,-0.866025403784442,-1.5));
#515=CARTESIAN_POINT('',(-3.49541053161009,-0.866025403784441,-1.5));
#516=CARTESIAN_POINT('',(-3.49541053161009,-0.86602540378444,-1.5));
#517=CARTESIAN_POINT('',(-3.24541053161205,-1.31838984174237E-16,-1.5));
#518=CARTESIAN_POINT('',(-3.49541053161009,0.866025403784438,-1.5));
#519=CARTESIAN_POINT('',(-3.49541053161009,0.866025403784439,-1.5));
#520=CARTESIAN_POINT('',(-3.49541053161009,0.866025403784439,-1.5));
#521=CARTESIAN_POINT('',(-3.24541053161205,1.29903810567666,-0.749999999999999));
#522=CARTESIAN_POINT('',(-3.49541053161009,1.73205080756888,2.94564026709708E-15));
#523=CARTESIAN_POINT('',(-3.49541053161009,1.73205080756888,2.72944648602573E-15));
#524=CARTESIAN_POINT('',(-3.49541053161009,1.73205080756888,2.47271637100421E-15));
#525=CARTESIAN_POINT('',(-3.24541053161205,1.29903810567666,0.750000000000001));
#526=CARTESIAN_POINT('',(-3.49541053161009,0.866025403784442,1.5));
#527=CARTESIAN_POINT('',(-3.49541053161009,0.866025403784442,1.5));
#528=CARTESIAN_POINT('',(-3.49541053161009,0.866025403784442,1.5));
#529=CARTESIAN_POINT('',(-3.24541053161205,1.86656246015104E-15,1.5));
#530=CARTESIAN_POINT('',(-3.49541053161009,-0.866025403784438,1.5));
#531=CARTESIAN_POINT('',(-3.49541053161009,-0.866025403784439,1.5));
#532=CARTESIAN_POINT('',(-3.49541053161009,-0.866025403784439,1.5));
#533=CARTESIAN_POINT('',(-3.24541053161205,-1.29903810567666,0.749999999999999));
#534=CARTESIAN_POINT('',(-3.49541053161009,-1.73205080756888,-2.43218003705263E-15));
#535=CARTESIAN_POINT('',(-0.8,-0.866025403784439,1.5));
#536=CARTESIAN_POINT('',(-0.8,-1.73205080756888,-2.55351295663786E-15));
#537=CARTESIAN_POINT('',(-0.8,-1.73205080756888,-2.44249065417534E-15));
#538=CARTESIAN_POINT('',(-0.8,-0.866025403784439,1.5));
#539=CARTESIAN_POINT('',(-0.8,-0.866025403784439,1.5));
#540=CARTESIAN_POINT('',(-0.8,-1.08253175473055,1.125));
#541=CARTESIAN_POINT('',(-0.8,0.866025403784439,1.5));
#542=CARTESIAN_POINT('',(-0.8,0.866025403784442,1.5));
#543=CARTESIAN_POINT('',(-0.8,0.866025403784442,1.5));
#544=CARTESIAN_POINT('',(-0.8,0.43301270189222,1.5));
#545=CARTESIAN_POINT('',(-0.1,0.,0.));
#546=CARTESIAN_POINT('',(-0.1,0.,-4.15));
#547=CARTESIAN_POINT('',(-0.100000000000001,-5.20474889637625E-16,-4.25));
#548=CARTESIAN_POINT('',(-0.1,0.,0.));
#549=CARTESIAN_POINT('',(-3.,0.,0.));
#550=CARTESIAN_POINT('',(-3.,0.,-3.75));
#551=CARTESIAN_POINT('',(-3.,-5.20474889637625E-16,-4.25));
#552=CARTESIAN_POINT('',(-3.,0.,0.));
#553=CARTESIAN_POINT('',(20.,0.,0.));
#554=CARTESIAN_POINT('',(-23.1,0.,-4.25));
#555=CARTESIAN_POINT('',(19.5095,0.,0.));
#556=CARTESIAN_POINT('',(20.04905,0.,1.96044999999725));
#557=CARTESIAN_POINT('',(19.9999999999994,2.22044604925031E-16,2.00949999999937));
#558=CARTESIAN_POINT('',(20.,0.,0.));
#559=CARTESIAN_POINT('',(19.9999999999994,-1.23046387144407E-16,-2.00949999999937));
#560=CARTESIAN_POINT('',(20.,0.,0.));
#561=CARTESIAN_POINT('',(20.,2.0095,0.));
#562=CARTESIAN_POINT('',(-0.8,0.,0.));
#563=CARTESIAN_POINT('',(-0.8,1.51554445662277,0.375));
#564=CARTESIAN_POINT('',(-0.8,1.73205080756888,2.22044604925031E-15));
#565=CARTESIAN_POINT('',(-0.8,1.08253175473055,-1.125));
#566=CARTESIAN_POINT('',(-0.8,0.866025403784439,-1.5));
#567=CARTESIAN_POINT('',(-0.8,-0.43301270189222,-1.5));
#568=CARTESIAN_POINT('',(-0.8,-0.866025403784442,-1.5));
#569=CARTESIAN_POINT('',(-0.8,-1.51554445662277,-0.375));
#570=CARTESIAN_POINT('',(-0.8,1.73205080756888,0.));
#571=CARTESIAN_POINT('',(-0.8,1.73205080756888,2.55351295663786E-15));
#572=CARTESIAN_POINT('',(-0.8,0.866025403784439,-1.5));
#573=CARTESIAN_POINT('',(-0.8,0.866025403784439,-1.5));
#574=CARTESIAN_POINT('',(-0.8,-0.866025403784439,-1.5));
#575=CARTESIAN_POINT('',(-0.8,-0.866025403784442,-1.5));
#576=CARTESIAN_POINT('',(-0.8,-1.73205080756888,0.));
#577=CYLINDRICAL_SURFACE('',#355,2.5);
#578=CYLINDRICAL_SURFACE('',#384,4.25);
#579=CLOSED_SHELL('',(#336,#337,#338,#339,#340,#341,#342,#343,#344,#345,
#346,#347,#348,#349,#350,#351,#352,#353,#354));
#580=MANIFOLD_SOLID_BREP('',#579);
#581=ADVANCED_BREP_SHAPE_REPRESENTATION('',(#580),#59);
ENDSEC;
END-ISO-10303-21;
