ISO-10303-21;
HEADER;
/* Generated by software containing ST-Developer
 * from STEP Tools, Inc. (www.steptools.com) 
 */

FILE_DESCRIPTION(
/* description */ ('Alibre Inc.'),
/* implementation_level */ '2;1');

FILE_NAME(
/* name */ 'export-C7C916F8-9AA5-4B08-8547-4B8B3A665BF7',
/* time_stamp */ '2022-03-31T17:33:40+02:00',
/* author */ (''),
/* organization */ (''),
/* preprocessor_version */ 'ST-DEVELOPER v17',
/* originating_system */ 'Alibre',
/* authorisation */ '');

FILE_SCHEMA (('AUTOMOTIVE_DESIGN'));
ENDSEC;

DATA;
#10=STYLED_ITEM('NAME_0',(#18),#521);
#11=MECHANICAL_DESIGN_GEOMETRIC_PRESENTATION_REPRESENTATION('NAME_0',(#10),
#33);
#12=COLOUR_RGB('',0.882352941176471,0.882352941176471,0.882352941176471);
#13=FILL_AREA_STYLE_COLOUR('NAME_0',#12);
#14=FILL_AREA_STYLE('NAME_0',(#13));
#15=SURFACE_STYLE_FILL_AREA(#14);
#16=SURFACE_SIDE_STYLE('NAME_0',(#15));
#17=SURFACE_STYLE_USAGE(.POSITIVE.,#16);
#18=PRESENTATION_STYLE_ASSIGNMENT((#17));
#19=PRODUCT_DEFINITION_CONTEXT('part definition',#26,'design');
#20=SHAPE_DEFINITION_REPRESENTATION(#21,#522);
#21=PRODUCT_DEFINITION_SHAPE('PRODUCT_VERSION_ID',
'PRODUCT_VERSION_DESCR',#22);
#22=PRODUCT_DEFINITION('PRODUCT_VERSION_ID','PRODUCT_VERSION_DESCR',#23,
#19);
#23=PRODUCT_DEFINITION_FORMATION_WITH_SPECIFIED_SOURCE(
'PRODUCT_VERSION_ID','PRODUCT_VERSION_DESCR',#28,.MADE.);
#24=PRODUCT_RELATED_PRODUCT_CATEGORY('part','part',(#28));
#25=APPLICATION_PROTOCOL_DEFINITION('Draft International Standard',
'automotive_design',1994,#26);
#26=APPLICATION_CONTEXT('automotive_Design');
#27=PRODUCT_CONTEXT('3D Mechanical Parts',#26,'mechanical');
#28=PRODUCT('','5885 DCNC 80x120x3mm bracket','',(#27));
#29=(
LENGTH_UNIT()
NAMED_UNIT(*)
SI_UNIT(.MILLI.,.METRE.)
);
#30=(
NAMED_UNIT(*)
PLANE_ANGLE_UNIT()
SI_UNIT($,.RADIAN.)
);
#31=(
NAMED_UNIT(*)
SI_UNIT($,.STERADIAN.)
SOLID_ANGLE_UNIT()
);
#32=UNCERTAINTY_MEASURE_WITH_UNIT(LENGTH_MEASURE(1.E-6),#29,
'DISTANCE_ACCURACY_VALUE',
'Maximum model space distance between geometric entities at asserted c
onnectivities');
#33=(
GEOMETRIC_REPRESENTATION_CONTEXT(3)
GLOBAL_UNCERTAINTY_ASSIGNED_CONTEXT((#32))
GLOBAL_UNIT_ASSIGNED_CONTEXT((#31,#30,#29))
REPRESENTATION_CONTEXT('ID1','3D')
);
#34=PLANE('',#333);
#35=PLANE('',#337);
#36=PLANE('',#342);
#37=PLANE('',#345);
#38=PLANE('',#346);
#39=PLANE('',#347);
#40=VECTOR('',#388,1.);
#41=VECTOR('',#391,1.);
#42=VECTOR('',#393,1.);
#43=VECTOR('',#396,1.);
#44=VECTOR('',#399,1.);
#45=VECTOR('',#402,1.);
#46=VECTOR('',#404,1.);
#47=VECTOR('',#405,1.);
#48=VECTOR('',#410,1.);
#49=VECTOR('',#413,1.);
#50=VECTOR('',#416,1.);
#51=VECTOR('',#418,1.);
#52=VECTOR('',#419,1.);
#53=VECTOR('',#422,1.);
#54=VECTOR('',#426,1.);
#55=VECTOR('',#428,1.);
#56=LINE('',#464,#40);
#57=LINE('',#468,#41);
#58=LINE('',#470,#42);
#59=LINE('',#474,#43);
#60=LINE('',#478,#44);
#61=LINE('',#482,#45);
#62=LINE('',#484,#46);
#63=LINE('',#486,#47);
#64=LINE('',#490,#48);
#65=LINE('',#492,#49);
#66=LINE('',#496,#50);
#67=LINE('',#498,#51);
#68=LINE('',#500,#52);
#69=LINE('',#502,#53);
#70=LINE('',#506,#54);
#71=LINE('',#508,#55);
#72=VERTEX_POINT('',#432);
#73=VERTEX_POINT('',#434);
#74=VERTEX_POINT('',#437);
#75=VERTEX_POINT('',#439);
#76=VERTEX_POINT('',#442);
#77=VERTEX_POINT('',#444);
#78=VERTEX_POINT('',#447);
#79=VERTEX_POINT('',#449);
#80=VERTEX_POINT('',#452);
#81=VERTEX_POINT('',#454);
#82=VERTEX_POINT('',#457);
#83=VERTEX_POINT('',#459);
#84=VERTEX_POINT('',#462);
#85=VERTEX_POINT('',#463);
#86=VERTEX_POINT('',#465);
#87=VERTEX_POINT('',#467);
#88=VERTEX_POINT('',#471);
#89=VERTEX_POINT('',#473);
#90=VERTEX_POINT('',#475);
#91=VERTEX_POINT('',#477);
#92=VERTEX_POINT('',#479);
#93=VERTEX_POINT('',#481);
#94=VERTEX_POINT('',#485);
#95=VERTEX_POINT('',#489);
#96=VERTEX_POINT('',#493);
#97=VERTEX_POINT('',#495);
#98=VERTEX_POINT('',#499);
#99=VERTEX_POINT('',#503);
#100=CIRCLE('',#313,4.1);
#101=CIRCLE('',#314,4.1);
#102=CIRCLE('',#316,4.1);
#103=CIRCLE('',#317,4.1);
#104=CIRCLE('',#319,4.1);
#105=CIRCLE('',#320,4.1);
#106=CIRCLE('',#322,4.1);
#107=CIRCLE('',#323,4.1);
#108=CIRCLE('',#325,4.1);
#109=CIRCLE('',#326,4.1);
#110=CIRCLE('',#328,4.1);
#111=CIRCLE('',#329,4.1);
#112=CIRCLE('',#331,3.);
#113=CIRCLE('',#332,3.);
#114=CIRCLE('',#334,3.);
#115=CIRCLE('',#335,3.);
#116=CIRCLE('',#336,3.);
#117=CIRCLE('',#339,3.);
#118=CIRCLE('',#341,3.);
#119=CIRCLE('',#344,3.);
#120=EDGE_CURVE('',#72,#72,#100,.T.);
#121=EDGE_CURVE('',#73,#73,#101,.T.);
#122=EDGE_CURVE('',#74,#74,#102,.T.);
#123=EDGE_CURVE('',#75,#75,#103,.T.);
#124=EDGE_CURVE('',#76,#76,#104,.T.);
#125=EDGE_CURVE('',#77,#77,#105,.T.);
#126=EDGE_CURVE('',#78,#78,#106,.T.);
#127=EDGE_CURVE('',#79,#79,#107,.T.);
#128=EDGE_CURVE('',#80,#80,#108,.T.);
#129=EDGE_CURVE('',#81,#81,#109,.T.);
#130=EDGE_CURVE('',#82,#82,#110,.T.);
#131=EDGE_CURVE('',#83,#83,#111,.T.);
#132=EDGE_CURVE('',#84,#85,#112,.T.);
#133=EDGE_CURVE('',#85,#86,#56,.T.);
#134=EDGE_CURVE('',#86,#87,#113,.T.);
#135=EDGE_CURVE('',#87,#84,#57,.T.);
#136=EDGE_CURVE('',#88,#84,#58,.T.);
#137=EDGE_CURVE('',#89,#88,#114,.T.);
#138=EDGE_CURVE('',#90,#89,#59,.T.);
#139=EDGE_CURVE('',#91,#90,#115,.T.);
#140=EDGE_CURVE('',#92,#91,#60,.T.);
#141=EDGE_CURVE('',#93,#92,#116,.T.);
#142=EDGE_CURVE('',#85,#93,#61,.T.);
#143=EDGE_CURVE('',#87,#94,#62,.T.);
#144=EDGE_CURVE('',#88,#94,#63,.T.);
#145=EDGE_CURVE('',#94,#95,#117,.T.);
#146=EDGE_CURVE('',#95,#89,#64,.T.);
#147=EDGE_CURVE('',#92,#96,#65,.T.);
#148=EDGE_CURVE('',#96,#97,#118,.T.);
#149=EDGE_CURVE('',#97,#93,#66,.T.);
#150=EDGE_CURVE('',#98,#91,#67,.T.);
#151=EDGE_CURVE('',#98,#96,#68,.T.);
#152=EDGE_CURVE('',#90,#99,#69,.T.);
#153=EDGE_CURVE('',#99,#98,#119,.T.);
#154=EDGE_CURVE('',#95,#99,#70,.T.);
#155=EDGE_CURVE('',#97,#86,#71,.T.);
#156=ORIENTED_EDGE('',*,*,#120,.F.);
#157=ORIENTED_EDGE('',*,*,#121,.F.);
#158=ORIENTED_EDGE('',*,*,#122,.F.);
#159=ORIENTED_EDGE('',*,*,#123,.F.);
#160=ORIENTED_EDGE('',*,*,#124,.F.);
#161=ORIENTED_EDGE('',*,*,#125,.F.);
#162=ORIENTED_EDGE('',*,*,#126,.F.);
#163=ORIENTED_EDGE('',*,*,#127,.F.);
#164=ORIENTED_EDGE('',*,*,#128,.F.);
#165=ORIENTED_EDGE('',*,*,#129,.F.);
#166=ORIENTED_EDGE('',*,*,#130,.F.);
#167=ORIENTED_EDGE('',*,*,#131,.F.);
#168=ORIENTED_EDGE('',*,*,#132,.T.);
#169=ORIENTED_EDGE('',*,*,#133,.T.);
#170=ORIENTED_EDGE('',*,*,#134,.T.);
#171=ORIENTED_EDGE('',*,*,#135,.T.);
#172=ORIENTED_EDGE('',*,*,#121,.T.);
#173=ORIENTED_EDGE('',*,*,#123,.T.);
#174=ORIENTED_EDGE('',*,*,#125,.T.);
#175=ORIENTED_EDGE('',*,*,#127,.T.);
#176=ORIENTED_EDGE('',*,*,#129,.T.);
#177=ORIENTED_EDGE('',*,*,#131,.T.);
#178=ORIENTED_EDGE('',*,*,#132,.F.);
#179=ORIENTED_EDGE('',*,*,#136,.F.);
#180=ORIENTED_EDGE('',*,*,#137,.F.);
#181=ORIENTED_EDGE('',*,*,#138,.F.);
#182=ORIENTED_EDGE('',*,*,#139,.F.);
#183=ORIENTED_EDGE('',*,*,#140,.F.);
#184=ORIENTED_EDGE('',*,*,#141,.F.);
#185=ORIENTED_EDGE('',*,*,#142,.F.);
#186=ORIENTED_EDGE('',*,*,#135,.F.);
#187=ORIENTED_EDGE('',*,*,#143,.T.);
#188=ORIENTED_EDGE('',*,*,#144,.F.);
#189=ORIENTED_EDGE('',*,*,#136,.T.);
#190=ORIENTED_EDGE('',*,*,#137,.T.);
#191=ORIENTED_EDGE('',*,*,#144,.T.);
#192=ORIENTED_EDGE('',*,*,#145,.T.);
#193=ORIENTED_EDGE('',*,*,#146,.T.);
#194=ORIENTED_EDGE('',*,*,#141,.T.);
#195=ORIENTED_EDGE('',*,*,#147,.T.);
#196=ORIENTED_EDGE('',*,*,#148,.T.);
#197=ORIENTED_EDGE('',*,*,#149,.T.);
#198=ORIENTED_EDGE('',*,*,#147,.F.);
#199=ORIENTED_EDGE('',*,*,#140,.T.);
#200=ORIENTED_EDGE('',*,*,#150,.F.);
#201=ORIENTED_EDGE('',*,*,#151,.T.);
#202=ORIENTED_EDGE('',*,*,#139,.T.);
#203=ORIENTED_EDGE('',*,*,#152,.T.);
#204=ORIENTED_EDGE('',*,*,#153,.T.);
#205=ORIENTED_EDGE('',*,*,#150,.T.);
#206=ORIENTED_EDGE('',*,*,#146,.F.);
#207=ORIENTED_EDGE('',*,*,#154,.T.);
#208=ORIENTED_EDGE('',*,*,#152,.F.);
#209=ORIENTED_EDGE('',*,*,#138,.T.);
#210=ORIENTED_EDGE('',*,*,#133,.F.);
#211=ORIENTED_EDGE('',*,*,#142,.T.);
#212=ORIENTED_EDGE('',*,*,#149,.F.);
#213=ORIENTED_EDGE('',*,*,#155,.T.);
#214=ORIENTED_EDGE('',*,*,#120,.T.);
#215=ORIENTED_EDGE('',*,*,#122,.T.);
#216=ORIENTED_EDGE('',*,*,#124,.T.);
#217=ORIENTED_EDGE('',*,*,#126,.T.);
#218=ORIENTED_EDGE('',*,*,#128,.T.);
#219=ORIENTED_EDGE('',*,*,#130,.T.);
#220=ORIENTED_EDGE('',*,*,#134,.F.);
#221=ORIENTED_EDGE('',*,*,#155,.F.);
#222=ORIENTED_EDGE('',*,*,#148,.F.);
#223=ORIENTED_EDGE('',*,*,#151,.F.);
#224=ORIENTED_EDGE('',*,*,#153,.F.);
#225=ORIENTED_EDGE('',*,*,#154,.F.);
#226=ORIENTED_EDGE('',*,*,#145,.F.);
#227=ORIENTED_EDGE('',*,*,#143,.F.);
#228=EDGE_LOOP('',(#156));
#229=EDGE_LOOP('',(#157));
#230=EDGE_LOOP('',(#158));
#231=EDGE_LOOP('',(#159));
#232=EDGE_LOOP('',(#160));
#233=EDGE_LOOP('',(#161));
#234=EDGE_LOOP('',(#162));
#235=EDGE_LOOP('',(#163));
#236=EDGE_LOOP('',(#164));
#237=EDGE_LOOP('',(#165));
#238=EDGE_LOOP('',(#166));
#239=EDGE_LOOP('',(#167));
#240=EDGE_LOOP('',(#168,#169,#170,#171));
#241=EDGE_LOOP('',(#172));
#242=EDGE_LOOP('',(#173));
#243=EDGE_LOOP('',(#174));
#244=EDGE_LOOP('',(#175));
#245=EDGE_LOOP('',(#176));
#246=EDGE_LOOP('',(#177));
#247=EDGE_LOOP('',(#178,#179,#180,#181,#182,#183,#184,#185));
#248=EDGE_LOOP('',(#186,#187,#188,#189));
#249=EDGE_LOOP('',(#190,#191,#192,#193));
#250=EDGE_LOOP('',(#194,#195,#196,#197));
#251=EDGE_LOOP('',(#198,#199,#200,#201));
#252=EDGE_LOOP('',(#202,#203,#204,#205));
#253=EDGE_LOOP('',(#206,#207,#208,#209));
#254=EDGE_LOOP('',(#210,#211,#212,#213));
#255=EDGE_LOOP('',(#214));
#256=EDGE_LOOP('',(#215));
#257=EDGE_LOOP('',(#216));
#258=EDGE_LOOP('',(#217));
#259=EDGE_LOOP('',(#218));
#260=EDGE_LOOP('',(#219));
#261=EDGE_LOOP('',(#220,#221,#222,#223,#224,#225,#226,#227));
#262=FACE_BOUND('',#228,.T.);
#263=FACE_BOUND('',#229,.T.);
#264=FACE_BOUND('',#230,.T.);
#265=FACE_BOUND('',#231,.T.);
#266=FACE_BOUND('',#232,.T.);
#267=FACE_BOUND('',#233,.T.);
#268=FACE_BOUND('',#234,.T.);
#269=FACE_BOUND('',#235,.T.);
#270=FACE_BOUND('',#236,.T.);
#271=FACE_BOUND('',#237,.T.);
#272=FACE_BOUND('',#238,.T.);
#273=FACE_BOUND('',#239,.T.);
#274=FACE_BOUND('',#240,.T.);
#275=FACE_BOUND('',#241,.T.);
#276=FACE_BOUND('',#242,.T.);
#277=FACE_BOUND('',#243,.T.);
#278=FACE_BOUND('',#244,.T.);
#279=FACE_BOUND('',#245,.T.);
#280=FACE_BOUND('',#246,.T.);
#281=FACE_BOUND('',#247,.T.);
#282=FACE_BOUND('',#248,.T.);
#283=FACE_BOUND('',#249,.T.);
#284=FACE_BOUND('',#250,.T.);
#285=FACE_BOUND('',#251,.T.);
#286=FACE_BOUND('',#252,.T.);
#287=FACE_BOUND('',#253,.T.);
#288=FACE_BOUND('',#254,.T.);
#289=FACE_BOUND('',#255,.T.);
#290=FACE_BOUND('',#256,.T.);
#291=FACE_BOUND('',#257,.T.);
#292=FACE_BOUND('',#258,.T.);
#293=FACE_BOUND('',#259,.T.);
#294=FACE_BOUND('',#260,.T.);
#295=FACE_BOUND('',#261,.T.);
#296=ADVANCED_FACE('',(#262,#263),#510,.F.);
#297=ADVANCED_FACE('',(#264,#265),#511,.F.);
#298=ADVANCED_FACE('',(#266,#267),#512,.F.);
#299=ADVANCED_FACE('',(#268,#269),#513,.F.);
#300=ADVANCED_FACE('',(#270,#271),#514,.F.);
#301=ADVANCED_FACE('',(#272,#273),#515,.F.);
#302=ADVANCED_FACE('',(#274),#516,.T.);
#303=ADVANCED_FACE('',(#275,#276,#277,#278,#279,#280,#281),#34,.T.);
#304=ADVANCED_FACE('',(#282),#35,.T.);
#305=ADVANCED_FACE('',(#283),#517,.T.);
#306=ADVANCED_FACE('',(#284),#518,.T.);
#307=ADVANCED_FACE('',(#285),#36,.T.);
#308=ADVANCED_FACE('',(#286),#519,.T.);
#309=ADVANCED_FACE('',(#287),#37,.T.);
#310=ADVANCED_FACE('',(#288),#38,.T.);
#311=ADVANCED_FACE('',(#289,#290,#291,#292,#293,#294,#295),#39,.F.);
#312=AXIS2_PLACEMENT_3D('',#430,#348,#349);
#313=AXIS2_PLACEMENT_3D('',#431,#350,#351);
#314=AXIS2_PLACEMENT_3D('',#433,#352,#353);
#315=AXIS2_PLACEMENT_3D('',#435,#354,#355);
#316=AXIS2_PLACEMENT_3D('',#436,#356,#357);
#317=AXIS2_PLACEMENT_3D('',#438,#358,#359);
#318=AXIS2_PLACEMENT_3D('',#440,#360,#361);
#319=AXIS2_PLACEMENT_3D('',#441,#362,#363);
#320=AXIS2_PLACEMENT_3D('',#443,#364,#365);
#321=AXIS2_PLACEMENT_3D('',#445,#366,#367);
#322=AXIS2_PLACEMENT_3D('',#446,#368,#369);
#323=AXIS2_PLACEMENT_3D('',#448,#370,#371);
#324=AXIS2_PLACEMENT_3D('',#450,#372,#373);
#325=AXIS2_PLACEMENT_3D('',#451,#374,#375);
#326=AXIS2_PLACEMENT_3D('',#453,#376,#377);
#327=AXIS2_PLACEMENT_3D('',#455,#378,#379);
#328=AXIS2_PLACEMENT_3D('',#456,#380,#381);
#329=AXIS2_PLACEMENT_3D('',#458,#382,#383);
#330=AXIS2_PLACEMENT_3D('',#460,#384,#385);
#331=AXIS2_PLACEMENT_3D('',#461,#386,#387);
#332=AXIS2_PLACEMENT_3D('',#466,#389,#390);
#333=AXIS2_PLACEMENT_3D('',#469,#392,$);
#334=AXIS2_PLACEMENT_3D('',#472,#394,#395);
#335=AXIS2_PLACEMENT_3D('',#476,#397,#398);
#336=AXIS2_PLACEMENT_3D('',#480,#400,#401);
#337=AXIS2_PLACEMENT_3D('',#483,#403,$);
#338=AXIS2_PLACEMENT_3D('',#487,#406,#407);
#339=AXIS2_PLACEMENT_3D('',#488,#408,#409);
#340=AXIS2_PLACEMENT_3D('',#491,#411,#412);
#341=AXIS2_PLACEMENT_3D('',#494,#414,#415);
#342=AXIS2_PLACEMENT_3D('',#497,#417,$);
#343=AXIS2_PLACEMENT_3D('',#501,#420,#421);
#344=AXIS2_PLACEMENT_3D('',#504,#423,#424);
#345=AXIS2_PLACEMENT_3D('',#505,#425,$);
#346=AXIS2_PLACEMENT_3D('',#507,#427,$);
#347=AXIS2_PLACEMENT_3D('',#509,#429,$);
#348=DIRECTION('',(0.,0.,-1.));
#349=DIRECTION('',(0.,4.1,0.));
#350=DIRECTION('',(0.,0.,1.));
#351=DIRECTION('',(0.,4.1,0.));
#352=DIRECTION('',(0.,0.,-1.));
#353=DIRECTION('',(0.,4.1,0.));
#354=DIRECTION('',(0.,0.,-1.));
#355=DIRECTION('',(0.,4.1,0.));
#356=DIRECTION('',(0.,0.,1.));
#357=DIRECTION('',(0.,4.1,0.));
#358=DIRECTION('',(0.,0.,-1.));
#359=DIRECTION('',(0.,4.1,0.));
#360=DIRECTION('',(0.,0.,-1.));
#361=DIRECTION('',(0.,4.1,0.));
#362=DIRECTION('',(0.,0.,1.));
#363=DIRECTION('',(0.,4.1,0.));
#364=DIRECTION('',(0.,0.,-1.));
#365=DIRECTION('',(0.,4.1,0.));
#366=DIRECTION('',(0.,0.,-1.));
#367=DIRECTION('',(0.,4.1,0.));
#368=DIRECTION('',(0.,0.,1.));
#369=DIRECTION('',(0.,4.1,0.));
#370=DIRECTION('',(0.,0.,-1.));
#371=DIRECTION('',(0.,4.1,0.));
#372=DIRECTION('',(0.,0.,-1.));
#373=DIRECTION('',(0.,4.1,0.));
#374=DIRECTION('',(0.,0.,1.));
#375=DIRECTION('',(0.,4.1,0.));
#376=DIRECTION('',(0.,0.,-1.));
#377=DIRECTION('',(0.,4.1,0.));
#378=DIRECTION('',(0.,0.,-1.));
#379=DIRECTION('',(0.,4.1,0.));
#380=DIRECTION('',(0.,0.,1.));
#381=DIRECTION('',(0.,4.1,0.));
#382=DIRECTION('',(0.,0.,-1.));
#383=DIRECTION('',(0.,4.1,0.));
#384=DIRECTION('',(0.,0.,1.));
#385=DIRECTION('',(2.12132034355965,-2.12132034355964,0.));
#386=DIRECTION('',(0.,0.,-1.));
#387=DIRECTION('',(2.12132034355965,-2.12132034355964,0.));
#388=DIRECTION('',(0.,0.,-1.));
#389=DIRECTION('',(0.,0.,1.));
#390=DIRECTION('',(2.12132034355965,-2.12132034355964,0.));
#391=DIRECTION('',(0.,0.,1.));
#392=DIRECTION('',(0.,0.,1.));
#393=DIRECTION('',(0.,-1.,0.));
#394=DIRECTION('',(0.,0.,-1.));
#395=DIRECTION('',(2.12132034355965,2.12132034355964,0.));
#396=DIRECTION('',(1.,0.,0.));
#397=DIRECTION('',(0.,0.,-1.));
#398=DIRECTION('',(-2.12132034355965,2.12132034355964,0.));
#399=DIRECTION('',(0.,1.,0.));
#400=DIRECTION('',(0.,0.,-1.));
#401=DIRECTION('',(-2.12132034355965,-2.12132034355964,0.));
#402=DIRECTION('',(-1.,0.,0.));
#403=DIRECTION('',(1.,0.,0.));
#404=DIRECTION('',(0.,1.,0.));
#405=DIRECTION('',(0.,0.,-1.));
#406=DIRECTION('',(0.,0.,1.));
#407=DIRECTION('',(2.12132034355965,2.12132034355964,0.));
#408=DIRECTION('',(0.,0.,1.));
#409=DIRECTION('',(2.12132034355965,2.12132034355964,0.));
#410=DIRECTION('',(0.,0.,1.));
#411=DIRECTION('',(0.,0.,1.));
#412=DIRECTION('',(-2.12132034355965,-2.12132034355964,0.));
#413=DIRECTION('',(0.,0.,-1.));
#414=DIRECTION('',(0.,0.,1.));
#415=DIRECTION('',(-2.12132034355965,-2.12132034355964,0.));
#416=DIRECTION('',(0.,0.,1.));
#417=DIRECTION('',(-1.,0.,0.));
#418=DIRECTION('',(0.,0.,1.));
#419=DIRECTION('',(0.,-1.,0.));
#420=DIRECTION('',(0.,0.,1.));
#421=DIRECTION('',(-2.12132034355965,2.12132034355964,0.));
#422=DIRECTION('',(0.,0.,-1.));
#423=DIRECTION('',(0.,0.,1.));
#424=DIRECTION('',(-2.12132034355965,2.12132034355964,0.));
#425=DIRECTION('',(0.,1.,0.));
#426=DIRECTION('',(-1.,0.,0.));
#427=DIRECTION('',(0.,-1.,0.));
#428=DIRECTION('',(1.,0.,0.));
#429=DIRECTION('',(0.,0.,1.));
#430=CARTESIAN_POINT('',(-20.,40.,3.));
#431=CARTESIAN_POINT('',(-20.,40.,0.));
#432=CARTESIAN_POINT('',(-20.,35.9,0.));
#433=CARTESIAN_POINT('',(-20.,40.,3.));
#434=CARTESIAN_POINT('',(-20.,44.1,3.));
#435=CARTESIAN_POINT('',(20.,40.,3.));
#436=CARTESIAN_POINT('',(20.,40.,0.));
#437=CARTESIAN_POINT('',(20.,35.9,0.));
#438=CARTESIAN_POINT('',(20.,40.,3.));
#439=CARTESIAN_POINT('',(20.,44.1,3.));
#440=CARTESIAN_POINT('',(-20.,0.,3.));
#441=CARTESIAN_POINT('',(-20.,0.,0.));
#442=CARTESIAN_POINT('',(-20.,-4.1,0.));
#443=CARTESIAN_POINT('',(-20.,0.,3.));
#444=CARTESIAN_POINT('',(-20.,4.1,3.));
#445=CARTESIAN_POINT('',(20.,0.,3.));
#446=CARTESIAN_POINT('',(20.,0.,0.));
#447=CARTESIAN_POINT('',(20.,-4.1,0.));
#448=CARTESIAN_POINT('',(20.,0.,3.));
#449=CARTESIAN_POINT('',(20.,4.1,3.));
#450=CARTESIAN_POINT('',(-20.,-40.,3.));
#451=CARTESIAN_POINT('',(-20.,-40.,0.));
#452=CARTESIAN_POINT('',(-20.,-44.1,0.));
#453=CARTESIAN_POINT('',(-20.,-40.,3.));
#454=CARTESIAN_POINT('',(-20.,-35.9,3.));
#455=CARTESIAN_POINT('',(20.,-40.,3.));
#456=CARTESIAN_POINT('',(20.,-40.,0.));
#457=CARTESIAN_POINT('',(20.,-44.1,0.));
#458=CARTESIAN_POINT('',(20.,-40.,3.));
#459=CARTESIAN_POINT('',(20.,-35.9,3.));
#460=CARTESIAN_POINT('',(37.,-57.,0.));
#461=CARTESIAN_POINT('',(37.,-57.,3.));
#462=CARTESIAN_POINT('',(40.,-57.,3.));
#463=CARTESIAN_POINT('',(37.,-60.,3.));
#464=CARTESIAN_POINT('',(37.,-60.,0.));
#465=CARTESIAN_POINT('',(37.,-60.,0.));
#466=CARTESIAN_POINT('',(37.,-57.,0.));
#467=CARTESIAN_POINT('',(40.,-57.,0.));
#468=CARTESIAN_POINT('',(40.,-57.,0.));
#469=CARTESIAN_POINT('',(-4.84460956200068E-16,0.,3.));
#470=CARTESIAN_POINT('',(40.,-60.,3.));
#471=CARTESIAN_POINT('',(40.,57.,3.));
#472=CARTESIAN_POINT('',(37.,57.,3.));
#473=CARTESIAN_POINT('',(37.,60.,3.));
#474=CARTESIAN_POINT('',(40.,60.,3.));
#475=CARTESIAN_POINT('',(-37.,60.,3.));
#476=CARTESIAN_POINT('',(-37.,57.,3.));
#477=CARTESIAN_POINT('',(-40.,57.,3.));
#478=CARTESIAN_POINT('',(-40.,60.,3.));
#479=CARTESIAN_POINT('',(-40.,-57.,3.));
#480=CARTESIAN_POINT('',(-37.,-57.,3.));
#481=CARTESIAN_POINT('',(-37.,-60.,3.));
#482=CARTESIAN_POINT('',(-40.,-60.,3.));
#483=CARTESIAN_POINT('',(40.,0.,0.));
#484=CARTESIAN_POINT('',(40.,-60.,0.));
#485=CARTESIAN_POINT('',(40.,57.,0.));
#486=CARTESIAN_POINT('',(40.,57.,0.));
#487=CARTESIAN_POINT('',(37.,57.,0.));
#488=CARTESIAN_POINT('',(37.,57.,0.));
#489=CARTESIAN_POINT('',(37.,60.,0.));
#490=CARTESIAN_POINT('',(37.,60.,0.));
#491=CARTESIAN_POINT('',(-37.,-57.,0.));
#492=CARTESIAN_POINT('',(-40.,-57.,0.));
#493=CARTESIAN_POINT('',(-40.,-57.,0.));
#494=CARTESIAN_POINT('',(-37.,-57.,0.));
#495=CARTESIAN_POINT('',(-37.,-60.,0.));
#496=CARTESIAN_POINT('',(-37.,-60.,0.));
#497=CARTESIAN_POINT('',(-40.,0.,0.));
#498=CARTESIAN_POINT('',(-40.,57.,0.));
#499=CARTESIAN_POINT('',(-40.,57.,0.));
#500=CARTESIAN_POINT('',(-40.,60.,0.));
#501=CARTESIAN_POINT('',(-37.,57.,0.));
#502=CARTESIAN_POINT('',(-37.,60.,0.));
#503=CARTESIAN_POINT('',(-37.,60.,0.));
#504=CARTESIAN_POINT('',(-37.,57.,0.));
#505=CARTESIAN_POINT('',(0.,60.,0.));
#506=CARTESIAN_POINT('',(40.,60.,0.));
#507=CARTESIAN_POINT('',(0.,-60.,0.));
#508=CARTESIAN_POINT('',(-40.,-60.,0.));
#509=CARTESIAN_POINT('',(-4.84460956200068E-16,0.,0.));
#510=CYLINDRICAL_SURFACE('',#312,4.1);
#511=CYLINDRICAL_SURFACE('',#315,4.1);
#512=CYLINDRICAL_SURFACE('',#318,4.1);
#513=CYLINDRICAL_SURFACE('',#321,4.1);
#514=CYLINDRICAL_SURFACE('',#324,4.1);
#515=CYLINDRICAL_SURFACE('',#327,4.1);
#516=CYLINDRICAL_SURFACE('',#330,3.);
#517=CYLINDRICAL_SURFACE('',#338,3.);
#518=CYLINDRICAL_SURFACE('',#340,3.);
#519=CYLINDRICAL_SURFACE('',#343,3.);
#520=CLOSED_SHELL('',(#296,#297,#298,#299,#300,#301,#302,#303,#304,#305,
#306,#307,#308,#309,#310,#311));
#521=MANIFOLD_SOLID_BREP('',#520);
#522=ADVANCED_BREP_SHAPE_REPRESENTATION('',(#521),#33);
ENDSEC;
END-ISO-10303-21;
