ISO-10303-21;
HEADER;

/* File generated by Alibre Version V23 */

FILE_DESCRIPTION(('HOOPS Exchange Step'),'2;1');

FILE_NAME('C:\\Users\\Gebruiker\\AppData\\Local\\Temp\\Alibre Design\\export-2A7158DA-9096-4464-B135-9151B54517A0.stp',
'2022-03-31T17:34:04+02:00',
('Gebruiker'),
('Alibre'),
'HOOPS Exchange 2021.0',
'Alibre',
'Unknown authorisation');

FILE_SCHEMA( ('AP242_MANAGED_MODEL_BASED_3D_ENGINEERING_MIM_LF {1 0 10303 442 1 1 4 }') );

ENDSEC;

DATA;
#3=(NAMED_UNIT(*)PLANE_ANGLE_UNIT()SI_UNIT($,.RADIAN.));
#4=PLANE_ANGLE_MEASURE_WITH_UNIT(PLANE_ANGLE_MEASURE(0.0174532925),#3);
#5=(CONVERSION_BASED_UNIT('DEGREE',#4)NAMED_UNIT(#6)PLANE_ANGLE_UNIT());
#6=DIMENSIONAL_EXPONENTS(0.,0.,0.,0.,0.,0.,0.);
#7=(NAMED_UNIT(*)SI_UNIT($,.STERADIAN.)SOLID_ANGLE_UNIT());
#8=(LENGTH_UNIT()NAMED_UNIT(*)SI_UNIT(.MILLI.,.METRE.));
#9=UNCERTAINTY_MEASURE_WITH_UNIT(LENGTH_MEASURE(1.000000E-06),#8,'DISTANCE_ACCURACY_VALUE','Maximum Tolerance applied to model');
#10=(GEOMETRIC_REPRESENTATION_CONTEXT(3)GLOBAL_UNCERTAINTY_ASSIGNED_CONTEXT((#9))GLOBAL_UNIT_ASSIGNED_CONTEXT((#8,#5,#7))REPRESENTATION_CONTEXT('','5885 DCNC 80x120x3mm bracket'));
#12=CARTESIAN_POINT('',(0.,0.,0.));
#13=DIRECTION('',(0.,0.,1.));
#14=DIRECTION('',(1.,0.,0.));
#15=AXIS2_PLACEMENT_3D('',#12,#13,#14);
#27=CARTESIAN_POINT('',(-20.,40.,3.));
#28=DIRECTION('',(0.,0.,-1.));
#29=DIRECTION('',(0.,1.,0.));
#30=AXIS2_PLACEMENT_3D('',#27,#28,#29);
#31=CYLINDRICAL_SURFACE('',#30,4.1);
#32=CARTESIAN_POINT('',(-20.,35.9,0.));
#33=VERTEX_POINT('',#32);
#34=CARTESIAN_POINT('',(-20.,35.9,3.));
#35=VERTEX_POINT('',#34);
#36=CARTESIAN_POINT('',(-20.,35.9,0.));
#37=DIRECTION('',(-0.,-0.,1.));
#38=VECTOR('',#37,3.);
#39=LINE('',#36,#38);
#40=EDGE_CURVE('',#33,#35,#39,.T.);
#41=ORIENTED_EDGE('',*,*,#40,.F.);
#42=CARTESIAN_POINT('',(-20.,40.,0.));
#43=DIRECTION('',(0.,-0.,1.));
#44=DIRECTION('',(0.,1.,0.));
#45=AXIS2_PLACEMENT_3D('',#42,#43,#44);
#46=CIRCLE('',#45,4.1);
#47=EDGE_CURVE('',#33,#33,#46,.T.);
#48=ORIENTED_EDGE('',*,*,#47,.F.);
#49=ORIENTED_EDGE('',*,*,#40,.T.);
#50=CARTESIAN_POINT('',(-20.,44.1,3.));
#51=VERTEX_POINT('',#50);
#52=CARTESIAN_POINT('',(-20.,40.,3.));
#53=DIRECTION('',(0.,0.,-1.));
#54=DIRECTION('',(0.,1.,0.));
#55=AXIS2_PLACEMENT_3D('',#52,#53,#54);
#56=CIRCLE('',#55,4.1);
#57=EDGE_CURVE('',#51,#35,#56,.T.);
#58=ORIENTED_EDGE('',*,*,#57,.F.);
#59=CARTESIAN_POINT('',(-20.,40.,3.));
#60=DIRECTION('',(0.,0.,-1.));
#61=DIRECTION('',(0.,1.,0.));
#62=AXIS2_PLACEMENT_3D('',#59,#60,#61);
#63=CIRCLE('',#62,4.1);
#64=EDGE_CURVE('',#35,#51,#63,.T.);
#65=ORIENTED_EDGE('',*,*,#64,.F.);
#66=EDGE_LOOP('',(#41,#48,#49,#58,#65));
#67=FACE_BOUND('',#66,.T.);
#68=ADVANCED_FACE('',(#67),#31,.F.);
#69=CARTESIAN_POINT('',(20.,40.,3.));
#70=DIRECTION('',(0.,0.,-1.));
#71=DIRECTION('',(0.,1.,0.));
#72=AXIS2_PLACEMENT_3D('',#69,#70,#71);
#73=CYLINDRICAL_SURFACE('',#72,4.1);
#74=CARTESIAN_POINT('',(20.,35.9,0.));
#75=VERTEX_POINT('',#74);
#76=CARTESIAN_POINT('',(20.,35.9,3.));
#77=VERTEX_POINT('',#76);
#78=CARTESIAN_POINT('',(20.,35.9,0.));
#79=DIRECTION('',(-0.,-0.,1.));
#80=VECTOR('',#79,3.);
#81=LINE('',#78,#80);
#82=EDGE_CURVE('',#75,#77,#81,.T.);
#83=ORIENTED_EDGE('',*,*,#82,.F.);
#84=CARTESIAN_POINT('',(20.,40.,0.));
#85=DIRECTION('',(0.,-0.,1.));
#86=DIRECTION('',(0.,1.,0.));
#87=AXIS2_PLACEMENT_3D('',#84,#85,#86);
#88=CIRCLE('',#87,4.1);
#89=EDGE_CURVE('',#75,#75,#88,.T.);
#90=ORIENTED_EDGE('',*,*,#89,.F.);
#91=ORIENTED_EDGE('',*,*,#82,.T.);
#92=CARTESIAN_POINT('',(20.,44.1,3.));
#93=VERTEX_POINT('',#92);
#94=CARTESIAN_POINT('',(20.,40.,3.));
#95=DIRECTION('',(0.,0.,-1.));
#96=DIRECTION('',(0.,1.,0.));
#97=AXIS2_PLACEMENT_3D('',#94,#95,#96);
#98=CIRCLE('',#97,4.1);
#99=EDGE_CURVE('',#93,#77,#98,.T.);
#100=ORIENTED_EDGE('',*,*,#99,.F.);
#101=CARTESIAN_POINT('',(20.,40.,3.));
#102=DIRECTION('',(0.,0.,-1.));
#103=DIRECTION('',(0.,1.,0.));
#104=AXIS2_PLACEMENT_3D('',#101,#102,#103);
#105=CIRCLE('',#104,4.1);
#106=EDGE_CURVE('',#77,#93,#105,.T.);
#107=ORIENTED_EDGE('',*,*,#106,.F.);
#108=EDGE_LOOP('',(#83,#90,#91,#100,#107));
#109=FACE_BOUND('',#108,.T.);
#110=ADVANCED_FACE('',(#109),#73,.F.);
#111=CARTESIAN_POINT('',(-20.,0.,3.));
#112=DIRECTION('',(0.,0.,-1.));
#113=DIRECTION('',(0.,1.,0.));
#114=AXIS2_PLACEMENT_3D('',#111,#112,#113);
#115=CYLINDRICAL_SURFACE('',#114,4.1);
#116=CARTESIAN_POINT('',(-20.,-4.1,0.));
#117=VERTEX_POINT('',#116);
#118=CARTESIAN_POINT('',(-20.,-4.1,3.));
#119=VERTEX_POINT('',#118);
#120=CARTESIAN_POINT('',(-20.,-4.1,0.));
#121=DIRECTION('',(-0.,-0.,1.));
#122=VECTOR('',#121,3.);
#123=LINE('',#120,#122);
#124=EDGE_CURVE('',#117,#119,#123,.T.);
#125=ORIENTED_EDGE('',*,*,#124,.F.);
#126=CARTESIAN_POINT('',(-20.,0.,0.));
#127=DIRECTION('',(0.,-0.,1.));
#128=DIRECTION('',(0.,1.,0.));
#129=AXIS2_PLACEMENT_3D('',#126,#127,#128);
#130=CIRCLE('',#129,4.1);
#131=EDGE_CURVE('',#117,#117,#130,.T.);
#132=ORIENTED_EDGE('',*,*,#131,.F.);
#133=ORIENTED_EDGE('',*,*,#124,.T.);
#134=CARTESIAN_POINT('',(-20.,4.1,3.));
#135=VERTEX_POINT('',#134);
#136=CARTESIAN_POINT('',(-20.,0.,3.));
#137=DIRECTION('',(0.,0.,-1.));
#138=DIRECTION('',(0.,1.,0.));
#139=AXIS2_PLACEMENT_3D('',#136,#137,#138);
#140=CIRCLE('',#139,4.1);
#141=EDGE_CURVE('',#135,#119,#140,.T.);
#142=ORIENTED_EDGE('',*,*,#141,.F.);
#143=CARTESIAN_POINT('',(-20.,0.,3.));
#144=DIRECTION('',(0.,0.,-1.));
#145=DIRECTION('',(0.,1.,0.));
#146=AXIS2_PLACEMENT_3D('',#143,#144,#145);
#147=CIRCLE('',#146,4.1);
#148=EDGE_CURVE('',#119,#135,#147,.T.);
#149=ORIENTED_EDGE('',*,*,#148,.F.);
#150=EDGE_LOOP('',(#125,#132,#133,#142,#149));
#151=FACE_BOUND('',#150,.T.);
#152=ADVANCED_FACE('',(#151),#115,.F.);
#153=CARTESIAN_POINT('',(20.,0.,3.));
#154=DIRECTION('',(0.,0.,-1.));
#155=DIRECTION('',(0.,1.,0.));
#156=AXIS2_PLACEMENT_3D('',#153,#154,#155);
#157=CYLINDRICAL_SURFACE('',#156,4.1);
#158=CARTESIAN_POINT('',(20.,-4.1,0.));
#159=VERTEX_POINT('',#158);
#160=CARTESIAN_POINT('',(20.,-4.1,3.));
#161=VERTEX_POINT('',#160);
#162=CARTESIAN_POINT('',(20.,-4.1,0.));
#163=DIRECTION('',(-0.,-0.,1.));
#164=VECTOR('',#163,3.);
#165=LINE('',#162,#164);
#166=EDGE_CURVE('',#159,#161,#165,.T.);
#167=ORIENTED_EDGE('',*,*,#166,.F.);
#168=CARTESIAN_POINT('',(20.,0.,0.));
#169=DIRECTION('',(0.,-0.,1.));
#170=DIRECTION('',(0.,1.,0.));
#171=AXIS2_PLACEMENT_3D('',#168,#169,#170);
#172=CIRCLE('',#171,4.1);
#173=EDGE_CURVE('',#159,#159,#172,.T.);
#174=ORIENTED_EDGE('',*,*,#173,.F.);
#175=ORIENTED_EDGE('',*,*,#166,.T.);
#176=CARTESIAN_POINT('',(20.,4.1,3.));
#177=VERTEX_POINT('',#176);
#178=CARTESIAN_POINT('',(20.,0.,3.));
#179=DIRECTION('',(0.,0.,-1.));
#180=DIRECTION('',(0.,1.,0.));
#181=AXIS2_PLACEMENT_3D('',#178,#179,#180);
#182=CIRCLE('',#181,4.1);
#183=EDGE_CURVE('',#177,#161,#182,.T.);
#184=ORIENTED_EDGE('',*,*,#183,.F.);
#185=CARTESIAN_POINT('',(20.,0.,3.));
#186=DIRECTION('',(0.,0.,-1.));
#187=DIRECTION('',(0.,1.,0.));
#188=AXIS2_PLACEMENT_3D('',#185,#186,#187);
#189=CIRCLE('',#188,4.1);
#190=EDGE_CURVE('',#161,#177,#189,.T.);
#191=ORIENTED_EDGE('',*,*,#190,.F.);
#192=EDGE_LOOP('',(#167,#174,#175,#184,#191));
#193=FACE_BOUND('',#192,.T.);
#194=ADVANCED_FACE('',(#193),#157,.F.);
#195=CARTESIAN_POINT('',(-20.,-40.,3.));
#196=DIRECTION('',(0.,0.,-1.));
#197=DIRECTION('',(0.,1.,0.));
#198=AXIS2_PLACEMENT_3D('',#195,#196,#197);
#199=CYLINDRICAL_SURFACE('',#198,4.1);
#200=CARTESIAN_POINT('',(-20.,-44.1,0.));
#201=VERTEX_POINT('',#200);
#202=CARTESIAN_POINT('',(-20.,-44.1,3.));
#203=VERTEX_POINT('',#202);
#204=CARTESIAN_POINT('',(-20.,-44.1,0.));
#205=DIRECTION('',(-0.,-0.,1.));
#206=VECTOR('',#205,3.);
#207=LINE('',#204,#206);
#208=EDGE_CURVE('',#201,#203,#207,.T.);
#209=ORIENTED_EDGE('',*,*,#208,.F.);
#210=CARTESIAN_POINT('',(-20.,-40.,0.));
#211=DIRECTION('',(0.,-0.,1.));
#212=DIRECTION('',(0.,1.,0.));
#213=AXIS2_PLACEMENT_3D('',#210,#211,#212);
#214=CIRCLE('',#213,4.1);
#215=EDGE_CURVE('',#201,#201,#214,.T.);
#216=ORIENTED_EDGE('',*,*,#215,.F.);
#217=ORIENTED_EDGE('',*,*,#208,.T.);
#218=CARTESIAN_POINT('',(-20.,-35.9,3.));
#219=VERTEX_POINT('',#218);
#220=CARTESIAN_POINT('',(-20.,-40.,3.));
#221=DIRECTION('',(0.,0.,-1.));
#222=DIRECTION('',(0.,1.,0.));
#223=AXIS2_PLACEMENT_3D('',#220,#221,#222);
#224=CIRCLE('',#223,4.1);
#225=EDGE_CURVE('',#219,#203,#224,.T.);
#226=ORIENTED_EDGE('',*,*,#225,.F.);
#227=CARTESIAN_POINT('',(-20.,-40.,3.));
#228=DIRECTION('',(0.,0.,-1.));
#229=DIRECTION('',(0.,1.,0.));
#230=AXIS2_PLACEMENT_3D('',#227,#228,#229);
#231=CIRCLE('',#230,4.1);
#232=EDGE_CURVE('',#203,#219,#231,.T.);
#233=ORIENTED_EDGE('',*,*,#232,.F.);
#234=EDGE_LOOP('',(#209,#216,#217,#226,#233));
#235=FACE_BOUND('',#234,.T.);
#236=ADVANCED_FACE('',(#235),#199,.F.);
#237=CARTESIAN_POINT('',(20.,-40.,3.));
#238=DIRECTION('',(0.,0.,-1.));
#239=DIRECTION('',(0.,1.,0.));
#240=AXIS2_PLACEMENT_3D('',#237,#238,#239);
#241=CYLINDRICAL_SURFACE('',#240,4.1);
#242=CARTESIAN_POINT('',(20.,-44.1,0.));
#243=VERTEX_POINT('',#242);
#244=CARTESIAN_POINT('',(20.,-44.1,3.));
#245=VERTEX_POINT('',#244);
#246=CARTESIAN_POINT('',(20.,-44.1,0.));
#247=DIRECTION('',(-0.,-0.,1.));
#248=VECTOR('',#247,3.);
#249=LINE('',#246,#248);
#250=EDGE_CURVE('',#243,#245,#249,.T.);
#251=ORIENTED_EDGE('',*,*,#250,.F.);
#252=CARTESIAN_POINT('',(20.,-40.,0.));
#253=DIRECTION('',(0.,-0.,1.));
#254=DIRECTION('',(0.,1.,0.));
#255=AXIS2_PLACEMENT_3D('',#252,#253,#254);
#256=CIRCLE('',#255,4.1);
#257=EDGE_CURVE('',#243,#243,#256,.T.);
#258=ORIENTED_EDGE('',*,*,#257,.F.);
#259=ORIENTED_EDGE('',*,*,#250,.T.);
#260=CARTESIAN_POINT('',(20.,-35.9,3.));
#261=VERTEX_POINT('',#260);
#262=CARTESIAN_POINT('',(20.,-40.,3.));
#263=DIRECTION('',(0.,0.,-1.));
#264=DIRECTION('',(0.,1.,0.));
#265=AXIS2_PLACEMENT_3D('',#262,#263,#264);
#266=CIRCLE('',#265,4.1);
#267=EDGE_CURVE('',#261,#245,#266,.T.);
#268=ORIENTED_EDGE('',*,*,#267,.F.);
#269=CARTESIAN_POINT('',(20.,-40.,3.));
#270=DIRECTION('',(0.,0.,-1.));
#271=DIRECTION('',(0.,1.,0.));
#272=AXIS2_PLACEMENT_3D('',#269,#270,#271);
#273=CIRCLE('',#272,4.1);
#274=EDGE_CURVE('',#245,#261,#273,.T.);
#275=ORIENTED_EDGE('',*,*,#274,.F.);
#276=EDGE_LOOP('',(#251,#258,#259,#268,#275));
#277=FACE_BOUND('',#276,.T.);
#278=ADVANCED_FACE('',(#277),#241,.F.);
#279=CARTESIAN_POINT('',(37.,-57.,0.));
#280=DIRECTION('',(0.,0.,1.));
#281=DIRECTION('',(0.707106781,-0.707106781,0.));
#282=AXIS2_PLACEMENT_3D('',#279,#280,#281);
#283=CYLINDRICAL_SURFACE('',#282,3.);
#284=CARTESIAN_POINT('',(40.,-57.,3.));
#285=VERTEX_POINT('',#284);
#286=CARTESIAN_POINT('',(37.,-60.,3.));
#287=VERTEX_POINT('',#286);
#288=CARTESIAN_POINT('',(37.,-57.,3.));
#289=DIRECTION('',(0.,0.,-1.));
#290=DIRECTION('',(0.707106781,-0.707106781,0.));
#291=AXIS2_PLACEMENT_3D('',#288,#289,#290);
#292=CIRCLE('',#291,3.);
#293=EDGE_CURVE('',#285,#287,#292,.T.);
#294=ORIENTED_EDGE('',*,*,#293,.T.);
#295=CARTESIAN_POINT('',(37.,-60.,0.));
#296=VERTEX_POINT('',#295);
#297=CARTESIAN_POINT('',(37.,-60.,30.));
#298=DIRECTION('',(0.,0.,-1.));
#299=VECTOR('',#298,30.);
#300=LINE('',#297,#299);
#301=EDGE_CURVE('',#287,#296,#300,.T.);
#302=ORIENTED_EDGE('',*,*,#301,.T.);
#303=CARTESIAN_POINT('',(40.,-57.,0.));
#304=VERTEX_POINT('',#303);
#305=CARTESIAN_POINT('',(37.,-57.,0.));
#306=DIRECTION('',(0.,0.,1.));
#307=DIRECTION('',(0.707106781,-0.707106781,0.));
#308=AXIS2_PLACEMENT_3D('',#305,#306,#307);
#309=CIRCLE('',#308,3.);
#310=EDGE_CURVE('',#296,#304,#309,.T.);
#311=ORIENTED_EDGE('',*,*,#310,.T.);
#312=CARTESIAN_POINT('',(40.,-57.,0.));
#313=DIRECTION('',(0.,0.,1.));
#314=VECTOR('',#313,30.);
#315=LINE('',#312,#314);
#316=EDGE_CURVE('',#304,#285,#315,.T.);
#317=ORIENTED_EDGE('',*,*,#316,.T.);
#318=EDGE_LOOP('',(#294,#302,#311,#317));
#319=FACE_BOUND('',#318,.T.);
#320=ADVANCED_FACE('',(#319),#283,.T.);
#321=CARTESIAN_POINT('',(-0.,0.,3.));
#322=DIRECTION('',(0.,0.,1.));
#323=DIRECTION('',(1.,0.,0.));
#324=AXIS2_PLACEMENT_3D('',#321,#322,#323);
#325=PLANE('',#324);
#326=ORIENTED_EDGE('',*,*,#57,.T.);
#327=ORIENTED_EDGE('',*,*,#64,.T.);
#328=EDGE_LOOP('',(#326,#327));
#329=FACE_BOUND('',#328,.T.);
#330=ORIENTED_EDGE('',*,*,#99,.T.);
#331=ORIENTED_EDGE('',*,*,#106,.T.);
#332=EDGE_LOOP('',(#330,#331));
#333=FACE_BOUND('',#332,.T.);
#334=ORIENTED_EDGE('',*,*,#141,.T.);
#335=ORIENTED_EDGE('',*,*,#148,.T.);
#336=EDGE_LOOP('',(#334,#335));
#337=FACE_BOUND('',#336,.T.);
#338=ORIENTED_EDGE('',*,*,#183,.T.);
#339=ORIENTED_EDGE('',*,*,#190,.T.);
#340=EDGE_LOOP('',(#338,#339));
#341=FACE_BOUND('',#340,.T.);
#342=ORIENTED_EDGE('',*,*,#225,.T.);
#343=ORIENTED_EDGE('',*,*,#232,.T.);
#344=EDGE_LOOP('',(#342,#343));
#345=FACE_BOUND('',#344,.T.);
#346=ORIENTED_EDGE('',*,*,#267,.T.);
#347=ORIENTED_EDGE('',*,*,#274,.T.);
#348=EDGE_LOOP('',(#346,#347));
#349=FACE_BOUND('',#348,.T.);
#350=ORIENTED_EDGE('',*,*,#293,.F.);
#351=CARTESIAN_POINT('',(40.,57.,3.));
#352=VERTEX_POINT('',#351);
#353=CARTESIAN_POINT('',(40.,1110.,3.));
#354=DIRECTION('',(0.,-1.,0.));
#355=VECTOR('',#354,1140.);
#356=LINE('',#353,#355);
#357=EDGE_CURVE('',#352,#285,#356,.T.);
#358=ORIENTED_EDGE('',*,*,#357,.F.);
#359=CARTESIAN_POINT('',(37.,60.,3.));
#360=VERTEX_POINT('',#359);
#361=CARTESIAN_POINT('',(37.,57.,3.));
#362=DIRECTION('',(0.,0.,-1.));
#363=DIRECTION('',(0.707106781,0.707106781,0.));
#364=AXIS2_PLACEMENT_3D('',#361,#362,#363);
#365=CIRCLE('',#364,3.);
#366=EDGE_CURVE('',#360,#352,#365,.T.);
#367=ORIENTED_EDGE('',*,*,#366,.F.);
#368=CARTESIAN_POINT('',(-37.,60.,3.));
#369=VERTEX_POINT('',#368);
#370=CARTESIAN_POINT('',(-730.,60.,3.));
#371=DIRECTION('',(1.,0.,-0.));
#372=VECTOR('',#371,740.);
#373=LINE('',#370,#372);
#374=EDGE_CURVE('',#369,#360,#373,.T.);
#375=ORIENTED_EDGE('',*,*,#374,.F.);
#376=CARTESIAN_POINT('',(-40.,57.,3.));
#377=VERTEX_POINT('',#376);
#378=CARTESIAN_POINT('',(-37.,57.,3.));
#379=DIRECTION('',(0.,0.,-1.));
#380=DIRECTION('',(-0.707106781,0.707106781,0.));
#381=AXIS2_PLACEMENT_3D('',#378,#379,#380);
#382=CIRCLE('',#381,3.);
#383=EDGE_CURVE('',#377,#369,#382,.T.);
#384=ORIENTED_EDGE('',*,*,#383,.F.);
#385=CARTESIAN_POINT('',(-40.,-57.,3.));
#386=VERTEX_POINT('',#385);
#387=CARTESIAN_POINT('',(-40.,-1110.,3.));
#388=DIRECTION('',(0.,1.,0.));
#389=VECTOR('',#388,1140.);
#390=LINE('',#387,#389);
#391=EDGE_CURVE('',#386,#377,#390,.T.);
#392=ORIENTED_EDGE('',*,*,#391,.F.);
#393=CARTESIAN_POINT('',(-37.,-60.,3.));
#394=VERTEX_POINT('',#393);
#395=CARTESIAN_POINT('',(-37.,-57.,3.));
#396=DIRECTION('',(-0.,0.,-1.));
#397=DIRECTION('',(-0.707106781,-0.707106781,0.));
#398=AXIS2_PLACEMENT_3D('',#395,#396,#397);
#399=CIRCLE('',#398,3.);
#400=EDGE_CURVE('',#394,#386,#399,.T.);
#401=ORIENTED_EDGE('',*,*,#400,.F.);
#402=CARTESIAN_POINT('',(730.,-60.,3.));
#403=DIRECTION('',(-1.,0.,0.));
#404=VECTOR('',#403,740.);
#405=LINE('',#402,#404);
#406=EDGE_CURVE('',#287,#394,#405,.T.);
#407=ORIENTED_EDGE('',*,*,#406,.F.);
#408=EDGE_LOOP('',(#350,#358,#367,#375,#384,#392,#401,#407));
#409=FACE_BOUND('',#408,.T.);
#410=ADVANCED_FACE('',(#329,#333,#337,#341,#345,#349,#409),#325,.T.);
#411=CARTESIAN_POINT('',(40.,0.,0.));
#412=DIRECTION('',(1.,0.,0.));
#413=DIRECTION('',(0.,1.,0.));
#414=AXIS2_PLACEMENT_3D('',#411,#412,#413);
#415=PLANE('',#414);
#416=ORIENTED_EDGE('',*,*,#316,.F.);
#417=CARTESIAN_POINT('',(40.,57.,0.));
#418=VERTEX_POINT('',#417);
#419=CARTESIAN_POINT('',(40.,-30.,0.));
#420=DIRECTION('',(0.,1.,0.));
#421=VECTOR('',#420,1140.);
#422=LINE('',#419,#421);
#423=EDGE_CURVE('',#304,#418,#422,.T.);
#424=ORIENTED_EDGE('',*,*,#423,.T.);
#425=CARTESIAN_POINT('',(40.,57.,30.));
#426=DIRECTION('',(0.,0.,-1.));
#427=VECTOR('',#426,30.);
#428=LINE('',#425,#427);
#429=EDGE_CURVE('',#352,#418,#428,.T.);
#430=ORIENTED_EDGE('',*,*,#429,.F.);
#431=ORIENTED_EDGE('',*,*,#357,.T.);
#432=EDGE_LOOP('',(#416,#424,#430,#431));
#433=FACE_BOUND('',#432,.T.);
#434=ADVANCED_FACE('',(#433),#415,.T.);
#435=CARTESIAN_POINT('',(37.,57.,0.));
#436=DIRECTION('',(0.,-0.,1.));
#437=DIRECTION('',(0.707106781,0.707106781,0.));
#438=AXIS2_PLACEMENT_3D('',#435,#436,#437);
#439=CYLINDRICAL_SURFACE('',#438,3.);
#440=ORIENTED_EDGE('',*,*,#366,.T.);
#441=ORIENTED_EDGE('',*,*,#429,.T.);
#442=CARTESIAN_POINT('',(37.,60.,0.));
#443=VERTEX_POINT('',#442);
#444=CARTESIAN_POINT('',(37.,57.,0.));
#445=DIRECTION('',(0.,-0.,1.));
#446=DIRECTION('',(0.707106781,0.707106781,0.));
#447=AXIS2_PLACEMENT_3D('',#444,#445,#446);
#448=CIRCLE('',#447,3.);
#449=EDGE_CURVE('',#418,#443,#448,.T.);
#450=ORIENTED_EDGE('',*,*,#449,.T.);
#451=CARTESIAN_POINT('',(37.,60.,0.));
#452=DIRECTION('',(0.,0.,1.));
#453=VECTOR('',#452,30.);
#454=LINE('',#451,#453);
#455=EDGE_CURVE('',#443,#360,#454,.T.);
#456=ORIENTED_EDGE('',*,*,#455,.T.);
#457=EDGE_LOOP('',(#440,#441,#450,#456));
#458=FACE_BOUND('',#457,.T.);
#459=ADVANCED_FACE('',(#458),#439,.T.);
#460=CARTESIAN_POINT('',(-37.,-57.,0.));
#461=DIRECTION('',(0.,0.,1.));
#462=DIRECTION('',(-0.707106781,-0.707106781,0.));
#463=AXIS2_PLACEMENT_3D('',#460,#461,#462);
#464=CYLINDRICAL_SURFACE('',#463,3.);
#465=ORIENTED_EDGE('',*,*,#400,.T.);
#466=CARTESIAN_POINT('',(-40.,-57.,0.));
#467=VERTEX_POINT('',#466);
#468=CARTESIAN_POINT('',(-40.,-57.,30.));
#469=DIRECTION('',(0.,0.,-1.));
#470=VECTOR('',#469,30.);
#471=LINE('',#468,#470);
#472=EDGE_CURVE('',#386,#467,#471,.T.);
#473=ORIENTED_EDGE('',*,*,#472,.T.);
#474=CARTESIAN_POINT('',(-37.,-60.,0.));
#475=VERTEX_POINT('',#474);
#476=CARTESIAN_POINT('',(-37.,-57.,0.));
#477=DIRECTION('',(0.,0.,1.));
#478=DIRECTION('',(-0.707106781,-0.707106781,0.));
#479=AXIS2_PLACEMENT_3D('',#476,#477,#478);
#480=CIRCLE('',#479,3.);
#481=EDGE_CURVE('',#467,#475,#480,.T.);
#482=ORIENTED_EDGE('',*,*,#481,.T.);
#483=CARTESIAN_POINT('',(-37.,-60.,0.));
#484=DIRECTION('',(0.,0.,1.));
#485=VECTOR('',#484,30.);
#486=LINE('',#483,#485);
#487=EDGE_CURVE('',#475,#394,#486,.T.);
#488=ORIENTED_EDGE('',*,*,#487,.T.);
#489=EDGE_LOOP('',(#465,#473,#482,#488));
#490=FACE_BOUND('',#489,.T.);
#491=ADVANCED_FACE('',(#490),#464,.T.);
#492=CARTESIAN_POINT('',(-40.,0.,0.));
#493=DIRECTION('',(-1.,0.,0.));
#494=DIRECTION('',(0.,-1.,0.));
#495=AXIS2_PLACEMENT_3D('',#492,#493,#494);
#496=PLANE('',#495);
#497=ORIENTED_EDGE('',*,*,#472,.F.);
#498=ORIENTED_EDGE('',*,*,#391,.T.);
#499=CARTESIAN_POINT('',(-40.,57.,0.));
#500=VERTEX_POINT('',#499);
#501=CARTESIAN_POINT('',(-40.,57.,0.));
#502=DIRECTION('',(0.,0.,1.));
#503=VECTOR('',#502,30.);
#504=LINE('',#501,#503);
#505=EDGE_CURVE('',#500,#377,#504,.T.);
#506=ORIENTED_EDGE('',*,*,#505,.F.);
#507=CARTESIAN_POINT('',(-40.,30.,0.));
#508=DIRECTION('',(0.,-1.,0.));
#509=VECTOR('',#508,1140.);
#510=LINE('',#507,#509);
#511=EDGE_CURVE('',#500,#467,#510,.T.);
#512=ORIENTED_EDGE('',*,*,#511,.T.);
#513=EDGE_LOOP('',(#497,#498,#506,#512));
#514=FACE_BOUND('',#513,.T.);
#515=ADVANCED_FACE('',(#514),#496,.T.);
#516=CARTESIAN_POINT('',(-37.,57.,0.));
#517=DIRECTION('',(0.,0.,1.));
#518=DIRECTION('',(-0.707106781,0.707106781,0.));
#519=AXIS2_PLACEMENT_3D('',#516,#517,#518);
#520=CYLINDRICAL_SURFACE('',#519,3.);
#521=ORIENTED_EDGE('',*,*,#383,.T.);
#522=CARTESIAN_POINT('',(-37.,60.,0.));
#523=VERTEX_POINT('',#522);
#524=CARTESIAN_POINT('',(-37.,60.,30.));
#525=DIRECTION('',(0.,0.,-1.));
#526=VECTOR('',#525,30.);
#527=LINE('',#524,#526);
#528=EDGE_CURVE('',#369,#523,#527,.T.);
#529=ORIENTED_EDGE('',*,*,#528,.T.);
#530=CARTESIAN_POINT('',(-37.,57.,0.));
#531=DIRECTION('',(0.,0.,1.));
#532=DIRECTION('',(-0.707106781,0.707106781,0.));
#533=AXIS2_PLACEMENT_3D('',#530,#531,#532);
#534=CIRCLE('',#533,3.);
#535=EDGE_CURVE('',#523,#500,#534,.T.);
#536=ORIENTED_EDGE('',*,*,#535,.T.);
#537=ORIENTED_EDGE('',*,*,#505,.T.);
#538=EDGE_LOOP('',(#521,#529,#536,#537));
#539=FACE_BOUND('',#538,.T.);
#540=ADVANCED_FACE('',(#539),#520,.T.);
#541=CARTESIAN_POINT('',(0.,60.,0.));
#542=DIRECTION('',(0.,1.,0.));
#543=DIRECTION('',(-1.,0.,0.));
#544=AXIS2_PLACEMENT_3D('',#541,#542,#543);
#545=PLANE('',#544);
#546=ORIENTED_EDGE('',*,*,#455,.F.);
#547=CARTESIAN_POINT('',(10.,60.,0.));
#548=DIRECTION('',(-1.,0.,0.));
#549=VECTOR('',#548,740.);
#550=LINE('',#547,#549);
#551=EDGE_CURVE('',#443,#523,#550,.T.);
#552=ORIENTED_EDGE('',*,*,#551,.T.);
#553=ORIENTED_EDGE('',*,*,#528,.F.);
#554=ORIENTED_EDGE('',*,*,#374,.T.);
#555=EDGE_LOOP('',(#546,#552,#553,#554));
#556=FACE_BOUND('',#555,.T.);
#557=ADVANCED_FACE('',(#556),#545,.T.);
#558=CARTESIAN_POINT('',(0.,-60.,0.));
#559=DIRECTION('',(0.,-1.,0.));
#560=DIRECTION('',(1.,0.,0.));
#561=AXIS2_PLACEMENT_3D('',#558,#559,#560);
#562=PLANE('',#561);
#563=ORIENTED_EDGE('',*,*,#301,.F.);
#564=ORIENTED_EDGE('',*,*,#406,.T.);
#565=ORIENTED_EDGE('',*,*,#487,.F.);
#566=CARTESIAN_POINT('',(-10.,-60.,0.));
#567=DIRECTION('',(1.,0.,-0.));
#568=VECTOR('',#567,740.);
#569=LINE('',#566,#568);
#570=EDGE_CURVE('',#475,#296,#569,.T.);
#571=ORIENTED_EDGE('',*,*,#570,.T.);
#572=EDGE_LOOP('',(#563,#564,#565,#571));
#573=FACE_BOUND('',#572,.T.);
#574=ADVANCED_FACE('',(#573),#562,.T.);
#575=CARTESIAN_POINT('',(-0.,0.,0.));
#576=DIRECTION('',(0.,0.,1.));
#577=DIRECTION('',(1.,0.,0.));
#578=AXIS2_PLACEMENT_3D('',#575,#576,#577);
#579=PLANE('',#578);
#580=ORIENTED_EDGE('',*,*,#47,.T.);
#581=EDGE_LOOP('',(#580));
#582=FACE_BOUND('',#581,.T.);
#583=ORIENTED_EDGE('',*,*,#89,.T.);
#584=EDGE_LOOP('',(#583));
#585=FACE_BOUND('',#584,.T.);
#586=ORIENTED_EDGE('',*,*,#131,.T.);
#587=EDGE_LOOP('',(#586));
#588=FACE_BOUND('',#587,.T.);
#589=ORIENTED_EDGE('',*,*,#173,.T.);
#590=EDGE_LOOP('',(#589));
#591=FACE_BOUND('',#590,.T.);
#592=ORIENTED_EDGE('',*,*,#215,.T.);
#593=EDGE_LOOP('',(#592));
#594=FACE_BOUND('',#593,.T.);
#595=ORIENTED_EDGE('',*,*,#257,.T.);
#596=EDGE_LOOP('',(#595));
#597=FACE_BOUND('',#596,.T.);
#598=ORIENTED_EDGE('',*,*,#310,.F.);
#599=ORIENTED_EDGE('',*,*,#570,.F.);
#600=ORIENTED_EDGE('',*,*,#481,.F.);
#601=ORIENTED_EDGE('',*,*,#511,.F.);
#602=ORIENTED_EDGE('',*,*,#535,.F.);
#603=ORIENTED_EDGE('',*,*,#551,.F.);
#604=ORIENTED_EDGE('',*,*,#449,.F.);
#605=ORIENTED_EDGE('',*,*,#423,.F.);
#606=EDGE_LOOP('',(#598,#599,#600,#601,#602,#603,#604,#605));
#607=FACE_BOUND('',#606,.T.);
#608=ADVANCED_FACE('',(#582,#585,#588,#591,#594,#597,#607),#579,.F.);
#609=CLOSED_SHELL('',(#68,#110,#152,#194,#236,#278,#320,#410,#434,#459,#491,#515,#540,#557,#574,#608));
#610=MANIFOLD_SOLID_BREP('alibrePartClosedBody',#609);
#611=COLOUR_RGB('',0.882352948,0.882352948,0.882352948);
#612=FILL_AREA_STYLE_COLOUR('',#611);
#613=FILL_AREA_STYLE('',(#612));
#614=SURFACE_STYLE_FILL_AREA(#613);
#615=SURFACE_SIDE_STYLE('',(#614));
#616=SURFACE_STYLE_USAGE(.BOTH.,#615);
#617=PRESENTATION_STYLE_ASSIGNMENT((#616));
#26=STYLED_ITEM('',(#617),#610);
#16=SHAPE_REPRESENTATION('5885 DCNC 80x120x3mm bracket',(#15),#10);
#17=ADVANCED_BREP_SHAPE_REPRESENTATION('5885 DCNC 80x120x3mm bracket',(#610),#10);
#625=SHAPE_REPRESENTATION_RELATIONSHIP('','',#16,#17);
#626=CARTESIAN_POINT('',(0.,0.,0.));
#627=DIRECTION('',(0.,0.,1.));
#628=DIRECTION('',(1.,0.,0.));
#629=AXIS2_PLACEMENT_3D('',#626,#627,#628);
#631=MAPPED_ITEM('',#630,#629);
#630=REPRESENTATION_MAP(#629,#16);
#632=APPLICATION_CONTEXT('Managed model based 3d engineering');
#633=APPLICATION_PROTOCOL_DEFINITION('international standard','ap242_managed_model_based_3d_engineering',2013,#632);
#634=PRODUCT_CONTEXT('',#632,'mechanical');
#635=PRODUCT_DEFINITION_CONTEXT('part definition',#632,'design');
#24=PRODUCT('5885 DCNC 80x120x3mm bracket','5885 DCNC 80x120x3mm bracket','',(#634));
#636=PRODUCT_RELATED_PRODUCT_CATEGORY('part','',(#24));
#637=PRODUCT_DEFINITION_FORMATION_WITH_SPECIFIED_SOURCE('','',#24,.NOT_KNOWN.);
#25=PRODUCT_DEFINITION('design','',#637,#635);
#23=PRODUCT_DEFINITION_SHAPE('','',#25);
#638=SHAPE_DEFINITION_REPRESENTATION(#23,#16);
#11=DRAUGHTING_MODEL('',(#631),#10);
#1=MECHANICAL_DESIGN_GEOMETRIC_PRESENTATION_REPRESENTATION('',(#26),#10);
ENDSEC;
END-ISO-10303-21;
