ISO-10303-21;
HEADER;
/* Generated by software containing ST-Developer
 * from STEP Tools, Inc. (www.steptools.com) 
 */

FILE_DESCRIPTION(
/* description */ ('Alibre Inc.'),
/* implementation_level */ '2;1');

FILE_NAME(
/* name */ 'export-62BDDCD1-436B-4951-B0A2-99BB920C6724',
/* time_stamp */ '2022-04-01T14:40:33+02:00',
/* author */ (''),
/* organization */ (''),
/* preprocessor_version */ 'ST-DEVELOPER v17',
/* originating_system */ 'Alibre',
/* authorisation */ '');

FILE_SCHEMA (('AUTOMOTIVE_DESIGN'));
ENDSEC;

DATA;
#10=STYLED_ITEM('NAME_0',(#18),#589);
#11=MECHANICAL_DESIGN_GEOMETRIC_PRESENTATION_REPRESENTATION('NAME_0',(#10),
#33);
#12=COLOUR_RGB('',0.882352941176471,0.882352941176471,0.882352941176471);
#13=FILL_AREA_STYLE_COLOUR('NAME_0',#12);
#14=FILL_AREA_STYLE('NAME_0',(#13));
#15=SURFACE_STYLE_FILL_AREA(#14);
#16=SURFACE_SIDE_STYLE('NAME_0',(#15));
#17=SURFACE_STYLE_USAGE(.POSITIVE.,#16);
#18=PRESENTATION_STYLE_ASSIGNMENT((#17));
#19=PRODUCT_DEFINITION_CONTEXT('part definition',#26,'design');
#20=SHAPE_DEFINITION_REPRESENTATION(#21,#590);
#21=PRODUCT_DEFINITION_SHAPE('PRODUCT_VERSION_ID',
'PRODUCT_VERSION_DESCR',#22);
#22=PRODUCT_DEFINITION('PRODUCT_VERSION_ID','PRODUCT_VERSION_DESCR',#23,
#19);
#23=PRODUCT_DEFINITION_FORMATION_WITH_SPECIFIED_SOURCE(
'PRODUCT_VERSION_ID','PRODUCT_VERSION_DESCR',#28,.MADE.);
#24=PRODUCT_RELATED_PRODUCT_CATEGORY('part','part',(#28));
#25=APPLICATION_PROTOCOL_DEFINITION('Draft International Standard',
'automotive_design',1994,#26);
#26=APPLICATION_CONTEXT('automotive_Design');
#27=PRODUCT_CONTEXT('3D Mechanical Parts',#26,'mechanical');
#28=PRODUCT('','5886 DCNC 80x160x3mm bracket','',(#27));
#29=(
LENGTH_UNIT()
NAMED_UNIT(*)
SI_UNIT(.MILLI.,.METRE.)
);
#30=(
NAMED_UNIT(*)
PLANE_ANGLE_UNIT()
SI_UNIT($,.RADIAN.)
);
#31=(
NAMED_UNIT(*)
SI_UNIT($,.STERADIAN.)
SOLID_ANGLE_UNIT()
);
#32=UNCERTAINTY_MEASURE_WITH_UNIT(LENGTH_MEASURE(1.E-6),#29,
'DISTANCE_ACCURACY_VALUE',
'Maximum model space distance between geometric entities at asserted c
onnectivities');
#33=(
GEOMETRIC_REPRESENTATION_CONTEXT(3)
GLOBAL_UNCERTAINTY_ASSIGNED_CONTEXT((#32))
GLOBAL_UNIT_ASSIGNED_CONTEXT((#31,#30,#29))
REPRESENTATION_CONTEXT('ID1','3D')
);
#34=PLANE('',#377);
#35=PLANE('',#381);
#36=PLANE('',#386);
#37=PLANE('',#389);
#38=PLANE('',#390);
#39=PLANE('',#391);
#40=VECTOR('',#444,1.);
#41=VECTOR('',#447,1.);
#42=VECTOR('',#449,1.);
#43=VECTOR('',#452,1.);
#44=VECTOR('',#455,1.);
#45=VECTOR('',#458,1.);
#46=VECTOR('',#460,1.);
#47=VECTOR('',#461,1.);
#48=VECTOR('',#466,1.);
#49=VECTOR('',#469,1.);
#50=VECTOR('',#472,1.);
#51=VECTOR('',#474,1.);
#52=VECTOR('',#475,1.);
#53=VECTOR('',#478,1.);
#54=VECTOR('',#482,1.);
#55=VECTOR('',#484,1.);
#56=LINE('',#530,#40);
#57=LINE('',#534,#41);
#58=LINE('',#536,#42);
#59=LINE('',#540,#43);
#60=LINE('',#544,#44);
#61=LINE('',#548,#45);
#62=LINE('',#550,#46);
#63=LINE('',#552,#47);
#64=LINE('',#556,#48);
#65=LINE('',#558,#49);
#66=LINE('',#562,#50);
#67=LINE('',#564,#51);
#68=LINE('',#566,#52);
#69=LINE('',#568,#53);
#70=LINE('',#572,#54);
#71=LINE('',#574,#55);
#72=VERTEX_POINT('',#488);
#73=VERTEX_POINT('',#490);
#74=VERTEX_POINT('',#493);
#75=VERTEX_POINT('',#495);
#76=VERTEX_POINT('',#498);
#77=VERTEX_POINT('',#500);
#78=VERTEX_POINT('',#503);
#79=VERTEX_POINT('',#505);
#80=VERTEX_POINT('',#508);
#81=VERTEX_POINT('',#510);
#82=VERTEX_POINT('',#513);
#83=VERTEX_POINT('',#515);
#84=VERTEX_POINT('',#518);
#85=VERTEX_POINT('',#520);
#86=VERTEX_POINT('',#523);
#87=VERTEX_POINT('',#525);
#88=VERTEX_POINT('',#528);
#89=VERTEX_POINT('',#529);
#90=VERTEX_POINT('',#531);
#91=VERTEX_POINT('',#533);
#92=VERTEX_POINT('',#537);
#93=VERTEX_POINT('',#539);
#94=VERTEX_POINT('',#541);
#95=VERTEX_POINT('',#543);
#96=VERTEX_POINT('',#545);
#97=VERTEX_POINT('',#547);
#98=VERTEX_POINT('',#551);
#99=VERTEX_POINT('',#555);
#100=VERTEX_POINT('',#559);
#101=VERTEX_POINT('',#561);
#102=VERTEX_POINT('',#565);
#103=VERTEX_POINT('',#569);
#104=CIRCLE('',#351,4.1);
#105=CIRCLE('',#352,4.1);
#106=CIRCLE('',#354,4.1);
#107=CIRCLE('',#355,4.1);
#108=CIRCLE('',#357,4.1);
#109=CIRCLE('',#358,4.1);
#110=CIRCLE('',#360,4.1);
#111=CIRCLE('',#361,4.1);
#112=CIRCLE('',#363,4.1);
#113=CIRCLE('',#364,4.1);
#114=CIRCLE('',#366,4.1);
#115=CIRCLE('',#367,4.1);
#116=CIRCLE('',#369,4.1);
#117=CIRCLE('',#370,4.1);
#118=CIRCLE('',#372,4.1);
#119=CIRCLE('',#373,4.1);
#120=CIRCLE('',#375,3.);
#121=CIRCLE('',#376,3.);
#122=CIRCLE('',#378,3.);
#123=CIRCLE('',#379,3.);
#124=CIRCLE('',#380,3.);
#125=CIRCLE('',#383,3.);
#126=CIRCLE('',#385,3.);
#127=CIRCLE('',#388,3.);
#128=EDGE_CURVE('',#72,#72,#104,.T.);
#129=EDGE_CURVE('',#73,#73,#105,.T.);
#130=EDGE_CURVE('',#74,#74,#106,.T.);
#131=EDGE_CURVE('',#75,#75,#107,.T.);
#132=EDGE_CURVE('',#76,#76,#108,.T.);
#133=EDGE_CURVE('',#77,#77,#109,.T.);
#134=EDGE_CURVE('',#78,#78,#110,.T.);
#135=EDGE_CURVE('',#79,#79,#111,.T.);
#136=EDGE_CURVE('',#80,#80,#112,.T.);
#137=EDGE_CURVE('',#81,#81,#113,.T.);
#138=EDGE_CURVE('',#82,#82,#114,.T.);
#139=EDGE_CURVE('',#83,#83,#115,.T.);
#140=EDGE_CURVE('',#84,#84,#116,.T.);
#141=EDGE_CURVE('',#85,#85,#117,.T.);
#142=EDGE_CURVE('',#86,#86,#118,.T.);
#143=EDGE_CURVE('',#87,#87,#119,.T.);
#144=EDGE_CURVE('',#88,#89,#120,.T.);
#145=EDGE_CURVE('',#89,#90,#56,.T.);
#146=EDGE_CURVE('',#90,#91,#121,.T.);
#147=EDGE_CURVE('',#91,#88,#57,.T.);
#148=EDGE_CURVE('',#92,#88,#58,.T.);
#149=EDGE_CURVE('',#93,#92,#122,.T.);
#150=EDGE_CURVE('',#94,#93,#59,.T.);
#151=EDGE_CURVE('',#95,#94,#123,.T.);
#152=EDGE_CURVE('',#96,#95,#60,.T.);
#153=EDGE_CURVE('',#97,#96,#124,.T.);
#154=EDGE_CURVE('',#89,#97,#61,.T.);
#155=EDGE_CURVE('',#91,#98,#62,.T.);
#156=EDGE_CURVE('',#92,#98,#63,.T.);
#157=EDGE_CURVE('',#98,#99,#125,.T.);
#158=EDGE_CURVE('',#99,#93,#64,.T.);
#159=EDGE_CURVE('',#96,#100,#65,.T.);
#160=EDGE_CURVE('',#100,#101,#126,.T.);
#161=EDGE_CURVE('',#101,#97,#66,.T.);
#162=EDGE_CURVE('',#102,#95,#67,.T.);
#163=EDGE_CURVE('',#102,#100,#68,.T.);
#164=EDGE_CURVE('',#94,#103,#69,.T.);
#165=EDGE_CURVE('',#103,#102,#127,.T.);
#166=EDGE_CURVE('',#99,#103,#70,.T.);
#167=EDGE_CURVE('',#101,#90,#71,.T.);
#168=ORIENTED_EDGE('',*,*,#128,.F.);
#169=ORIENTED_EDGE('',*,*,#129,.F.);
#170=ORIENTED_EDGE('',*,*,#130,.F.);
#171=ORIENTED_EDGE('',*,*,#131,.F.);
#172=ORIENTED_EDGE('',*,*,#132,.F.);
#173=ORIENTED_EDGE('',*,*,#133,.F.);
#174=ORIENTED_EDGE('',*,*,#134,.F.);
#175=ORIENTED_EDGE('',*,*,#135,.F.);
#176=ORIENTED_EDGE('',*,*,#136,.F.);
#177=ORIENTED_EDGE('',*,*,#137,.F.);
#178=ORIENTED_EDGE('',*,*,#138,.F.);
#179=ORIENTED_EDGE('',*,*,#139,.F.);
#180=ORIENTED_EDGE('',*,*,#140,.F.);
#181=ORIENTED_EDGE('',*,*,#141,.F.);
#182=ORIENTED_EDGE('',*,*,#142,.F.);
#183=ORIENTED_EDGE('',*,*,#143,.F.);
#184=ORIENTED_EDGE('',*,*,#144,.T.);
#185=ORIENTED_EDGE('',*,*,#145,.T.);
#186=ORIENTED_EDGE('',*,*,#146,.T.);
#187=ORIENTED_EDGE('',*,*,#147,.T.);
#188=ORIENTED_EDGE('',*,*,#129,.T.);
#189=ORIENTED_EDGE('',*,*,#131,.T.);
#190=ORIENTED_EDGE('',*,*,#133,.T.);
#191=ORIENTED_EDGE('',*,*,#135,.T.);
#192=ORIENTED_EDGE('',*,*,#137,.T.);
#193=ORIENTED_EDGE('',*,*,#139,.T.);
#194=ORIENTED_EDGE('',*,*,#141,.T.);
#195=ORIENTED_EDGE('',*,*,#143,.T.);
#196=ORIENTED_EDGE('',*,*,#144,.F.);
#197=ORIENTED_EDGE('',*,*,#148,.F.);
#198=ORIENTED_EDGE('',*,*,#149,.F.);
#199=ORIENTED_EDGE('',*,*,#150,.F.);
#200=ORIENTED_EDGE('',*,*,#151,.F.);
#201=ORIENTED_EDGE('',*,*,#152,.F.);
#202=ORIENTED_EDGE('',*,*,#153,.F.);
#203=ORIENTED_EDGE('',*,*,#154,.F.);
#204=ORIENTED_EDGE('',*,*,#147,.F.);
#205=ORIENTED_EDGE('',*,*,#155,.T.);
#206=ORIENTED_EDGE('',*,*,#156,.F.);
#207=ORIENTED_EDGE('',*,*,#148,.T.);
#208=ORIENTED_EDGE('',*,*,#149,.T.);
#209=ORIENTED_EDGE('',*,*,#156,.T.);
#210=ORIENTED_EDGE('',*,*,#157,.T.);
#211=ORIENTED_EDGE('',*,*,#158,.T.);
#212=ORIENTED_EDGE('',*,*,#153,.T.);
#213=ORIENTED_EDGE('',*,*,#159,.T.);
#214=ORIENTED_EDGE('',*,*,#160,.T.);
#215=ORIENTED_EDGE('',*,*,#161,.T.);
#216=ORIENTED_EDGE('',*,*,#159,.F.);
#217=ORIENTED_EDGE('',*,*,#152,.T.);
#218=ORIENTED_EDGE('',*,*,#162,.F.);
#219=ORIENTED_EDGE('',*,*,#163,.T.);
#220=ORIENTED_EDGE('',*,*,#151,.T.);
#221=ORIENTED_EDGE('',*,*,#164,.T.);
#222=ORIENTED_EDGE('',*,*,#165,.T.);
#223=ORIENTED_EDGE('',*,*,#162,.T.);
#224=ORIENTED_EDGE('',*,*,#158,.F.);
#225=ORIENTED_EDGE('',*,*,#166,.T.);
#226=ORIENTED_EDGE('',*,*,#164,.F.);
#227=ORIENTED_EDGE('',*,*,#150,.T.);
#228=ORIENTED_EDGE('',*,*,#145,.F.);
#229=ORIENTED_EDGE('',*,*,#154,.T.);
#230=ORIENTED_EDGE('',*,*,#161,.F.);
#231=ORIENTED_EDGE('',*,*,#167,.T.);
#232=ORIENTED_EDGE('',*,*,#128,.T.);
#233=ORIENTED_EDGE('',*,*,#130,.T.);
#234=ORIENTED_EDGE('',*,*,#132,.T.);
#235=ORIENTED_EDGE('',*,*,#134,.T.);
#236=ORIENTED_EDGE('',*,*,#136,.T.);
#237=ORIENTED_EDGE('',*,*,#138,.T.);
#238=ORIENTED_EDGE('',*,*,#140,.T.);
#239=ORIENTED_EDGE('',*,*,#142,.T.);
#240=ORIENTED_EDGE('',*,*,#146,.F.);
#241=ORIENTED_EDGE('',*,*,#167,.F.);
#242=ORIENTED_EDGE('',*,*,#160,.F.);
#243=ORIENTED_EDGE('',*,*,#163,.F.);
#244=ORIENTED_EDGE('',*,*,#165,.F.);
#245=ORIENTED_EDGE('',*,*,#166,.F.);
#246=ORIENTED_EDGE('',*,*,#157,.F.);
#247=ORIENTED_EDGE('',*,*,#155,.F.);
#248=EDGE_LOOP('',(#168));
#249=EDGE_LOOP('',(#169));
#250=EDGE_LOOP('',(#170));
#251=EDGE_LOOP('',(#171));
#252=EDGE_LOOP('',(#172));
#253=EDGE_LOOP('',(#173));
#254=EDGE_LOOP('',(#174));
#255=EDGE_LOOP('',(#175));
#256=EDGE_LOOP('',(#176));
#257=EDGE_LOOP('',(#177));
#258=EDGE_LOOP('',(#178));
#259=EDGE_LOOP('',(#179));
#260=EDGE_LOOP('',(#180));
#261=EDGE_LOOP('',(#181));
#262=EDGE_LOOP('',(#182));
#263=EDGE_LOOP('',(#183));
#264=EDGE_LOOP('',(#184,#185,#186,#187));
#265=EDGE_LOOP('',(#188));
#266=EDGE_LOOP('',(#189));
#267=EDGE_LOOP('',(#190));
#268=EDGE_LOOP('',(#191));
#269=EDGE_LOOP('',(#192));
#270=EDGE_LOOP('',(#193));
#271=EDGE_LOOP('',(#194));
#272=EDGE_LOOP('',(#195));
#273=EDGE_LOOP('',(#196,#197,#198,#199,#200,#201,#202,#203));
#274=EDGE_LOOP('',(#204,#205,#206,#207));
#275=EDGE_LOOP('',(#208,#209,#210,#211));
#276=EDGE_LOOP('',(#212,#213,#214,#215));
#277=EDGE_LOOP('',(#216,#217,#218,#219));
#278=EDGE_LOOP('',(#220,#221,#222,#223));
#279=EDGE_LOOP('',(#224,#225,#226,#227));
#280=EDGE_LOOP('',(#228,#229,#230,#231));
#281=EDGE_LOOP('',(#232));
#282=EDGE_LOOP('',(#233));
#283=EDGE_LOOP('',(#234));
#284=EDGE_LOOP('',(#235));
#285=EDGE_LOOP('',(#236));
#286=EDGE_LOOP('',(#237));
#287=EDGE_LOOP('',(#238));
#288=EDGE_LOOP('',(#239));
#289=EDGE_LOOP('',(#240,#241,#242,#243,#244,#245,#246,#247));
#290=FACE_BOUND('',#248,.T.);
#291=FACE_BOUND('',#249,.T.);
#292=FACE_BOUND('',#250,.T.);
#293=FACE_BOUND('',#251,.T.);
#294=FACE_BOUND('',#252,.T.);
#295=FACE_BOUND('',#253,.T.);
#296=FACE_BOUND('',#254,.T.);
#297=FACE_BOUND('',#255,.T.);
#298=FACE_BOUND('',#256,.T.);
#299=FACE_BOUND('',#257,.T.);
#300=FACE_BOUND('',#258,.T.);
#301=FACE_BOUND('',#259,.T.);
#302=FACE_BOUND('',#260,.T.);
#303=FACE_BOUND('',#261,.T.);
#304=FACE_BOUND('',#262,.T.);
#305=FACE_BOUND('',#263,.T.);
#306=FACE_BOUND('',#264,.T.);
#307=FACE_BOUND('',#265,.T.);
#308=FACE_BOUND('',#266,.T.);
#309=FACE_BOUND('',#267,.T.);
#310=FACE_BOUND('',#268,.T.);
#311=FACE_BOUND('',#269,.T.);
#312=FACE_BOUND('',#270,.T.);
#313=FACE_BOUND('',#271,.T.);
#314=FACE_BOUND('',#272,.T.);
#315=FACE_BOUND('',#273,.T.);
#316=FACE_BOUND('',#274,.T.);
#317=FACE_BOUND('',#275,.T.);
#318=FACE_BOUND('',#276,.T.);
#319=FACE_BOUND('',#277,.T.);
#320=FACE_BOUND('',#278,.T.);
#321=FACE_BOUND('',#279,.T.);
#322=FACE_BOUND('',#280,.T.);
#323=FACE_BOUND('',#281,.T.);
#324=FACE_BOUND('',#282,.T.);
#325=FACE_BOUND('',#283,.T.);
#326=FACE_BOUND('',#284,.T.);
#327=FACE_BOUND('',#285,.T.);
#328=FACE_BOUND('',#286,.T.);
#329=FACE_BOUND('',#287,.T.);
#330=FACE_BOUND('',#288,.T.);
#331=FACE_BOUND('',#289,.T.);
#332=ADVANCED_FACE('',(#290,#291),#576,.F.);
#333=ADVANCED_FACE('',(#292,#293),#577,.F.);
#334=ADVANCED_FACE('',(#294,#295),#578,.F.);
#335=ADVANCED_FACE('',(#296,#297),#579,.F.);
#336=ADVANCED_FACE('',(#298,#299),#580,.F.);
#337=ADVANCED_FACE('',(#300,#301),#581,.F.);
#338=ADVANCED_FACE('',(#302,#303),#582,.F.);
#339=ADVANCED_FACE('',(#304,#305),#583,.F.);
#340=ADVANCED_FACE('',(#306),#584,.T.);
#341=ADVANCED_FACE('',(#307,#308,#309,#310,#311,#312,#313,#314,#315),#34,
 .T.);
#342=ADVANCED_FACE('',(#316),#35,.T.);
#343=ADVANCED_FACE('',(#317),#585,.T.);
#344=ADVANCED_FACE('',(#318),#586,.T.);
#345=ADVANCED_FACE('',(#319),#36,.T.);
#346=ADVANCED_FACE('',(#320),#587,.T.);
#347=ADVANCED_FACE('',(#321),#37,.T.);
#348=ADVANCED_FACE('',(#322),#38,.T.);
#349=ADVANCED_FACE('',(#323,#324,#325,#326,#327,#328,#329,#330,#331),#39,
 .F.);
#350=AXIS2_PLACEMENT_3D('',#486,#392,#393);
#351=AXIS2_PLACEMENT_3D('',#487,#394,#395);
#352=AXIS2_PLACEMENT_3D('',#489,#396,#397);
#353=AXIS2_PLACEMENT_3D('',#491,#398,#399);
#354=AXIS2_PLACEMENT_3D('',#492,#400,#401);
#355=AXIS2_PLACEMENT_3D('',#494,#402,#403);
#356=AXIS2_PLACEMENT_3D('',#496,#404,#405);
#357=AXIS2_PLACEMENT_3D('',#497,#406,#407);
#358=AXIS2_PLACEMENT_3D('',#499,#408,#409);
#359=AXIS2_PLACEMENT_3D('',#501,#410,#411);
#360=AXIS2_PLACEMENT_3D('',#502,#412,#413);
#361=AXIS2_PLACEMENT_3D('',#504,#414,#415);
#362=AXIS2_PLACEMENT_3D('',#506,#416,#417);
#363=AXIS2_PLACEMENT_3D('',#507,#418,#419);
#364=AXIS2_PLACEMENT_3D('',#509,#420,#421);
#365=AXIS2_PLACEMENT_3D('',#511,#422,#423);
#366=AXIS2_PLACEMENT_3D('',#512,#424,#425);
#367=AXIS2_PLACEMENT_3D('',#514,#426,#427);
#368=AXIS2_PLACEMENT_3D('',#516,#428,#429);
#369=AXIS2_PLACEMENT_3D('',#517,#430,#431);
#370=AXIS2_PLACEMENT_3D('',#519,#432,#433);
#371=AXIS2_PLACEMENT_3D('',#521,#434,#435);
#372=AXIS2_PLACEMENT_3D('',#522,#436,#437);
#373=AXIS2_PLACEMENT_3D('',#524,#438,#439);
#374=AXIS2_PLACEMENT_3D('',#526,#440,#441);
#375=AXIS2_PLACEMENT_3D('',#527,#442,#443);
#376=AXIS2_PLACEMENT_3D('',#532,#445,#446);
#377=AXIS2_PLACEMENT_3D('',#535,#448,$);
#378=AXIS2_PLACEMENT_3D('',#538,#450,#451);
#379=AXIS2_PLACEMENT_3D('',#542,#453,#454);
#380=AXIS2_PLACEMENT_3D('',#546,#456,#457);
#381=AXIS2_PLACEMENT_3D('',#549,#459,$);
#382=AXIS2_PLACEMENT_3D('',#553,#462,#463);
#383=AXIS2_PLACEMENT_3D('',#554,#464,#465);
#384=AXIS2_PLACEMENT_3D('',#557,#467,#468);
#385=AXIS2_PLACEMENT_3D('',#560,#470,#471);
#386=AXIS2_PLACEMENT_3D('',#563,#473,$);
#387=AXIS2_PLACEMENT_3D('',#567,#476,#477);
#388=AXIS2_PLACEMENT_3D('',#570,#479,#480);
#389=AXIS2_PLACEMENT_3D('',#571,#481,$);
#390=AXIS2_PLACEMENT_3D('',#573,#483,$);
#391=AXIS2_PLACEMENT_3D('',#575,#485,$);
#392=DIRECTION('',(0.,0.,-1.));
#393=DIRECTION('',(0.,4.1,0.));
#394=DIRECTION('',(0.,0.,1.));
#395=DIRECTION('',(0.,4.1,0.));
#396=DIRECTION('',(0.,0.,-1.));
#397=DIRECTION('',(0.,4.1,0.));
#398=DIRECTION('',(0.,0.,-1.));
#399=DIRECTION('',(0.,4.1,0.));
#400=DIRECTION('',(0.,0.,1.));
#401=DIRECTION('',(0.,4.1,0.));
#402=DIRECTION('',(0.,0.,-1.));
#403=DIRECTION('',(0.,4.1,0.));
#404=DIRECTION('',(0.,0.,-1.));
#405=DIRECTION('',(0.,4.1,0.));
#406=DIRECTION('',(0.,0.,1.));
#407=DIRECTION('',(0.,4.1,0.));
#408=DIRECTION('',(0.,0.,-1.));
#409=DIRECTION('',(0.,4.1,0.));
#410=DIRECTION('',(0.,0.,-1.));
#411=DIRECTION('',(0.,4.1,0.));
#412=DIRECTION('',(0.,0.,1.));
#413=DIRECTION('',(0.,4.1,0.));
#414=DIRECTION('',(0.,0.,-1.));
#415=DIRECTION('',(0.,4.1,0.));
#416=DIRECTION('',(0.,0.,-1.));
#417=DIRECTION('',(0.,4.1,0.));
#418=DIRECTION('',(0.,0.,1.));
#419=DIRECTION('',(0.,4.1,0.));
#420=DIRECTION('',(0.,0.,-1.));
#421=DIRECTION('',(0.,4.1,0.));
#422=DIRECTION('',(0.,0.,-1.));
#423=DIRECTION('',(0.,4.1,0.));
#424=DIRECTION('',(0.,0.,1.));
#425=DIRECTION('',(0.,4.1,0.));
#426=DIRECTION('',(0.,0.,-1.));
#427=DIRECTION('',(0.,4.1,0.));
#428=DIRECTION('',(0.,0.,-1.));
#429=DIRECTION('',(0.,4.1,0.));
#430=DIRECTION('',(0.,0.,1.));
#431=DIRECTION('',(0.,4.1,0.));
#432=DIRECTION('',(0.,0.,-1.));
#433=DIRECTION('',(0.,4.1,0.));
#434=DIRECTION('',(0.,0.,-1.));
#435=DIRECTION('',(0.,4.1,0.));
#436=DIRECTION('',(0.,0.,1.));
#437=DIRECTION('',(0.,4.1,0.));
#438=DIRECTION('',(0.,0.,-1.));
#439=DIRECTION('',(0.,4.1,0.));
#440=DIRECTION('',(0.,0.,1.));
#441=DIRECTION('',(2.12132034355965,-2.12132034355964,0.));
#442=DIRECTION('',(0.,0.,-1.));
#443=DIRECTION('',(2.12132034355965,-2.12132034355964,0.));
#444=DIRECTION('',(0.,0.,-1.));
#445=DIRECTION('',(0.,0.,1.));
#446=DIRECTION('',(2.12132034355965,-2.12132034355964,0.));
#447=DIRECTION('',(0.,0.,1.));
#448=DIRECTION('',(0.,0.,1.));
#449=DIRECTION('',(0.,-1.,0.));
#450=DIRECTION('',(0.,0.,-1.));
#451=DIRECTION('',(2.12132034355965,2.12132034355964,0.));
#452=DIRECTION('',(1.,0.,0.));
#453=DIRECTION('',(0.,0.,-1.));
#454=DIRECTION('',(-2.12132034355965,2.12132034355964,0.));
#455=DIRECTION('',(0.,1.,0.));
#456=DIRECTION('',(0.,0.,-1.));
#457=DIRECTION('',(-2.12132034355965,-2.12132034355964,0.));
#458=DIRECTION('',(-1.,0.,0.));
#459=DIRECTION('',(1.,0.,0.));
#460=DIRECTION('',(0.,1.,0.));
#461=DIRECTION('',(0.,0.,-1.));
#462=DIRECTION('',(0.,0.,1.));
#463=DIRECTION('',(2.12132034355965,2.12132034355964,0.));
#464=DIRECTION('',(0.,0.,1.));
#465=DIRECTION('',(2.12132034355965,2.12132034355964,0.));
#466=DIRECTION('',(0.,0.,1.));
#467=DIRECTION('',(0.,0.,1.));
#468=DIRECTION('',(-2.12132034355965,-2.12132034355964,0.));
#469=DIRECTION('',(0.,0.,-1.));
#470=DIRECTION('',(0.,0.,1.));
#471=DIRECTION('',(-2.12132034355965,-2.12132034355964,0.));
#472=DIRECTION('',(0.,0.,1.));
#473=DIRECTION('',(-1.,0.,0.));
#474=DIRECTION('',(0.,0.,1.));
#475=DIRECTION('',(0.,-1.,0.));
#476=DIRECTION('',(0.,0.,1.));
#477=DIRECTION('',(-2.12132034355965,2.12132034355964,0.));
#478=DIRECTION('',(0.,0.,-1.));
#479=DIRECTION('',(0.,0.,1.));
#480=DIRECTION('',(-2.12132034355965,2.12132034355964,0.));
#481=DIRECTION('',(0.,1.,0.));
#482=DIRECTION('',(-1.,0.,0.));
#483=DIRECTION('',(0.,-1.,0.));
#484=DIRECTION('',(1.,0.,0.));
#485=DIRECTION('',(0.,0.,1.));
#486=CARTESIAN_POINT('',(-20.,60.,3.));
#487=CARTESIAN_POINT('',(-20.,60.,0.));
#488=CARTESIAN_POINT('',(-20.,55.9,0.));
#489=CARTESIAN_POINT('',(-20.,60.,3.));
#490=CARTESIAN_POINT('',(-20.,64.1,3.));
#491=CARTESIAN_POINT('',(-20.,20.,3.));
#492=CARTESIAN_POINT('',(-20.,20.,0.));
#493=CARTESIAN_POINT('',(-20.,15.9,0.));
#494=CARTESIAN_POINT('',(-20.,20.,3.));
#495=CARTESIAN_POINT('',(-20.,24.1,3.));
#496=CARTESIAN_POINT('',(20.,60.,3.));
#497=CARTESIAN_POINT('',(20.,60.,0.));
#498=CARTESIAN_POINT('',(20.,55.9,0.));
#499=CARTESIAN_POINT('',(20.,60.,3.));
#500=CARTESIAN_POINT('',(20.,64.1,3.));
#501=CARTESIAN_POINT('',(20.,20.,3.));
#502=CARTESIAN_POINT('',(20.,20.,0.));
#503=CARTESIAN_POINT('',(20.,15.9,0.));
#504=CARTESIAN_POINT('',(20.,20.,3.));
#505=CARTESIAN_POINT('',(20.,24.1,3.));
#506=CARTESIAN_POINT('',(-20.,-20.,3.));
#507=CARTESIAN_POINT('',(-20.,-20.,0.));
#508=CARTESIAN_POINT('',(-20.,-24.1,0.));
#509=CARTESIAN_POINT('',(-20.,-20.,3.));
#510=CARTESIAN_POINT('',(-20.,-15.9,3.));
#511=CARTESIAN_POINT('',(20.,-20.,3.));
#512=CARTESIAN_POINT('',(20.,-20.,0.));
#513=CARTESIAN_POINT('',(20.,-24.1,0.));
#514=CARTESIAN_POINT('',(20.,-20.,3.));
#515=CARTESIAN_POINT('',(20.,-15.9,3.));
#516=CARTESIAN_POINT('',(-20.,-60.,3.));
#517=CARTESIAN_POINT('',(-20.,-60.,0.));
#518=CARTESIAN_POINT('',(-20.,-64.1,0.));
#519=CARTESIAN_POINT('',(-20.,-60.,3.));
#520=CARTESIAN_POINT('',(-20.,-55.9,3.));
#521=CARTESIAN_POINT('',(20.,-60.,3.));
#522=CARTESIAN_POINT('',(20.,-60.,0.));
#523=CARTESIAN_POINT('',(20.,-64.1,0.));
#524=CARTESIAN_POINT('',(20.,-60.,3.));
#525=CARTESIAN_POINT('',(20.,-55.9,3.));
#526=CARTESIAN_POINT('',(37.,-77.,0.));
#527=CARTESIAN_POINT('',(37.,-77.,3.));
#528=CARTESIAN_POINT('',(40.,-77.,3.));
#529=CARTESIAN_POINT('',(37.,-80.,3.));
#530=CARTESIAN_POINT('',(37.,-80.,0.));
#531=CARTESIAN_POINT('',(37.,-80.,0.));
#532=CARTESIAN_POINT('',(37.,-77.,0.));
#533=CARTESIAN_POINT('',(40.,-77.,0.));
#534=CARTESIAN_POINT('',(40.,-77.,0.));
#535=CARTESIAN_POINT('',(-4.03717463500057E-16,0.,3.));
#536=CARTESIAN_POINT('',(40.,-80.,3.));
#537=CARTESIAN_POINT('',(40.,77.,3.));
#538=CARTESIAN_POINT('',(37.,77.,3.));
#539=CARTESIAN_POINT('',(37.,80.,3.));
#540=CARTESIAN_POINT('',(40.,80.,3.));
#541=CARTESIAN_POINT('',(-37.,80.,3.));
#542=CARTESIAN_POINT('',(-37.,77.,3.));
#543=CARTESIAN_POINT('',(-40.,77.,3.));
#544=CARTESIAN_POINT('',(-40.,80.,3.));
#545=CARTESIAN_POINT('',(-40.,-77.,3.));
#546=CARTESIAN_POINT('',(-37.,-77.,3.));
#547=CARTESIAN_POINT('',(-37.,-80.,3.));
#548=CARTESIAN_POINT('',(-40.,-80.,3.));
#549=CARTESIAN_POINT('',(40.,0.,0.));
#550=CARTESIAN_POINT('',(40.,-80.,0.));
#551=CARTESIAN_POINT('',(40.,77.,0.));
#552=CARTESIAN_POINT('',(40.,77.,0.));
#553=CARTESIAN_POINT('',(37.,77.,0.));
#554=CARTESIAN_POINT('',(37.,77.,0.));
#555=CARTESIAN_POINT('',(37.,80.,0.));
#556=CARTESIAN_POINT('',(37.,80.,0.));
#557=CARTESIAN_POINT('',(-37.,-77.,0.));
#558=CARTESIAN_POINT('',(-40.,-77.,0.));
#559=CARTESIAN_POINT('',(-40.,-77.,0.));
#560=CARTESIAN_POINT('',(-37.,-77.,0.));
#561=CARTESIAN_POINT('',(-37.,-80.,0.));
#562=CARTESIAN_POINT('',(-37.,-80.,0.));
#563=CARTESIAN_POINT('',(-40.,0.,0.));
#564=CARTESIAN_POINT('',(-40.,77.,0.));
#565=CARTESIAN_POINT('',(-40.,77.,0.));
#566=CARTESIAN_POINT('',(-40.,80.,0.));
#567=CARTESIAN_POINT('',(-37.,77.,0.));
#568=CARTESIAN_POINT('',(-37.,80.,0.));
#569=CARTESIAN_POINT('',(-37.,80.,0.));
#570=CARTESIAN_POINT('',(-37.,77.,0.));
#571=CARTESIAN_POINT('',(0.,80.,0.));
#572=CARTESIAN_POINT('',(40.,80.,0.));
#573=CARTESIAN_POINT('',(0.,-80.,0.));
#574=CARTESIAN_POINT('',(-40.,-80.,0.));
#575=CARTESIAN_POINT('',(-4.03717463500057E-16,0.,0.));
#576=CYLINDRICAL_SURFACE('',#350,4.1);
#577=CYLINDRICAL_SURFACE('',#353,4.1);
#578=CYLINDRICAL_SURFACE('',#356,4.1);
#579=CYLINDRICAL_SURFACE('',#359,4.1);
#580=CYLINDRICAL_SURFACE('',#362,4.1);
#581=CYLINDRICAL_SURFACE('',#365,4.1);
#582=CYLINDRICAL_SURFACE('',#368,4.1);
#583=CYLINDRICAL_SURFACE('',#371,4.1);
#584=CYLINDRICAL_SURFACE('',#374,3.);
#585=CYLINDRICAL_SURFACE('',#382,3.);
#586=CYLINDRICAL_SURFACE('',#384,3.);
#587=CYLINDRICAL_SURFACE('',#387,3.);
#588=CLOSED_SHELL('',(#332,#333,#334,#335,#336,#337,#338,#339,#340,#341,
#342,#343,#344,#345,#346,#347,#348,#349));
#589=MANIFOLD_SOLID_BREP('',#588);
#590=ADVANCED_BREP_SHAPE_REPRESENTATION('',(#589),#33);
ENDSEC;
END-ISO-10303-21;
