ISO-10303-21;
HEADER;

/* File generated by Alibre Version V23 */

FILE_DESCRIPTION(('HOOPS Exchange Step'),'2;1');

FILE_NAME('C:\\Users\\Gebruiker\\AppData\\Local\\Temp\\Alibre Design\\export-DB02B9CA-9CCC-4E17-A965-BC60933EF738.stp',
'2022-04-01T14:41:03+02:00',
('Gebruiker'),
('Alibre'),
'HOOPS Exchange 2021.0',
'Alibre',
'Unknown authorisation');

FILE_SCHEMA( ('AP242_MANAGED_MODEL_BASED_3D_ENGINEERING_MIM_LF {1 0 10303 442 1 1 4 }') );

ENDSEC;

DATA;
#3=(NAMED_UNIT(*)PLANE_ANGLE_UNIT()SI_UNIT($,.RADIAN.));
#4=PLANE_ANGLE_MEASURE_WITH_UNIT(PLANE_ANGLE_MEASURE(0.0174532925),#3);
#5=(CONVERSION_BASED_UNIT('DEGREE',#4)NAMED_UNIT(#6)PLANE_ANGLE_UNIT());
#6=DIMENSIONAL_EXPONENTS(0.,0.,0.,0.,0.,0.,0.);
#7=(NAMED_UNIT(*)SI_UNIT($,.STERADIAN.)SOLID_ANGLE_UNIT());
#8=(LENGTH_UNIT()NAMED_UNIT(*)SI_UNIT(.MILLI.,.METRE.));
#9=UNCERTAINTY_MEASURE_WITH_UNIT(LENGTH_MEASURE(1.000000E-06),#8,'DISTANCE_ACCURACY_VALUE','Maximum Tolerance applied to model');
#10=(GEOMETRIC_REPRESENTATION_CONTEXT(3)GLOBAL_UNCERTAINTY_ASSIGNED_CONTEXT((#9))GLOBAL_UNIT_ASSIGNED_CONTEXT((#8,#5,#7))REPRESENTATION_CONTEXT('','5886 DCNC 80x160x3mm bracket'));
#12=CARTESIAN_POINT('',(0.,0.,0.));
#13=DIRECTION('',(0.,0.,1.));
#14=DIRECTION('',(1.,0.,0.));
#15=AXIS2_PLACEMENT_3D('',#12,#13,#14);
#27=CARTESIAN_POINT('',(-20.,60.,3.));
#28=DIRECTION('',(0.,0.,-1.));
#29=DIRECTION('',(0.,1.,0.));
#30=AXIS2_PLACEMENT_3D('',#27,#28,#29);
#31=CYLINDRICAL_SURFACE('',#30,4.1);
#32=CARTESIAN_POINT('',(-20.,55.9,0.));
#33=VERTEX_POINT('',#32);
#34=CARTESIAN_POINT('',(-20.,55.9,3.));
#35=VERTEX_POINT('',#34);
#36=CARTESIAN_POINT('',(-20.,55.9,0.));
#37=DIRECTION('',(-0.,-0.,1.));
#38=VECTOR('',#37,3.);
#39=LINE('',#36,#38);
#40=EDGE_CURVE('',#33,#35,#39,.T.);
#41=ORIENTED_EDGE('',*,*,#40,.F.);
#42=CARTESIAN_POINT('',(-20.,60.,0.));
#43=DIRECTION('',(0.,-0.,1.));
#44=DIRECTION('',(0.,1.,0.));
#45=AXIS2_PLACEMENT_3D('',#42,#43,#44);
#46=CIRCLE('',#45,4.1);
#47=EDGE_CURVE('',#33,#33,#46,.T.);
#48=ORIENTED_EDGE('',*,*,#47,.F.);
#49=ORIENTED_EDGE('',*,*,#40,.T.);
#50=CARTESIAN_POINT('',(-20.,64.1,3.));
#51=VERTEX_POINT('',#50);
#52=CARTESIAN_POINT('',(-20.,60.,3.));
#53=DIRECTION('',(0.,0.,-1.));
#54=DIRECTION('',(0.,1.,0.));
#55=AXIS2_PLACEMENT_3D('',#52,#53,#54);
#56=CIRCLE('',#55,4.1);
#57=EDGE_CURVE('',#51,#35,#56,.T.);
#58=ORIENTED_EDGE('',*,*,#57,.F.);
#59=CARTESIAN_POINT('',(-20.,60.,3.));
#60=DIRECTION('',(0.,0.,-1.));
#61=DIRECTION('',(0.,1.,0.));
#62=AXIS2_PLACEMENT_3D('',#59,#60,#61);
#63=CIRCLE('',#62,4.1);
#64=EDGE_CURVE('',#35,#51,#63,.T.);
#65=ORIENTED_EDGE('',*,*,#64,.F.);
#66=EDGE_LOOP('',(#41,#48,#49,#58,#65));
#67=FACE_BOUND('',#66,.T.);
#68=ADVANCED_FACE('',(#67),#31,.F.);
#69=CARTESIAN_POINT('',(-20.,20.,3.));
#70=DIRECTION('',(0.,0.,-1.));
#71=DIRECTION('',(0.,1.,0.));
#72=AXIS2_PLACEMENT_3D('',#69,#70,#71);
#73=CYLINDRICAL_SURFACE('',#72,4.1);
#74=CARTESIAN_POINT('',(-20.,15.9,0.));
#75=VERTEX_POINT('',#74);
#76=CARTESIAN_POINT('',(-20.,15.9,3.));
#77=VERTEX_POINT('',#76);
#78=CARTESIAN_POINT('',(-20.,15.9,0.));
#79=DIRECTION('',(-0.,-0.,1.));
#80=VECTOR('',#79,3.);
#81=LINE('',#78,#80);
#82=EDGE_CURVE('',#75,#77,#81,.T.);
#83=ORIENTED_EDGE('',*,*,#82,.F.);
#84=CARTESIAN_POINT('',(-20.,20.,0.));
#85=DIRECTION('',(0.,-0.,1.));
#86=DIRECTION('',(0.,1.,0.));
#87=AXIS2_PLACEMENT_3D('',#84,#85,#86);
#88=CIRCLE('',#87,4.1);
#89=EDGE_CURVE('',#75,#75,#88,.T.);
#90=ORIENTED_EDGE('',*,*,#89,.F.);
#91=ORIENTED_EDGE('',*,*,#82,.T.);
#92=CARTESIAN_POINT('',(-20.,24.1,3.));
#93=VERTEX_POINT('',#92);
#94=CARTESIAN_POINT('',(-20.,20.,3.));
#95=DIRECTION('',(0.,0.,-1.));
#96=DIRECTION('',(0.,1.,0.));
#97=AXIS2_PLACEMENT_3D('',#94,#95,#96);
#98=CIRCLE('',#97,4.1);
#99=EDGE_CURVE('',#93,#77,#98,.T.);
#100=ORIENTED_EDGE('',*,*,#99,.F.);
#101=CARTESIAN_POINT('',(-20.,20.,3.));
#102=DIRECTION('',(0.,0.,-1.));
#103=DIRECTION('',(0.,1.,0.));
#104=AXIS2_PLACEMENT_3D('',#101,#102,#103);
#105=CIRCLE('',#104,4.1);
#106=EDGE_CURVE('',#77,#93,#105,.T.);
#107=ORIENTED_EDGE('',*,*,#106,.F.);
#108=EDGE_LOOP('',(#83,#90,#91,#100,#107));
#109=FACE_BOUND('',#108,.T.);
#110=ADVANCED_FACE('',(#109),#73,.F.);
#111=CARTESIAN_POINT('',(20.,60.,3.));
#112=DIRECTION('',(0.,0.,-1.));
#113=DIRECTION('',(0.,1.,0.));
#114=AXIS2_PLACEMENT_3D('',#111,#112,#113);
#115=CYLINDRICAL_SURFACE('',#114,4.1);
#116=CARTESIAN_POINT('',(20.,55.9,0.));
#117=VERTEX_POINT('',#116);
#118=CARTESIAN_POINT('',(20.,55.9,3.));
#119=VERTEX_POINT('',#118);
#120=CARTESIAN_POINT('',(20.,55.9,0.));
#121=DIRECTION('',(-0.,-0.,1.));
#122=VECTOR('',#121,3.);
#123=LINE('',#120,#122);
#124=EDGE_CURVE('',#117,#119,#123,.T.);
#125=ORIENTED_EDGE('',*,*,#124,.F.);
#126=CARTESIAN_POINT('',(20.,60.,0.));
#127=DIRECTION('',(0.,-0.,1.));
#128=DIRECTION('',(0.,1.,0.));
#129=AXIS2_PLACEMENT_3D('',#126,#127,#128);
#130=CIRCLE('',#129,4.1);
#131=EDGE_CURVE('',#117,#117,#130,.T.);
#132=ORIENTED_EDGE('',*,*,#131,.F.);
#133=ORIENTED_EDGE('',*,*,#124,.T.);
#134=CARTESIAN_POINT('',(20.,64.1,3.));
#135=VERTEX_POINT('',#134);
#136=CARTESIAN_POINT('',(20.,60.,3.));
#137=DIRECTION('',(0.,0.,-1.));
#138=DIRECTION('',(0.,1.,0.));
#139=AXIS2_PLACEMENT_3D('',#136,#137,#138);
#140=CIRCLE('',#139,4.1);
#141=EDGE_CURVE('',#135,#119,#140,.T.);
#142=ORIENTED_EDGE('',*,*,#141,.F.);
#143=CARTESIAN_POINT('',(20.,60.,3.));
#144=DIRECTION('',(0.,0.,-1.));
#145=DIRECTION('',(0.,1.,0.));
#146=AXIS2_PLACEMENT_3D('',#143,#144,#145);
#147=CIRCLE('',#146,4.1);
#148=EDGE_CURVE('',#119,#135,#147,.T.);
#149=ORIENTED_EDGE('',*,*,#148,.F.);
#150=EDGE_LOOP('',(#125,#132,#133,#142,#149));
#151=FACE_BOUND('',#150,.T.);
#152=ADVANCED_FACE('',(#151),#115,.F.);
#153=CARTESIAN_POINT('',(20.,20.,3.));
#154=DIRECTION('',(0.,0.,-1.));
#155=DIRECTION('',(0.,1.,0.));
#156=AXIS2_PLACEMENT_3D('',#153,#154,#155);
#157=CYLINDRICAL_SURFACE('',#156,4.1);
#158=CARTESIAN_POINT('',(20.,15.9,0.));
#159=VERTEX_POINT('',#158);
#160=CARTESIAN_POINT('',(20.,15.9,3.));
#161=VERTEX_POINT('',#160);
#162=CARTESIAN_POINT('',(20.,15.9,0.));
#163=DIRECTION('',(-0.,-0.,1.));
#164=VECTOR('',#163,3.);
#165=LINE('',#162,#164);
#166=EDGE_CURVE('',#159,#161,#165,.T.);
#167=ORIENTED_EDGE('',*,*,#166,.F.);
#168=CARTESIAN_POINT('',(20.,20.,0.));
#169=DIRECTION('',(0.,-0.,1.));
#170=DIRECTION('',(0.,1.,0.));
#171=AXIS2_PLACEMENT_3D('',#168,#169,#170);
#172=CIRCLE('',#171,4.1);
#173=EDGE_CURVE('',#159,#159,#172,.T.);
#174=ORIENTED_EDGE('',*,*,#173,.F.);
#175=ORIENTED_EDGE('',*,*,#166,.T.);
#176=CARTESIAN_POINT('',(20.,24.1,3.));
#177=VERTEX_POINT('',#176);
#178=CARTESIAN_POINT('',(20.,20.,3.));
#179=DIRECTION('',(0.,0.,-1.));
#180=DIRECTION('',(0.,1.,0.));
#181=AXIS2_PLACEMENT_3D('',#178,#179,#180);
#182=CIRCLE('',#181,4.1);
#183=EDGE_CURVE('',#177,#161,#182,.T.);
#184=ORIENTED_EDGE('',*,*,#183,.F.);
#185=CARTESIAN_POINT('',(20.,20.,3.));
#186=DIRECTION('',(0.,0.,-1.));
#187=DIRECTION('',(0.,1.,0.));
#188=AXIS2_PLACEMENT_3D('',#185,#186,#187);
#189=CIRCLE('',#188,4.1);
#190=EDGE_CURVE('',#161,#177,#189,.T.);
#191=ORIENTED_EDGE('',*,*,#190,.F.);
#192=EDGE_LOOP('',(#167,#174,#175,#184,#191));
#193=FACE_BOUND('',#192,.T.);
#194=ADVANCED_FACE('',(#193),#157,.F.);
#195=CARTESIAN_POINT('',(-20.,-20.,3.));
#196=DIRECTION('',(0.,0.,-1.));
#197=DIRECTION('',(0.,1.,0.));
#198=AXIS2_PLACEMENT_3D('',#195,#196,#197);
#199=CYLINDRICAL_SURFACE('',#198,4.1);
#200=CARTESIAN_POINT('',(-20.,-24.1,0.));
#201=VERTEX_POINT('',#200);
#202=CARTESIAN_POINT('',(-20.,-24.1,3.));
#203=VERTEX_POINT('',#202);
#204=CARTESIAN_POINT('',(-20.,-24.1,0.));
#205=DIRECTION('',(-0.,-0.,1.));
#206=VECTOR('',#205,3.);
#207=LINE('',#204,#206);
#208=EDGE_CURVE('',#201,#203,#207,.T.);
#209=ORIENTED_EDGE('',*,*,#208,.F.);
#210=CARTESIAN_POINT('',(-20.,-20.,0.));
#211=DIRECTION('',(0.,-0.,1.));
#212=DIRECTION('',(0.,1.,0.));
#213=AXIS2_PLACEMENT_3D('',#210,#211,#212);
#214=CIRCLE('',#213,4.1);
#215=EDGE_CURVE('',#201,#201,#214,.T.);
#216=ORIENTED_EDGE('',*,*,#215,.F.);
#217=ORIENTED_EDGE('',*,*,#208,.T.);
#218=CARTESIAN_POINT('',(-20.,-15.9,3.));
#219=VERTEX_POINT('',#218);
#220=CARTESIAN_POINT('',(-20.,-20.,3.));
#221=DIRECTION('',(0.,0.,-1.));
#222=DIRECTION('',(0.,1.,0.));
#223=AXIS2_PLACEMENT_3D('',#220,#221,#222);
#224=CIRCLE('',#223,4.1);
#225=EDGE_CURVE('',#219,#203,#224,.T.);
#226=ORIENTED_EDGE('',*,*,#225,.F.);
#227=CARTESIAN_POINT('',(-20.,-20.,3.));
#228=DIRECTION('',(0.,0.,-1.));
#229=DIRECTION('',(0.,1.,0.));
#230=AXIS2_PLACEMENT_3D('',#227,#228,#229);
#231=CIRCLE('',#230,4.1);
#232=EDGE_CURVE('',#203,#219,#231,.T.);
#233=ORIENTED_EDGE('',*,*,#232,.F.);
#234=EDGE_LOOP('',(#209,#216,#217,#226,#233));
#235=FACE_BOUND('',#234,.T.);
#236=ADVANCED_FACE('',(#235),#199,.F.);
#237=CARTESIAN_POINT('',(20.,-20.,3.));
#238=DIRECTION('',(0.,0.,-1.));
#239=DIRECTION('',(0.,1.,0.));
#240=AXIS2_PLACEMENT_3D('',#237,#238,#239);
#241=CYLINDRICAL_SURFACE('',#240,4.1);
#242=CARTESIAN_POINT('',(20.,-24.1,0.));
#243=VERTEX_POINT('',#242);
#244=CARTESIAN_POINT('',(20.,-24.1,3.));
#245=VERTEX_POINT('',#244);
#246=CARTESIAN_POINT('',(20.,-24.1,0.));
#247=DIRECTION('',(-0.,-0.,1.));
#248=VECTOR('',#247,3.);
#249=LINE('',#246,#248);
#250=EDGE_CURVE('',#243,#245,#249,.T.);
#251=ORIENTED_EDGE('',*,*,#250,.F.);
#252=CARTESIAN_POINT('',(20.,-20.,0.));
#253=DIRECTION('',(0.,-0.,1.));
#254=DIRECTION('',(0.,1.,0.));
#255=AXIS2_PLACEMENT_3D('',#252,#253,#254);
#256=CIRCLE('',#255,4.1);
#257=EDGE_CURVE('',#243,#243,#256,.T.);
#258=ORIENTED_EDGE('',*,*,#257,.F.);
#259=ORIENTED_EDGE('',*,*,#250,.T.);
#260=CARTESIAN_POINT('',(20.,-15.9,3.));
#261=VERTEX_POINT('',#260);
#262=CARTESIAN_POINT('',(20.,-20.,3.));
#263=DIRECTION('',(0.,0.,-1.));
#264=DIRECTION('',(0.,1.,0.));
#265=AXIS2_PLACEMENT_3D('',#262,#263,#264);
#266=CIRCLE('',#265,4.1);
#267=EDGE_CURVE('',#261,#245,#266,.T.);
#268=ORIENTED_EDGE('',*,*,#267,.F.);
#269=CARTESIAN_POINT('',(20.,-20.,3.));
#270=DIRECTION('',(0.,0.,-1.));
#271=DIRECTION('',(0.,1.,0.));
#272=AXIS2_PLACEMENT_3D('',#269,#270,#271);
#273=CIRCLE('',#272,4.1);
#274=EDGE_CURVE('',#245,#261,#273,.T.);
#275=ORIENTED_EDGE('',*,*,#274,.F.);
#276=EDGE_LOOP('',(#251,#258,#259,#268,#275));
#277=FACE_BOUND('',#276,.T.);
#278=ADVANCED_FACE('',(#277),#241,.F.);
#279=CARTESIAN_POINT('',(-20.,-60.,3.));
#280=DIRECTION('',(0.,0.,-1.));
#281=DIRECTION('',(0.,1.,0.));
#282=AXIS2_PLACEMENT_3D('',#279,#280,#281);
#283=CYLINDRICAL_SURFACE('',#282,4.1);
#284=CARTESIAN_POINT('',(-20.,-64.1,0.));
#285=VERTEX_POINT('',#284);
#286=CARTESIAN_POINT('',(-20.,-64.1,3.));
#287=VERTEX_POINT('',#286);
#288=CARTESIAN_POINT('',(-20.,-64.1,0.));
#289=DIRECTION('',(-0.,-0.,1.));
#290=VECTOR('',#289,3.);
#291=LINE('',#288,#290);
#292=EDGE_CURVE('',#285,#287,#291,.T.);
#293=ORIENTED_EDGE('',*,*,#292,.F.);
#294=CARTESIAN_POINT('',(-20.,-60.,0.));
#295=DIRECTION('',(0.,-0.,1.));
#296=DIRECTION('',(0.,1.,0.));
#297=AXIS2_PLACEMENT_3D('',#294,#295,#296);
#298=CIRCLE('',#297,4.1);
#299=EDGE_CURVE('',#285,#285,#298,.T.);
#300=ORIENTED_EDGE('',*,*,#299,.F.);
#301=ORIENTED_EDGE('',*,*,#292,.T.);
#302=CARTESIAN_POINT('',(-20.,-55.9,3.));
#303=VERTEX_POINT('',#302);
#304=CARTESIAN_POINT('',(-20.,-60.,3.));
#305=DIRECTION('',(0.,0.,-1.));
#306=DIRECTION('',(0.,1.,0.));
#307=AXIS2_PLACEMENT_3D('',#304,#305,#306);
#308=CIRCLE('',#307,4.1);
#309=EDGE_CURVE('',#303,#287,#308,.T.);
#310=ORIENTED_EDGE('',*,*,#309,.F.);
#311=CARTESIAN_POINT('',(-20.,-60.,3.));
#312=DIRECTION('',(0.,0.,-1.));
#313=DIRECTION('',(0.,1.,0.));
#314=AXIS2_PLACEMENT_3D('',#311,#312,#313);
#315=CIRCLE('',#314,4.1);
#316=EDGE_CURVE('',#287,#303,#315,.T.);
#317=ORIENTED_EDGE('',*,*,#316,.F.);
#318=EDGE_LOOP('',(#293,#300,#301,#310,#317));
#319=FACE_BOUND('',#318,.T.);
#320=ADVANCED_FACE('',(#319),#283,.F.);
#321=CARTESIAN_POINT('',(20.,-60.,3.));
#322=DIRECTION('',(0.,0.,-1.));
#323=DIRECTION('',(0.,1.,0.));
#324=AXIS2_PLACEMENT_3D('',#321,#322,#323);
#325=CYLINDRICAL_SURFACE('',#324,4.1);
#326=CARTESIAN_POINT('',(20.,-64.1,0.));
#327=VERTEX_POINT('',#326);
#328=CARTESIAN_POINT('',(20.,-64.1,3.));
#329=VERTEX_POINT('',#328);
#330=CARTESIAN_POINT('',(20.,-64.1,0.));
#331=DIRECTION('',(-0.,-0.,1.));
#332=VECTOR('',#331,3.);
#333=LINE('',#330,#332);
#334=EDGE_CURVE('',#327,#329,#333,.T.);
#335=ORIENTED_EDGE('',*,*,#334,.F.);
#336=CARTESIAN_POINT('',(20.,-60.,0.));
#337=DIRECTION('',(0.,-0.,1.));
#338=DIRECTION('',(0.,1.,0.));
#339=AXIS2_PLACEMENT_3D('',#336,#337,#338);
#340=CIRCLE('',#339,4.1);
#341=EDGE_CURVE('',#327,#327,#340,.T.);
#342=ORIENTED_EDGE('',*,*,#341,.F.);
#343=ORIENTED_EDGE('',*,*,#334,.T.);
#344=CARTESIAN_POINT('',(20.,-55.9,3.));
#345=VERTEX_POINT('',#344);
#346=CARTESIAN_POINT('',(20.,-60.,3.));
#347=DIRECTION('',(0.,0.,-1.));
#348=DIRECTION('',(0.,1.,0.));
#349=AXIS2_PLACEMENT_3D('',#346,#347,#348);
#350=CIRCLE('',#349,4.1);
#351=EDGE_CURVE('',#345,#329,#350,.T.);
#352=ORIENTED_EDGE('',*,*,#351,.F.);
#353=CARTESIAN_POINT('',(20.,-60.,3.));
#354=DIRECTION('',(0.,0.,-1.));
#355=DIRECTION('',(0.,1.,0.));
#356=AXIS2_PLACEMENT_3D('',#353,#354,#355);
#357=CIRCLE('',#356,4.1);
#358=EDGE_CURVE('',#329,#345,#357,.T.);
#359=ORIENTED_EDGE('',*,*,#358,.F.);
#360=EDGE_LOOP('',(#335,#342,#343,#352,#359));
#361=FACE_BOUND('',#360,.T.);
#362=ADVANCED_FACE('',(#361),#325,.F.);
#363=CARTESIAN_POINT('',(37.,-77.,0.));
#364=DIRECTION('',(0.,0.,1.));
#365=DIRECTION('',(0.707106781,-0.707106781,0.));
#366=AXIS2_PLACEMENT_3D('',#363,#364,#365);
#367=CYLINDRICAL_SURFACE('',#366,3.);
#368=CARTESIAN_POINT('',(40.,-77.,3.));
#369=VERTEX_POINT('',#368);
#370=CARTESIAN_POINT('',(37.,-80.,3.));
#371=VERTEX_POINT('',#370);
#372=CARTESIAN_POINT('',(37.,-77.,3.));
#373=DIRECTION('',(0.,0.,-1.));
#374=DIRECTION('',(0.707106781,-0.707106781,0.));
#375=AXIS2_PLACEMENT_3D('',#372,#373,#374);
#376=CIRCLE('',#375,3.);
#377=EDGE_CURVE('',#369,#371,#376,.T.);
#378=ORIENTED_EDGE('',*,*,#377,.T.);
#379=CARTESIAN_POINT('',(37.,-80.,0.));
#380=VERTEX_POINT('',#379);
#381=CARTESIAN_POINT('',(37.,-80.,30.));
#382=DIRECTION('',(0.,0.,-1.));
#383=VECTOR('',#382,30.);
#384=LINE('',#381,#383);
#385=EDGE_CURVE('',#371,#380,#384,.T.);
#386=ORIENTED_EDGE('',*,*,#385,.T.);
#387=CARTESIAN_POINT('',(40.,-77.,0.));
#388=VERTEX_POINT('',#387);
#389=CARTESIAN_POINT('',(37.,-77.,0.));
#390=DIRECTION('',(0.,0.,1.));
#391=DIRECTION('',(0.707106781,-0.707106781,0.));
#392=AXIS2_PLACEMENT_3D('',#389,#390,#391);
#393=CIRCLE('',#392,3.);
#394=EDGE_CURVE('',#380,#388,#393,.T.);
#395=ORIENTED_EDGE('',*,*,#394,.T.);
#396=CARTESIAN_POINT('',(40.,-77.,0.));
#397=DIRECTION('',(0.,0.,1.));
#398=VECTOR('',#397,30.);
#399=LINE('',#396,#398);
#400=EDGE_CURVE('',#388,#369,#399,.T.);
#401=ORIENTED_EDGE('',*,*,#400,.T.);
#402=EDGE_LOOP('',(#378,#386,#395,#401));
#403=FACE_BOUND('',#402,.T.);
#404=ADVANCED_FACE('',(#403),#367,.T.);
#405=CARTESIAN_POINT('',(-0.,0.,3.));
#406=DIRECTION('',(0.,0.,1.));
#407=DIRECTION('',(1.,0.,0.));
#408=AXIS2_PLACEMENT_3D('',#405,#406,#407);
#409=PLANE('',#408);
#410=ORIENTED_EDGE('',*,*,#57,.T.);
#411=ORIENTED_EDGE('',*,*,#64,.T.);
#412=EDGE_LOOP('',(#410,#411));
#413=FACE_BOUND('',#412,.T.);
#414=ORIENTED_EDGE('',*,*,#99,.T.);
#415=ORIENTED_EDGE('',*,*,#106,.T.);
#416=EDGE_LOOP('',(#414,#415));
#417=FACE_BOUND('',#416,.T.);
#418=ORIENTED_EDGE('',*,*,#141,.T.);
#419=ORIENTED_EDGE('',*,*,#148,.T.);
#420=EDGE_LOOP('',(#418,#419));
#421=FACE_BOUND('',#420,.T.);
#422=ORIENTED_EDGE('',*,*,#183,.T.);
#423=ORIENTED_EDGE('',*,*,#190,.T.);
#424=EDGE_LOOP('',(#422,#423));
#425=FACE_BOUND('',#424,.T.);
#426=ORIENTED_EDGE('',*,*,#225,.T.);
#427=ORIENTED_EDGE('',*,*,#232,.T.);
#428=EDGE_LOOP('',(#426,#427));
#429=FACE_BOUND('',#428,.T.);
#430=ORIENTED_EDGE('',*,*,#267,.T.);
#431=ORIENTED_EDGE('',*,*,#274,.T.);
#432=EDGE_LOOP('',(#430,#431));
#433=FACE_BOUND('',#432,.T.);
#434=ORIENTED_EDGE('',*,*,#309,.T.);
#435=ORIENTED_EDGE('',*,*,#316,.T.);
#436=EDGE_LOOP('',(#434,#435));
#437=FACE_BOUND('',#436,.T.);
#438=ORIENTED_EDGE('',*,*,#351,.T.);
#439=ORIENTED_EDGE('',*,*,#358,.T.);
#440=EDGE_LOOP('',(#438,#439));
#441=FACE_BOUND('',#440,.T.);
#442=ORIENTED_EDGE('',*,*,#377,.F.);
#443=CARTESIAN_POINT('',(40.,77.,3.));
#444=VERTEX_POINT('',#443);
#445=CARTESIAN_POINT('',(40.,1490.,3.));
#446=DIRECTION('',(0.,-1.,0.));
#447=VECTOR('',#446,1540.);
#448=LINE('',#445,#447);
#449=EDGE_CURVE('',#444,#369,#448,.T.);
#450=ORIENTED_EDGE('',*,*,#449,.F.);
#451=CARTESIAN_POINT('',(37.,80.,3.));
#452=VERTEX_POINT('',#451);
#453=CARTESIAN_POINT('',(37.,77.,3.));
#454=DIRECTION('',(0.,0.,-1.));
#455=DIRECTION('',(0.707106781,0.707106781,0.));
#456=AXIS2_PLACEMENT_3D('',#453,#454,#455);
#457=CIRCLE('',#456,3.);
#458=EDGE_CURVE('',#452,#444,#457,.T.);
#459=ORIENTED_EDGE('',*,*,#458,.F.);
#460=CARTESIAN_POINT('',(-37.,80.,3.));
#461=VERTEX_POINT('',#460);
#462=CARTESIAN_POINT('',(-730.,80.,3.));
#463=DIRECTION('',(1.,0.,-0.));
#464=VECTOR('',#463,740.);
#465=LINE('',#462,#464);
#466=EDGE_CURVE('',#461,#452,#465,.T.);
#467=ORIENTED_EDGE('',*,*,#466,.F.);
#468=CARTESIAN_POINT('',(-40.,77.,3.));
#469=VERTEX_POINT('',#468);
#470=CARTESIAN_POINT('',(-37.,77.,3.));
#471=DIRECTION('',(0.,0.,-1.));
#472=DIRECTION('',(-0.707106781,0.707106781,0.));
#473=AXIS2_PLACEMENT_3D('',#470,#471,#472);
#474=CIRCLE('',#473,3.);
#475=EDGE_CURVE('',#469,#461,#474,.T.);
#476=ORIENTED_EDGE('',*,*,#475,.F.);
#477=CARTESIAN_POINT('',(-40.,-77.,3.));
#478=VERTEX_POINT('',#477);
#479=CARTESIAN_POINT('',(-40.,-1490.,3.));
#480=DIRECTION('',(0.,1.,0.));
#481=VECTOR('',#480,1540.);
#482=LINE('',#479,#481);
#483=EDGE_CURVE('',#478,#469,#482,.T.);
#484=ORIENTED_EDGE('',*,*,#483,.F.);
#485=CARTESIAN_POINT('',(-37.,-80.,3.));
#486=VERTEX_POINT('',#485);
#487=CARTESIAN_POINT('',(-37.,-77.,3.));
#488=DIRECTION('',(-0.,0.,-1.));
#489=DIRECTION('',(-0.707106781,-0.707106781,0.));
#490=AXIS2_PLACEMENT_3D('',#487,#488,#489);
#491=CIRCLE('',#490,3.);
#492=EDGE_CURVE('',#486,#478,#491,.T.);
#493=ORIENTED_EDGE('',*,*,#492,.F.);
#494=CARTESIAN_POINT('',(730.,-80.,3.));
#495=DIRECTION('',(-1.,0.,0.));
#496=VECTOR('',#495,740.);
#497=LINE('',#494,#496);
#498=EDGE_CURVE('',#371,#486,#497,.T.);
#499=ORIENTED_EDGE('',*,*,#498,.F.);
#500=EDGE_LOOP('',(#442,#450,#459,#467,#476,#484,#493,#499));
#501=FACE_BOUND('',#500,.T.);
#502=ADVANCED_FACE('',(#413,#417,#421,#425,#429,#433,#437,#441,#501),#409,.T.);
#503=CARTESIAN_POINT('',(40.,0.,0.));
#504=DIRECTION('',(1.,0.,0.));
#505=DIRECTION('',(0.,1.,0.));
#506=AXIS2_PLACEMENT_3D('',#503,#504,#505);
#507=PLANE('',#506);
#508=ORIENTED_EDGE('',*,*,#400,.F.);
#509=CARTESIAN_POINT('',(40.,77.,0.));
#510=VERTEX_POINT('',#509);
#511=CARTESIAN_POINT('',(40.,-50.,0.));
#512=DIRECTION('',(0.,1.,0.));
#513=VECTOR('',#512,1540.);
#514=LINE('',#511,#513);
#515=EDGE_CURVE('',#388,#510,#514,.T.);
#516=ORIENTED_EDGE('',*,*,#515,.T.);
#517=CARTESIAN_POINT('',(40.,77.,30.));
#518=DIRECTION('',(0.,0.,-1.));
#519=VECTOR('',#518,30.);
#520=LINE('',#517,#519);
#521=EDGE_CURVE('',#444,#510,#520,.T.);
#522=ORIENTED_EDGE('',*,*,#521,.F.);
#523=ORIENTED_EDGE('',*,*,#449,.T.);
#524=EDGE_LOOP('',(#508,#516,#522,#523));
#525=FACE_BOUND('',#524,.T.);
#526=ADVANCED_FACE('',(#525),#507,.T.);
#527=CARTESIAN_POINT('',(37.,77.,0.));
#528=DIRECTION('',(0.,-0.,1.));
#529=DIRECTION('',(0.707106781,0.707106781,0.));
#530=AXIS2_PLACEMENT_3D('',#527,#528,#529);
#531=CYLINDRICAL_SURFACE('',#530,3.);
#532=ORIENTED_EDGE('',*,*,#458,.T.);
#533=ORIENTED_EDGE('',*,*,#521,.T.);
#534=CARTESIAN_POINT('',(37.,80.,0.));
#535=VERTEX_POINT('',#534);
#536=CARTESIAN_POINT('',(37.,77.,0.));
#537=DIRECTION('',(0.,-0.,1.));
#538=DIRECTION('',(0.707106781,0.707106781,0.));
#539=AXIS2_PLACEMENT_3D('',#536,#537,#538);
#540=CIRCLE('',#539,3.);
#541=EDGE_CURVE('',#510,#535,#540,.T.);
#542=ORIENTED_EDGE('',*,*,#541,.T.);
#543=CARTESIAN_POINT('',(37.,80.,0.));
#544=DIRECTION('',(0.,0.,1.));
#545=VECTOR('',#544,30.);
#546=LINE('',#543,#545);
#547=EDGE_CURVE('',#535,#452,#546,.T.);
#548=ORIENTED_EDGE('',*,*,#547,.T.);
#549=EDGE_LOOP('',(#532,#533,#542,#548));
#550=FACE_BOUND('',#549,.T.);
#551=ADVANCED_FACE('',(#550),#531,.T.);
#552=CARTESIAN_POINT('',(-37.,-77.,0.));
#553=DIRECTION('',(0.,0.,1.));
#554=DIRECTION('',(-0.707106781,-0.707106781,0.));
#555=AXIS2_PLACEMENT_3D('',#552,#553,#554);
#556=CYLINDRICAL_SURFACE('',#555,3.);
#557=ORIENTED_EDGE('',*,*,#492,.T.);
#558=CARTESIAN_POINT('',(-40.,-77.,0.));
#559=VERTEX_POINT('',#558);
#560=CARTESIAN_POINT('',(-40.,-77.,30.));
#561=DIRECTION('',(0.,0.,-1.));
#562=VECTOR('',#561,30.);
#563=LINE('',#560,#562);
#564=EDGE_CURVE('',#478,#559,#563,.T.);
#565=ORIENTED_EDGE('',*,*,#564,.T.);
#566=CARTESIAN_POINT('',(-37.,-80.,0.));
#567=VERTEX_POINT('',#566);
#568=CARTESIAN_POINT('',(-37.,-77.,0.));
#569=DIRECTION('',(0.,0.,1.));
#570=DIRECTION('',(-0.707106781,-0.707106781,0.));
#571=AXIS2_PLACEMENT_3D('',#568,#569,#570);
#572=CIRCLE('',#571,3.);
#573=EDGE_CURVE('',#559,#567,#572,.T.);
#574=ORIENTED_EDGE('',*,*,#573,.T.);
#575=CARTESIAN_POINT('',(-37.,-80.,0.));
#576=DIRECTION('',(0.,0.,1.));
#577=VECTOR('',#576,30.);
#578=LINE('',#575,#577);
#579=EDGE_CURVE('',#567,#486,#578,.T.);
#580=ORIENTED_EDGE('',*,*,#579,.T.);
#581=EDGE_LOOP('',(#557,#565,#574,#580));
#582=FACE_BOUND('',#581,.T.);
#583=ADVANCED_FACE('',(#582),#556,.T.);
#584=CARTESIAN_POINT('',(-40.,0.,0.));
#585=DIRECTION('',(-1.,0.,0.));
#586=DIRECTION('',(0.,-1.,0.));
#587=AXIS2_PLACEMENT_3D('',#584,#585,#586);
#588=PLANE('',#587);
#589=ORIENTED_EDGE('',*,*,#564,.F.);
#590=ORIENTED_EDGE('',*,*,#483,.T.);
#591=CARTESIAN_POINT('',(-40.,77.,0.));
#592=VERTEX_POINT('',#591);
#593=CARTESIAN_POINT('',(-40.,77.,0.));
#594=DIRECTION('',(0.,0.,1.));
#595=VECTOR('',#594,30.);
#596=LINE('',#593,#595);
#597=EDGE_CURVE('',#592,#469,#596,.T.);
#598=ORIENTED_EDGE('',*,*,#597,.F.);
#599=CARTESIAN_POINT('',(-40.,50.,0.));
#600=DIRECTION('',(0.,-1.,0.));
#601=VECTOR('',#600,1540.);
#602=LINE('',#599,#601);
#603=EDGE_CURVE('',#592,#559,#602,.T.);
#604=ORIENTED_EDGE('',*,*,#603,.T.);
#605=EDGE_LOOP('',(#589,#590,#598,#604));
#606=FACE_BOUND('',#605,.T.);
#607=ADVANCED_FACE('',(#606),#588,.T.);
#608=CARTESIAN_POINT('',(-37.,77.,0.));
#609=DIRECTION('',(0.,0.,1.));
#610=DIRECTION('',(-0.707106781,0.707106781,0.));
#611=AXIS2_PLACEMENT_3D('',#608,#609,#610);
#612=CYLINDRICAL_SURFACE('',#611,3.);
#613=ORIENTED_EDGE('',*,*,#475,.T.);
#614=CARTESIAN_POINT('',(-37.,80.,0.));
#615=VERTEX_POINT('',#614);
#616=CARTESIAN_POINT('',(-37.,80.,30.));
#617=DIRECTION('',(0.,0.,-1.));
#618=VECTOR('',#617,30.);
#619=LINE('',#616,#618);
#620=EDGE_CURVE('',#461,#615,#619,.T.);
#621=ORIENTED_EDGE('',*,*,#620,.T.);
#622=CARTESIAN_POINT('',(-37.,77.,0.));
#623=DIRECTION('',(0.,0.,1.));
#624=DIRECTION('',(-0.707106781,0.707106781,0.));
#625=AXIS2_PLACEMENT_3D('',#622,#623,#624);
#626=CIRCLE('',#625,3.);
#627=EDGE_CURVE('',#615,#592,#626,.T.);
#628=ORIENTED_EDGE('',*,*,#627,.T.);
#629=ORIENTED_EDGE('',*,*,#597,.T.);
#630=EDGE_LOOP('',(#613,#621,#628,#629));
#631=FACE_BOUND('',#630,.T.);
#632=ADVANCED_FACE('',(#631),#612,.T.);
#633=CARTESIAN_POINT('',(0.,80.,0.));
#634=DIRECTION('',(0.,1.,0.));
#635=DIRECTION('',(-1.,0.,0.));
#636=AXIS2_PLACEMENT_3D('',#633,#634,#635);
#637=PLANE('',#636);
#638=ORIENTED_EDGE('',*,*,#547,.F.);
#639=CARTESIAN_POINT('',(10.,80.,0.));
#640=DIRECTION('',(-1.,0.,0.));
#641=VECTOR('',#640,740.);
#642=LINE('',#639,#641);
#643=EDGE_CURVE('',#535,#615,#642,.T.);
#644=ORIENTED_EDGE('',*,*,#643,.T.);
#645=ORIENTED_EDGE('',*,*,#620,.F.);
#646=ORIENTED_EDGE('',*,*,#466,.T.);
#647=EDGE_LOOP('',(#638,#644,#645,#646));
#648=FACE_BOUND('',#647,.T.);
#649=ADVANCED_FACE('',(#648),#637,.T.);
#650=CARTESIAN_POINT('',(0.,-80.,0.));
#651=DIRECTION('',(0.,-1.,0.));
#652=DIRECTION('',(1.,0.,0.));
#653=AXIS2_PLACEMENT_3D('',#650,#651,#652);
#654=PLANE('',#653);
#655=ORIENTED_EDGE('',*,*,#385,.F.);
#656=ORIENTED_EDGE('',*,*,#498,.T.);
#657=ORIENTED_EDGE('',*,*,#579,.F.);
#658=CARTESIAN_POINT('',(-10.,-80.,0.));
#659=DIRECTION('',(1.,0.,-0.));
#660=VECTOR('',#659,740.);
#661=LINE('',#658,#660);
#662=EDGE_CURVE('',#567,#380,#661,.T.);
#663=ORIENTED_EDGE('',*,*,#662,.T.);
#664=EDGE_LOOP('',(#655,#656,#657,#663));
#665=FACE_BOUND('',#664,.T.);
#666=ADVANCED_FACE('',(#665),#654,.T.);
#667=CARTESIAN_POINT('',(-0.,0.,0.));
#668=DIRECTION('',(0.,0.,1.));
#669=DIRECTION('',(1.,0.,0.));
#670=AXIS2_PLACEMENT_3D('',#667,#668,#669);
#671=PLANE('',#670);
#672=ORIENTED_EDGE('',*,*,#47,.T.);
#673=EDGE_LOOP('',(#672));
#674=FACE_BOUND('',#673,.T.);
#675=ORIENTED_EDGE('',*,*,#89,.T.);
#676=EDGE_LOOP('',(#675));
#677=FACE_BOUND('',#676,.T.);
#678=ORIENTED_EDGE('',*,*,#131,.T.);
#679=EDGE_LOOP('',(#678));
#680=FACE_BOUND('',#679,.T.);
#681=ORIENTED_EDGE('',*,*,#173,.T.);
#682=EDGE_LOOP('',(#681));
#683=FACE_BOUND('',#682,.T.);
#684=ORIENTED_EDGE('',*,*,#215,.T.);
#685=EDGE_LOOP('',(#684));
#686=FACE_BOUND('',#685,.T.);
#687=ORIENTED_EDGE('',*,*,#257,.T.);
#688=EDGE_LOOP('',(#687));
#689=FACE_BOUND('',#688,.T.);
#690=ORIENTED_EDGE('',*,*,#299,.T.);
#691=EDGE_LOOP('',(#690));
#692=FACE_BOUND('',#691,.T.);
#693=ORIENTED_EDGE('',*,*,#341,.T.);
#694=EDGE_LOOP('',(#693));
#695=FACE_BOUND('',#694,.T.);
#696=ORIENTED_EDGE('',*,*,#394,.F.);
#697=ORIENTED_EDGE('',*,*,#662,.F.);
#698=ORIENTED_EDGE('',*,*,#573,.F.);
#699=ORIENTED_EDGE('',*,*,#603,.F.);
#700=ORIENTED_EDGE('',*,*,#627,.F.);
#701=ORIENTED_EDGE('',*,*,#643,.F.);
#702=ORIENTED_EDGE('',*,*,#541,.F.);
#703=ORIENTED_EDGE('',*,*,#515,.F.);
#704=EDGE_LOOP('',(#696,#697,#698,#699,#700,#701,#702,#703));
#705=FACE_BOUND('',#704,.T.);
#706=ADVANCED_FACE('',(#674,#677,#680,#683,#686,#689,#692,#695,#705),#671,.F.);
#707=CLOSED_SHELL('',(#68,#110,#152,#194,#236,#278,#320,#362,#404,#502,#526,#551,#583,#607,#632,#649,#666,#706));
#708=MANIFOLD_SOLID_BREP('alibrePartClosedBody',#707);
#709=COLOUR_RGB('',0.882352948,0.882352948,0.882352948);
#710=FILL_AREA_STYLE_COLOUR('',#709);
#711=FILL_AREA_STYLE('',(#710));
#712=SURFACE_STYLE_FILL_AREA(#711);
#713=SURFACE_SIDE_STYLE('',(#712));
#714=SURFACE_STYLE_USAGE(.BOTH.,#713);
#715=PRESENTATION_STYLE_ASSIGNMENT((#714));
#26=STYLED_ITEM('',(#715),#708);
#16=SHAPE_REPRESENTATION('5886 DCNC 80x160x3mm bracket',(#15),#10);
#17=ADVANCED_BREP_SHAPE_REPRESENTATION('5886 DCNC 80x160x3mm bracket',(#708),#10);
#723=SHAPE_REPRESENTATION_RELATIONSHIP('','',#16,#17);
#724=CARTESIAN_POINT('',(0.,0.,0.));
#725=DIRECTION('',(0.,0.,1.));
#726=DIRECTION('',(1.,0.,0.));
#727=AXIS2_PLACEMENT_3D('',#724,#725,#726);
#729=MAPPED_ITEM('',#728,#727);
#728=REPRESENTATION_MAP(#727,#16);
#730=APPLICATION_CONTEXT('Managed model based 3d engineering');
#731=APPLICATION_PROTOCOL_DEFINITION('international standard','ap242_managed_model_based_3d_engineering',2013,#730);
#732=PRODUCT_CONTEXT('',#730,'mechanical');
#733=PRODUCT_DEFINITION_CONTEXT('part definition',#730,'design');
#24=PRODUCT('5886 DCNC 80x160x3mm bracket','5886 DCNC 80x160x3mm bracket','',(#732));
#734=PRODUCT_RELATED_PRODUCT_CATEGORY('part','',(#24));
#735=PRODUCT_DEFINITION_FORMATION_WITH_SPECIFIED_SOURCE('','',#24,.NOT_KNOWN.);
#25=PRODUCT_DEFINITION('design','',#735,#733);
#23=PRODUCT_DEFINITION_SHAPE('','',#25);
#736=SHAPE_DEFINITION_REPRESENTATION(#23,#16);
#11=DRAUGHTING_MODEL('',(#729),#10);
#1=MECHANICAL_DESIGN_GEOMETRIC_PRESENTATION_REPRESENTATION('',(#26),#10);
ENDSEC;
END-ISO-10303-21;
