ISO-10303-21;
HEADER;

/* File generated by Alibre Version V23 */

FILE_DESCRIPTION(('HOOPS Exchange Step'),'2;1');

FILE_NAME('C:\\Users\\Gebruiker\\AppData\\Local\\Temp\\Alibre Design\\export-483209CA-1C27-4347-90D0-39BAE20C5BF1.stp',
'2022-04-09T14:31:24+02:00',
('Engineering'),
('Alibre'),
'HOOPS Exchange 2021.0',
'Alibre',
'Unknown authorisation');

FILE_SCHEMA( ('AP242_MANAGED_MODEL_BASED_3D_ENGINEERING_MIM_LF {1 0 10303 442 1 1 4 }') );

ENDSEC;

DATA;
#3=(NAMED_UNIT(*)PLANE_ANGLE_UNIT()SI_UNIT($,.RADIAN.));
#4=PLANE_ANGLE_MEASURE_WITH_UNIT(PLANE_ANGLE_MEASURE(0.0174532925),#3);
#5=(CONVERSION_BASED_UNIT('DEGREE',#4)NAMED_UNIT(#6)PLANE_ANGLE_UNIT());
#6=DIMENSIONAL_EXPONENTS(0.,0.,0.,0.,0.,0.,0.);
#7=(NAMED_UNIT(*)SI_UNIT($,.STERADIAN.)SOLID_ANGLE_UNIT());
#8=(LENGTH_UNIT()NAMED_UNIT(*)SI_UNIT(.MILLI.,.METRE.));
#9=UNCERTAINTY_MEASURE_WITH_UNIT(LENGTH_MEASURE(1.000000E-06),#8,'DISTANCE_ACCURACY_VALUE','Maximum Tolerance applied to model');
#10=(GEOMETRIC_REPRESENTATION_CONTEXT(3)GLOBAL_UNCERTAINTY_ASSIGNED_CONTEXT((#9))GLOBAL_UNIT_ASSIGNED_CONTEXT((#8,#5,#7))REPRESENTATION_CONTEXT('','5889 Eaton Moeller Pushbutton 22mm Clear Shield Arrow (M22-XDL-W-X7)(218305)'));
#12=CARTESIAN_POINT('',(0.,0.,0.));
#13=DIRECTION('',(0.,0.,1.));
#14=DIRECTION('',(1.,0.,0.));
#15=AXIS2_PLACEMENT_3D('',#12,#13,#14);
#27=CARTESIAN_POINT('',(0.,0.,58.5));
#28=DIRECTION('',(0.,0.,1.));
#29=DIRECTION('',(1.,0.,-0.));
#30=AXIS2_PLACEMENT_3D('',#27,#28,#29);
#31=SPHERICAL_SURFACE('',#30,57.);
#32=CARTESIAN_POINT('',(-0.,-0.,1.5));
#33=VERTEX_POINT('',#32);
#34=CARTESIAN_POINT('',(10.630145813,-0.,2.5));
#35=VERTEX_POINT('',#34);
#36=CARTESIAN_POINT('',(0.,0.,58.5));
#37=DIRECTION('',(-0.,-1.,0.));
#38=DIRECTION('',(-0.,0.,-1.));
#39=AXIS2_PLACEMENT_3D('',#36,#37,#38);
#40=CIRCLE('',#39,57.);
#41=EDGE_CURVE('',#33,#35,#40,.T.);
#42=ORIENTED_EDGE('',*,*,#41,.F.);
#43=CARTESIAN_POINT('',(-10.630145813,0.,2.5));
#44=VERTEX_POINT('',#43);
#45=CARTESIAN_POINT('',(0.,0.,58.5));
#46=DIRECTION('',(-0.,-1.,0.));
#47=DIRECTION('',(-0.,0.,-1.));
#48=AXIS2_PLACEMENT_3D('',#45,#46,#47);
#49=CIRCLE('',#48,57.);
#50=EDGE_CURVE('',#44,#33,#49,.T.);
#51=ORIENTED_EDGE('',*,*,#50,.F.);
#52=CARTESIAN_POINT('',(0.,0.,2.5));
#53=DIRECTION('',(0.,0.,1.));
#54=DIRECTION('',(-0.,1.,0.));
#55=AXIS2_PLACEMENT_3D('',#52,#53,#54);
#56=CIRCLE('',#55,10.630145813);
#57=EDGE_CURVE('',#44,#35,#56,.T.);
#58=ORIENTED_EDGE('',*,*,#57,.T.);
#59=EDGE_LOOP('',(#42,#51,#58));
#60=FACE_BOUND('',#59,.T.);
#61=ADVANCED_FACE('',(#60),#31,.F.);
#62=CARTESIAN_POINT('',(0.,0.,1.25));
#63=DIRECTION('',(0.,0.,-1.));
#64=DIRECTION('',(-0.,1.,0.));
#65=AXIS2_PLACEMENT_3D('',#62,#63,#64);
#66=CYLINDRICAL_SURFACE('',#65,11.2);
#67=CARTESIAN_POINT('',(-0.,11.2,0.));
#68=VERTEX_POINT('',#67);
#69=CARTESIAN_POINT('',(-0.,11.2,2.5));
#70=VERTEX_POINT('',#69);
#71=CARTESIAN_POINT('',(-0.,11.2,0.));
#72=DIRECTION('',(0.,0.,1.));
#73=VECTOR('',#72,2.5);
#74=LINE('',#71,#73);
#75=EDGE_CURVE('',#68,#70,#74,.T.);
#76=ORIENTED_EDGE('',*,*,#75,.F.);
#77=CARTESIAN_POINT('',(0.,-11.2,0.));
#78=VERTEX_POINT('',#77);
#79=CARTESIAN_POINT('',(0.,0.,0.));
#80=DIRECTION('',(0.,0.,1.));
#81=DIRECTION('',(-0.,1.,0.));
#82=AXIS2_PLACEMENT_3D('',#79,#80,#81);
#83=CIRCLE('',#82,11.2);
#84=EDGE_CURVE('',#68,#78,#83,.T.);
#85=ORIENTED_EDGE('',*,*,#84,.T.);
#86=CARTESIAN_POINT('',(0.,-11.2,2.5));
#87=VERTEX_POINT('',#86);
#88=CARTESIAN_POINT('',(0.,-11.2,2.5));
#89=DIRECTION('',(0.,0.,-1.));
#90=VECTOR('',#89,2.5);
#91=LINE('',#88,#90);
#92=EDGE_CURVE('',#87,#78,#91,.T.);
#93=ORIENTED_EDGE('',*,*,#92,.F.);
#94=CARTESIAN_POINT('',(0.,0.,2.5));
#95=DIRECTION('',(0.,0.,1.));
#96=DIRECTION('',(-0.,1.,0.));
#97=AXIS2_PLACEMENT_3D('',#94,#95,#96);
#98=CIRCLE('',#97,11.2);
#99=EDGE_CURVE('',#70,#87,#98,.T.);
#100=ORIENTED_EDGE('',*,*,#99,.F.);
#101=EDGE_LOOP('',(#76,#85,#93,#100));
#102=FACE_BOUND('',#101,.T.);
#103=ADVANCED_FACE('',(#102),#66,.T.);
#104=CARTESIAN_POINT('',(0.,0.,0.895605348));
#105=DIRECTION('',(0.,0.,-1.));
#106=DIRECTION('',(-0.,1.,0.));
#107=AXIS2_PLACEMENT_3D('',#104,#105,#106);
#108=CYLINDRICAL_SURFACE('',#107,10.35);
#109=CARTESIAN_POINT('',(-0.,10.35,0.));
#110=VERTEX_POINT('',#109);
#111=CARTESIAN_POINT('',(-0.,10.35,1.791210695));
#112=VERTEX_POINT('',#111);
#113=CARTESIAN_POINT('',(-0.,10.35,0.));
#114=DIRECTION('',(0.,0.,1.));
#115=VECTOR('',#114,1.791210695);
#116=LINE('',#113,#115);
#117=EDGE_CURVE('',#110,#112,#116,.T.);
#118=ORIENTED_EDGE('',*,*,#117,.F.);
#119=CARTESIAN_POINT('',(0.,-10.35,0.));
#120=VERTEX_POINT('',#119);
#121=CARTESIAN_POINT('',(0.,0.,0.));
#122=DIRECTION('',(0.,0.,1.));
#123=DIRECTION('',(-0.,1.,0.));
#124=AXIS2_PLACEMENT_3D('',#121,#122,#123);
#125=CIRCLE('',#124,10.35);
#126=EDGE_CURVE('',#120,#110,#125,.T.);
#127=ORIENTED_EDGE('',*,*,#126,.F.);
#128=CARTESIAN_POINT('',(0.,-10.35,1.791210695));
#129=VERTEX_POINT('',#128);
#130=CARTESIAN_POINT('',(0.,-10.35,1.791210695));
#131=DIRECTION('',(0.,0.,-1.));
#132=VECTOR('',#131,1.791210695);
#133=LINE('',#130,#132);
#134=EDGE_CURVE('',#129,#120,#133,.T.);
#135=ORIENTED_EDGE('',*,*,#134,.F.);
#136=CARTESIAN_POINT('',(0.,0.,1.791210695));
#137=DIRECTION('',(0.,0.,1.));
#138=DIRECTION('',(-0.,1.,0.));
#139=AXIS2_PLACEMENT_3D('',#136,#137,#138);
#140=CIRCLE('',#139,10.35);
#141=EDGE_CURVE('',#129,#112,#140,.T.);
#142=ORIENTED_EDGE('',*,*,#141,.T.);
#143=EDGE_LOOP('',(#118,#127,#135,#142));
#144=FACE_BOUND('',#143,.T.);
#145=ADVANCED_FACE('',(#144),#108,.F.);
#146=CARTESIAN_POINT('',(0.,0.,1.688395749));
#147=DIRECTION('',(0.,0.,1.));
#148=DIRECTION('',(-0.,1.,0.));
#149=AXIS2_PLACEMENT_3D('',#146,#147,#148);
#150=CONICAL_SURFACE('',#149,9.766907465,80.);
#151=CARTESIAN_POINT('',(-0.,9.183814931,1.585580803));
#152=VERTEX_POINT('',#151);
#153=CARTESIAN_POINT('',(-0.,9.183814931,1.585580803));
#154=DIRECTION('',(-0.,0.984807753,0.173648178));
#155=VECTOR('',#154,1.184175354);
#156=LINE('',#153,#155);
#157=EDGE_CURVE('',#152,#112,#156,.T.);
#158=ORIENTED_EDGE('',*,*,#157,.F.);
#159=CARTESIAN_POINT('',(-9.183814931,-0.,1.585580803));
#160=VERTEX_POINT('',#159);
#161=CARTESIAN_POINT('',(0.,0.,1.585580803));
#162=DIRECTION('',(0.,0.,1.));
#163=DIRECTION('',(-0.,1.,0.));
#164=AXIS2_PLACEMENT_3D('',#161,#162,#163);
#165=CIRCLE('',#164,9.183814931);
#166=EDGE_CURVE('',#152,#160,#165,.T.);
#167=ORIENTED_EDGE('',*,*,#166,.T.);
#168=CARTESIAN_POINT('',(-0.,-9.183814931,1.585580803));
#169=VERTEX_POINT('',#168);
#170=CARTESIAN_POINT('',(0.,0.,1.585580803));
#171=DIRECTION('',(0.,0.,1.));
#172=DIRECTION('',(-0.,1.,0.));
#173=AXIS2_PLACEMENT_3D('',#170,#171,#172);
#174=CIRCLE('',#173,9.183814931);
#175=EDGE_CURVE('',#160,#169,#174,.T.);
#176=ORIENTED_EDGE('',*,*,#175,.T.);
#177=CARTESIAN_POINT('',(0.,-10.35,1.791210695));
#178=DIRECTION('',(-0.,0.984807753,-0.173648178));
#179=VECTOR('',#178,1.184175354);
#180=LINE('',#177,#179);
#181=EDGE_CURVE('',#129,#169,#180,.T.);
#182=ORIENTED_EDGE('',*,*,#181,.F.);
#183=CARTESIAN_POINT('',(0.,0.,1.791210695));
#184=DIRECTION('',(0.,0.,1.));
#185=DIRECTION('',(-0.,1.,0.));
#186=AXIS2_PLACEMENT_3D('',#183,#184,#185);
#187=CIRCLE('',#186,10.35);
#188=EDGE_CURVE('',#112,#129,#187,.T.);
#189=ORIENTED_EDGE('',*,*,#188,.F.);
#190=EDGE_LOOP('',(#158,#167,#176,#182,#189));
#191=FACE_BOUND('',#190,.T.);
#192=ADVANCED_FACE('',(#191),#150,.T.);
#193=CARTESIAN_POINT('',(0.,0.,0.60077305));
#194=DIRECTION('',(0.,0.,1.));
#195=DIRECTION('',(1.,0.,-0.));
#196=AXIS2_PLACEMENT_3D('',#193,#194,#195);
#197=TOROIDAL_SURFACE('',#196,9.357463108,1.);
#198=CARTESIAN_POINT('',(-8.802569257,0.,1.432694208));
#199=VERTEX_POINT('',#198);
#200=CARTESIAN_POINT('',(-9.357463108,0.,0.60077305));
#201=DIRECTION('',(-0.,-1.,0.));
#202=DIRECTION('',(-1.,0.,0.));
#203=AXIS2_PLACEMENT_3D('',#200,#201,#202);
#204=CIRCLE('',#203,1.);
#205=EDGE_CURVE('',#199,#160,#204,.T.);
#206=ORIENTED_EDGE('',*,*,#205,.F.);
#207=CARTESIAN_POINT('',(8.802569257,-0.,1.432694208));
#208=VERTEX_POINT('',#207);
#209=CARTESIAN_POINT('',(0.,0.,1.432694208));
#210=DIRECTION('',(0.,0.,1.));
#211=DIRECTION('',(-0.,1.,0.));
#212=AXIS2_PLACEMENT_3D('',#209,#210,#211);
#213=CIRCLE('',#212,8.802569257);
#214=EDGE_CURVE('',#199,#208,#213,.T.);
#215=ORIENTED_EDGE('',*,*,#214,.T.);
#216=CARTESIAN_POINT('',(9.183814931,-0.,1.585580803));
#217=VERTEX_POINT('',#216);
#218=CARTESIAN_POINT('',(9.357463108,-0.,0.60077305));
#219=DIRECTION('',(-0.,-1.,0.));
#220=DIRECTION('',(1.,-0.,0.));
#221=AXIS2_PLACEMENT_3D('',#218,#219,#220);
#222=CIRCLE('',#221,1.);
#223=EDGE_CURVE('',#217,#208,#222,.T.);
#224=ORIENTED_EDGE('',*,*,#223,.F.);
#225=CARTESIAN_POINT('',(0.,0.,1.585580803));
#226=DIRECTION('',(0.,0.,1.));
#227=DIRECTION('',(-0.,1.,0.));
#228=AXIS2_PLACEMENT_3D('',#225,#226,#227);
#229=CIRCLE('',#228,9.183814931);
#230=EDGE_CURVE('',#169,#217,#229,.T.);
#231=ORIENTED_EDGE('',*,*,#230,.F.);
#232=ORIENTED_EDGE('',*,*,#175,.F.);
#233=EDGE_LOOP('',(#206,#215,#224,#231,#232));
#234=FACE_BOUND('',#233,.T.);
#235=ADVANCED_FACE('',(#234),#197,.F.);
#236=CARTESIAN_POINT('',(0.,0.,5.5923));
#237=DIRECTION('',(0.,0.,1.));
#238=DIRECTION('',(1.,0.,-0.));
#239=AXIS2_PLACEMENT_3D('',#236,#237,#238);
#240=TOROIDAL_SURFACE('',#239,6.0281,5.);
#241=CARTESIAN_POINT('',(6.589516143,-0.,0.623918783));
#242=VERTEX_POINT('',#241);
#243=CARTESIAN_POINT('',(6.0281,-0.,5.5923));
#244=DIRECTION('',(-0.,-1.,0.));
#245=DIRECTION('',(1.,-0.,0.));
#246=AXIS2_PLACEMENT_3D('',#243,#244,#245);
#247=CIRCLE('',#246,5.);
#248=EDGE_CURVE('',#242,#208,#247,.T.);
#249=ORIENTED_EDGE('',*,*,#248,.F.);
#250=CARTESIAN_POINT('',(0.,6.589516143,0.623918783));
#251=VERTEX_POINT('',#250);
#252=CARTESIAN_POINT('',(0.,0.,0.623918783));
#253=DIRECTION('',(0.,0.,1.));
#254=DIRECTION('',(-0.,1.,0.));
#255=AXIS2_PLACEMENT_3D('',#252,#253,#254);
#256=CIRCLE('',#255,6.589516143);
#257=EDGE_CURVE('',#242,#251,#256,.T.);
#258=ORIENTED_EDGE('',*,*,#257,.T.);
#259=CARTESIAN_POINT('',(-6.589516143,-0.,0.623918783));
#260=VERTEX_POINT('',#259);
#261=CARTESIAN_POINT('',(0.,0.,0.623918783));
#262=DIRECTION('',(0.,0.,1.));
#263=DIRECTION('',(-0.,1.,0.));
#264=AXIS2_PLACEMENT_3D('',#261,#262,#263);
#265=CIRCLE('',#264,6.589516143);
#266=EDGE_CURVE('',#251,#260,#265,.T.);
#267=ORIENTED_EDGE('',*,*,#266,.T.);
#268=CARTESIAN_POINT('',(-6.0281,0.,5.5923));
#269=DIRECTION('',(-0.,-1.,0.));
#270=DIRECTION('',(-1.,0.,0.));
#271=AXIS2_PLACEMENT_3D('',#268,#269,#270);
#272=CIRCLE('',#271,5.);
#273=EDGE_CURVE('',#199,#260,#272,.T.);
#274=ORIENTED_EDGE('',*,*,#273,.F.);
#275=CARTESIAN_POINT('',(-0.,8.802569257,1.432694208));
#276=VERTEX_POINT('',#275);
#277=CARTESIAN_POINT('',(0.,0.,1.432694208));
#278=DIRECTION('',(0.,0.,1.));
#279=DIRECTION('',(-0.,1.,0.));
#280=AXIS2_PLACEMENT_3D('',#277,#278,#279);
#281=CIRCLE('',#280,8.802569257);
#282=EDGE_CURVE('',#276,#199,#281,.T.);
#283=ORIENTED_EDGE('',*,*,#282,.F.);
#284=CARTESIAN_POINT('',(0.,0.,1.432694208));
#285=DIRECTION('',(0.,0.,1.));
#286=DIRECTION('',(-0.,1.,0.));
#287=AXIS2_PLACEMENT_3D('',#284,#285,#286);
#288=CIRCLE('',#287,8.802569257);
#289=EDGE_CURVE('',#208,#276,#288,.T.);
#290=ORIENTED_EDGE('',*,*,#289,.F.);
#291=EDGE_LOOP('',(#249,#258,#267,#274,#283,#290));
#292=FACE_BOUND('',#291,.T.);
#293=ADVANCED_FACE('',(#292),#240,.T.);
#294=CARTESIAN_POINT('',(0.,0.,58.5));
#295=DIRECTION('',(0.,0.,1.));
#296=DIRECTION('',(1.,0.,-0.));
#297=AXIS2_PLACEMENT_3D('',#294,#295,#296);
#298=SPHERICAL_SURFACE('',#297,58.25);
#299=CARTESIAN_POINT('',(-0.,0.,0.25));
#300=VERTEX_POINT('',#299);
#301=CARTESIAN_POINT('',(0.,0.,58.5));
#302=DIRECTION('',(-0.,-1.,0.));
#303=DIRECTION('',(0.,0.,1.));
#304=AXIS2_PLACEMENT_3D('',#301,#302,#303);
#305=CIRCLE('',#304,58.25);
#306=EDGE_CURVE('',#260,#300,#305,.T.);
#307=ORIENTED_EDGE('',*,*,#306,.T.);
#308=CARTESIAN_POINT('',(0.,0.,58.5));
#309=DIRECTION('',(-0.,-1.,0.));
#310=DIRECTION('',(0.,0.,1.));
#311=AXIS2_PLACEMENT_3D('',#308,#309,#310);
#312=CIRCLE('',#311,58.25);
#313=EDGE_CURVE('',#300,#242,#312,.T.);
#314=ORIENTED_EDGE('',*,*,#313,.T.);
#315=CARTESIAN_POINT('',(0.,0.,0.623918783));
#316=DIRECTION('',(0.,0.,1.));
#317=DIRECTION('',(-0.,1.,0.));
#318=AXIS2_PLACEMENT_3D('',#315,#316,#317);
#319=CIRCLE('',#318,6.589516143);
#320=EDGE_CURVE('',#260,#242,#319,.T.);
#321=ORIENTED_EDGE('',*,*,#320,.F.);
#322=EDGE_LOOP('',(#307,#314,#321));
#323=FACE_BOUND('',#322,.T.);
#324=ADVANCED_FACE('',(#323),#298,.T.);
#325=CARTESIAN_POINT('',(0.,0.,58.5));
#326=DIRECTION('',(0.,0.,1.));
#327=DIRECTION('',(1.,0.,-0.));
#328=AXIS2_PLACEMENT_3D('',#325,#326,#327);
#329=SPHERICAL_SURFACE('',#328,58.25);
#330=ORIENTED_EDGE('',*,*,#306,.F.);
#331=ORIENTED_EDGE('',*,*,#266,.F.);
#332=ORIENTED_EDGE('',*,*,#257,.F.);
#333=ORIENTED_EDGE('',*,*,#313,.F.);
#334=EDGE_LOOP('',(#330,#331,#332,#333));
#335=FACE_BOUND('',#334,.T.);
#336=ADVANCED_FACE('',(#335),#329,.T.);
#337=CARTESIAN_POINT('',(0.,0.,5.5923));
#338=DIRECTION('',(0.,0.,1.));
#339=DIRECTION('',(1.,0.,-0.));
#340=AXIS2_PLACEMENT_3D('',#337,#338,#339);
#341=TOROIDAL_SURFACE('',#340,6.0281,5.);
#342=ORIENTED_EDGE('',*,*,#248,.T.);
#343=ORIENTED_EDGE('',*,*,#214,.F.);
#344=ORIENTED_EDGE('',*,*,#273,.T.);
#345=ORIENTED_EDGE('',*,*,#320,.T.);
#346=EDGE_LOOP('',(#342,#343,#344,#345));
#347=FACE_BOUND('',#346,.T.);
#348=ADVANCED_FACE('',(#347),#341,.T.);
#349=CARTESIAN_POINT('',(0.,0.,0.60077305));
#350=DIRECTION('',(0.,0.,1.));
#351=DIRECTION('',(1.,0.,-0.));
#352=AXIS2_PLACEMENT_3D('',#349,#350,#351);
#353=TOROIDAL_SURFACE('',#352,9.357463108,1.);
#354=ORIENTED_EDGE('',*,*,#205,.T.);
#355=ORIENTED_EDGE('',*,*,#166,.F.);
#356=CARTESIAN_POINT('',(0.,0.,1.585580803));
#357=DIRECTION('',(0.,0.,1.));
#358=DIRECTION('',(-0.,1.,0.));
#359=AXIS2_PLACEMENT_3D('',#356,#357,#358);
#360=CIRCLE('',#359,9.183814931);
#361=EDGE_CURVE('',#217,#152,#360,.T.);
#362=ORIENTED_EDGE('',*,*,#361,.F.);
#363=ORIENTED_EDGE('',*,*,#223,.T.);
#364=ORIENTED_EDGE('',*,*,#289,.T.);
#365=ORIENTED_EDGE('',*,*,#282,.T.);
#366=EDGE_LOOP('',(#354,#355,#362,#363,#364,#365));
#367=FACE_BOUND('',#366,.T.);
#368=ADVANCED_FACE('',(#367),#353,.F.);
#369=CARTESIAN_POINT('',(0.,0.,1.688395749));
#370=DIRECTION('',(0.,0.,1.));
#371=DIRECTION('',(-0.,1.,0.));
#372=AXIS2_PLACEMENT_3D('',#369,#370,#371);
#373=CONICAL_SURFACE('',#372,9.766907465,80.);
#374=ORIENTED_EDGE('',*,*,#157,.T.);
#375=ORIENTED_EDGE('',*,*,#141,.F.);
#376=ORIENTED_EDGE('',*,*,#181,.T.);
#377=ORIENTED_EDGE('',*,*,#230,.T.);
#378=ORIENTED_EDGE('',*,*,#361,.T.);
#379=EDGE_LOOP('',(#374,#375,#376,#377,#378));
#380=FACE_BOUND('',#379,.T.);
#381=ADVANCED_FACE('',(#380),#373,.T.);
#382=CARTESIAN_POINT('',(0.,0.,0.895605348));
#383=DIRECTION('',(0.,0.,-1.));
#384=DIRECTION('',(-0.,1.,0.));
#385=AXIS2_PLACEMENT_3D('',#382,#383,#384);
#386=CYLINDRICAL_SURFACE('',#385,10.35);
#387=ORIENTED_EDGE('',*,*,#117,.T.);
#388=ORIENTED_EDGE('',*,*,#188,.T.);
#389=ORIENTED_EDGE('',*,*,#134,.T.);
#390=CARTESIAN_POINT('',(0.,0.,0.));
#391=DIRECTION('',(0.,0.,1.));
#392=DIRECTION('',(-0.,1.,0.));
#393=AXIS2_PLACEMENT_3D('',#390,#391,#392);
#394=CIRCLE('',#393,10.35);
#395=EDGE_CURVE('',#110,#120,#394,.T.);
#396=ORIENTED_EDGE('',*,*,#395,.F.);
#397=EDGE_LOOP('',(#387,#388,#389,#396));
#398=FACE_BOUND('',#397,.T.);
#399=ADVANCED_FACE('',(#398),#386,.F.);
#400=CARTESIAN_POINT('',(-0.,10.775,0.));
#401=DIRECTION('',(0.,0.,-1.));
#402=DIRECTION('',(0.,-1.,0.));
#403=AXIS2_PLACEMENT_3D('',#400,#401,#402);
#404=PLANE('',#403);
#405=ORIENTED_EDGE('',*,*,#84,.F.);
#406=CARTESIAN_POINT('',(0.,0.,0.));
#407=DIRECTION('',(0.,0.,1.));
#408=DIRECTION('',(-0.,1.,0.));
#409=AXIS2_PLACEMENT_3D('',#406,#407,#408);
#410=CIRCLE('',#409,11.2);
#411=EDGE_CURVE('',#78,#68,#410,.T.);
#412=ORIENTED_EDGE('',*,*,#411,.F.);
#413=EDGE_LOOP('',(#405,#412));
#414=FACE_BOUND('',#413,.T.);
#415=ORIENTED_EDGE('',*,*,#395,.T.);
#416=ORIENTED_EDGE('',*,*,#126,.T.);
#417=EDGE_LOOP('',(#415,#416));
#418=FACE_BOUND('',#417,.T.);
#419=ADVANCED_FACE('',(#414,#418),#404,.T.);
#420=CARTESIAN_POINT('',(0.,0.,1.25));
#421=DIRECTION('',(0.,0.,-1.));
#422=DIRECTION('',(-0.,1.,0.));
#423=AXIS2_PLACEMENT_3D('',#420,#421,#422);
#424=CYLINDRICAL_SURFACE('',#423,11.2);
#425=ORIENTED_EDGE('',*,*,#75,.T.);
#426=CARTESIAN_POINT('',(0.,0.,2.5));
#427=DIRECTION('',(0.,0.,1.));
#428=DIRECTION('',(-0.,1.,0.));
#429=AXIS2_PLACEMENT_3D('',#426,#427,#428);
#430=CIRCLE('',#429,11.2);
#431=EDGE_CURVE('',#87,#70,#430,.T.);
#432=ORIENTED_EDGE('',*,*,#431,.F.);
#433=ORIENTED_EDGE('',*,*,#92,.T.);
#434=ORIENTED_EDGE('',*,*,#411,.T.);
#435=EDGE_LOOP('',(#425,#432,#433,#434));
#436=FACE_BOUND('',#435,.T.);
#437=ADVANCED_FACE('',(#436),#424,.T.);
#438=CARTESIAN_POINT('',(-0.,10.915072906,2.5));
#439=DIRECTION('',(-0.,0.,1.));
#440=DIRECTION('',(-0.,1.,-0.));
#441=AXIS2_PLACEMENT_3D('',#438,#439,#440);
#442=PLANE('',#441);
#443=CARTESIAN_POINT('',(0.,10.630145813,2.5));
#444=VERTEX_POINT('',#443);
#445=CARTESIAN_POINT('',(0.,0.,2.5));
#446=DIRECTION('',(0.,0.,1.));
#447=DIRECTION('',(-0.,1.,0.));
#448=AXIS2_PLACEMENT_3D('',#445,#446,#447);
#449=CIRCLE('',#448,10.630145813);
#450=EDGE_CURVE('',#444,#44,#449,.T.);
#451=ORIENTED_EDGE('',*,*,#450,.F.);
#452=CARTESIAN_POINT('',(0.,0.,2.5));
#453=DIRECTION('',(0.,0.,1.));
#454=DIRECTION('',(-0.,1.,0.));
#455=AXIS2_PLACEMENT_3D('',#452,#453,#454);
#456=CIRCLE('',#455,10.630145813);
#457=EDGE_CURVE('',#35,#444,#456,.T.);
#458=ORIENTED_EDGE('',*,*,#457,.F.);
#459=ORIENTED_EDGE('',*,*,#57,.F.);
#460=EDGE_LOOP('',(#451,#458,#459));
#461=FACE_BOUND('',#460,.T.);
#462=ORIENTED_EDGE('',*,*,#99,.T.);
#463=ORIENTED_EDGE('',*,*,#431,.T.);
#464=EDGE_LOOP('',(#462,#463));
#465=FACE_BOUND('',#464,.T.);
#466=ADVANCED_FACE('',(#461,#465),#442,.T.);
#467=CARTESIAN_POINT('',(0.,0.,58.5));
#468=DIRECTION('',(0.,0.,1.));
#469=DIRECTION('',(1.,0.,-0.));
#470=AXIS2_PLACEMENT_3D('',#467,#468,#469);
#471=SPHERICAL_SURFACE('',#470,57.);
#472=ORIENTED_EDGE('',*,*,#41,.T.);
#473=ORIENTED_EDGE('',*,*,#457,.T.);
#474=ORIENTED_EDGE('',*,*,#450,.T.);
#475=ORIENTED_EDGE('',*,*,#50,.T.);
#476=EDGE_LOOP('',(#472,#473,#474,#475));
#477=FACE_BOUND('',#476,.T.);
#478=ADVANCED_FACE('',(#477),#471,.F.);
#479=CLOSED_SHELL('',(#61,#103,#145,#192,#235,#293,#324,#336,#348,#368,#381,#399,#419,#437,#466,#478));
#480=MANIFOLD_SOLID_BREP('1',#479);
#481=COLOUR_RGB('',0.882352948,0.882352948,0.882352948);
#482=FILL_AREA_STYLE_COLOUR('',#481);
#483=FILL_AREA_STYLE('',(#482));
#484=SURFACE_STYLE_FILL_AREA(#483);
#485=SURFACE_SIDE_STYLE('',(#484));
#486=SURFACE_STYLE_USAGE(.BOTH.,#485);
#487=PRESENTATION_STYLE_ASSIGNMENT((#486));
#26=STYLED_ITEM('',(#487),#480);
#488=INTEGER_REPRESENTATION_ITEM('ATTRIB_BOUNDING_BOX_ALGORITHM',3);
#489=ID_ATTRIBUTE('SA #490',#490);
#490=SHAPE_ASPECT('properties','',#23,.F.);
#491=GEOMETRIC_ITEM_SPECIFIC_USAGE('','properties',#490,#17,#480);
#492=PROPERTY_DEFINITION('ATTRIB_BOUNDING_BOX_ALGORITHM','',#490);
#493=REPRESENTATION('',(#488),#10);
#494=PROPERTY_DEFINITION_REPRESENTATION(#492,#493);
#495=GENERAL_PROPERTY('','ATTRIB_BOUNDING_BOX_ALGORITHM','');
#496=GENERAL_PROPERTY_ASSOCIATION('','',#495,#492);
#16=SHAPE_REPRESENTATION('5889 Eaton Moeller Pushbutton 22mm Clear Shield Arrow (M22-XDL-W-X7)(218305)',(#15),#10);
#17=ADVANCED_BREP_SHAPE_REPRESENTATION('5889 Eaton Moeller Pushbutton 22mm Clear Shield Arrow (M22-XDL-W-X7)(218305)',(#480),#10);
#504=SHAPE_REPRESENTATION_RELATIONSHIP('','',#16,#17);
#505=CARTESIAN_POINT('',(0.,0.,0.));
#506=DIRECTION('',(0.,0.,1.));
#507=DIRECTION('',(1.,0.,0.));
#508=AXIS2_PLACEMENT_3D('',#505,#506,#507);
#510=MAPPED_ITEM('',#509,#508);
#509=REPRESENTATION_MAP(#508,#16);
#511=APPLICATION_CONTEXT('Managed model based 3d engineering');
#512=APPLICATION_PROTOCOL_DEFINITION('international standard','ap242_managed_model_based_3d_engineering',2013,#511);
#513=PRODUCT_CONTEXT('',#511,'mechanical');
#514=PRODUCT_DEFINITION_CONTEXT('part definition',#511,'design');
#24=PRODUCT('5889 Eaton Moeller Pushbutton 22mm Clear Shield Arrow (M22-XDL-W-X7)(218305)','5889 Eaton Moeller Pushbutton 22mm Clear Shield Arrow (M22-XDL-W-X7)(218305)','',(#513));
#515=PRODUCT_RELATED_PRODUCT_CATEGORY('part','',(#24));
#516=PRODUCT_DEFINITION_FORMATION_WITH_SPECIFIED_SOURCE('','',#24,.NOT_KNOWN.);
#25=PRODUCT_DEFINITION('design','',#516,#514);
#23=PRODUCT_DEFINITION_SHAPE('','',#25);
#517=SHAPE_DEFINITION_REPRESENTATION(#23,#16);
#11=DRAUGHTING_MODEL('',(#510),#10);
#1=MECHANICAL_DESIGN_GEOMETRIC_PRESENTATION_REPRESENTATION('',(#26),#10);
ENDSEC;
END-ISO-10303-21;
