ISO-10303-21;
HEADER;
FILE_DESCRIPTION (( 'STEP AP214' ),
    '1' );
FILE_NAME ('5950-1 IGUS E-chain triflex® R Series TR.85.10 Protector (Screwed-on) STEP214.STEP',
    '2022-06-28T07:32:25',
    ( '' ),
    ( '' ),
    'SwSTEP 2.0',
    'SolidWorks 2022',
    '' );
FILE_SCHEMA (( 'AUTOMOTIVE_DESIGN' ));
ENDSEC;

DATA;
#1 = AXIS2_PLACEMENT_3D ( 'NONE', #78, #192, #81 ) ;
#2 = EDGE_CURVE ( 'NONE', #43, #341, #291, .T. ) ;
#3 = DIRECTION ( 'NONE',  ( 0.000000000000000000, 0.000000000000000000, -1.000000000000000000 ) ) ;
#4 = DIRECTION ( 'NONE',  ( 0.000000000000000000, 0.000000000000000000, -1.000000000000000000 ) ) ;
#5 = LINE ( 'NONE', #59, #101 ) ;
#6 = ORIENTED_EDGE ( 'NONE', *, *, #143, .F. ) ;
#7 = CYLINDRICAL_SURFACE ( 'NONE', #262, 59.00000000000000000 ) ;
#8 = PRODUCT_DEFINITION_SHAPE ( 'NONE', 'NONE',  #138 ) ;
#9 = AXIS2_PLACEMENT_3D ( 'NONE', #335, #203, #148 ) ;
#10 = CARTESIAN_POINT ( 'NONE',  ( -49.25000000000000000, -6.031385485800719457E-15, 49.25000000000000000 ) ) ;
#11 = DIRECTION ( 'NONE',  ( 0.000000000000000000, 0.000000000000000000, -1.000000000000000000 ) ) ;
#12 = ORIENTED_EDGE ( 'NONE', *, *, #70, .T. ) ;
#13 = CYLINDRICAL_SURFACE ( 'NONE', #91, 47.25000000000000000 ) ;
#14 = ORIENTED_EDGE ( 'NONE', *, *, #110, .T. ) ;
#15 = ADVANCED_FACE ( 'NONE', ( #307 ), #13, .F. ) ;
#16 =( NAMED_UNIT ( * ) PLANE_ANGLE_UNIT ( ) SI_UNIT ( $, .RADIAN. ) );
#17 = AXIS2_PLACEMENT_3D ( 'NONE', #294, #216, #75 ) ;
#18 = AXIS2_PLACEMENT_3D ( 'NONE', #302, #58, #174 ) ;
#19 = VECTOR ( 'NONE', #309, 1000.000000000000000 ) ;
#20 = CARTESIAN_POINT ( 'NONE',  ( -49.25000000000000000, -6.031385485800709991E-15, 57.00000000000000000 ) ) ;
#21 = DIRECTION ( 'NONE',  ( 1.224646799147350002E-16, -1.000000000000000000, 0.000000000000000000 ) ) ;
#22 = ORIENTED_EDGE ( 'NONE', *, *, #278, .T. ) ;
#23 = DIRECTION ( 'NONE',  ( 1.000000000000000000, 0.000000000000000000, 0.000000000000000000 ) ) ;
#24 = EDGE_CURVE ( 'NONE', #341, #43, #227, .T. ) ;
#25 = PRESENTATION_STYLE_ASSIGNMENT (( #165 ) ) ;
#26 = DIRECTION ( 'NONE',  ( 1.000000000000000000, 1.224646799147349509E-16, 0.000000000000000000 ) ) ;
#27 = ADVANCED_FACE ( 'NONE', ( #284 ), #7, .T. ) ;
#28 = DIRECTION ( 'NONE',  ( 1.000000000000000000, 0.000000000000000000, 0.000000000000000000 ) ) ;
#29 = CLOSED_SHELL ( 'NONE', ( #186, #159, #137, #173, #329, #353, #15, #67, #292, #27, #244, #347 ) ) ;
#30 = CIRCLE ( 'NONE', #141, 9.750000000000001776 ) ;
#31 = TOROIDAL_SURFACE ( 'NONE', #344, 49.25000000000000000, 9.750000000000000000 ) ;
#32 = CARTESIAN_POINT ( 'NONE',  ( 0.000000000000000000, 0.000000000000000000, 57.00000000000000000 ) ) ;
#33 = DIRECTION ( 'NONE',  ( 0.000000000000000000, 0.000000000000000000, -1.000000000000000000 ) ) ;
#34 = ORIENTED_EDGE ( 'NONE', *, *, #198, .T. ) ;
#35 = FACE_OUTER_BOUND ( 'NONE', #230, .T. ) ;
#36 = COLOUR_RGB ( '',0.3019607843137254721, 0.3019607843137254721, 0.3019607843137254721 ) ;
#37 = ORIENTED_EDGE ( 'NONE', *, *, #213, .F. ) ;
#38 = CARTESIAN_POINT ( 'NONE',  ( -49.25000000000000000, -6.031385485800709991E-15, 1.776356839400249676E-15 ) ) ;
#39 = EDGE_CURVE ( 'NONE', #53, #295, #170, .T. ) ;
#40 = ORIENTED_EDGE ( 'NONE', *, *, #56, .F. ) ;
#41 = LINE ( 'NONE', #179, #19 ) ;
#42 = DIRECTION ( 'NONE',  ( -1.000000000000000000, 0.000000000000000000, 0.000000000000000000 ) ) ;
#43 = VERTEX_POINT ( 'NONE', #205 ) ;
#44 = CARTESIAN_POINT ( 'NONE',  ( 47.25000000000000000, 0.000000000000000000, 57.00000000000000000 ) ) ;
#45 = APPLICATION_PROTOCOL_DEFINITION ( 'draft international standard', 'automotive_design', 1998, #279 ) ;
#46 = AXIS2_PLACEMENT_3D ( 'NONE', #253, #228, #124 ) ;
#47 = ORIENTED_EDGE ( 'NONE', *, *, #198, .F. ) ;
#48 = DIRECTION ( 'NONE',  ( 1.000000000000000000, 1.224646799147350249E-16, 0.000000000000000000 ) ) ;
#49 = FACE_OUTER_BOUND ( 'NONE', #134, .T. ) ;
#50 = ORIENTED_EDGE ( 'NONE', *, *, #226, .F. ) ;
#51 = SURFACE_SIDE_STYLE ('',( #241 ) ) ;
#52 = CIRCLE ( 'NONE', #245, 9.750000000000001776 ) ;
#53 = VERTEX_POINT ( 'NONE', #155 ) ;
#54 = COLOUR_RGB ( '',0.3019607843137254721, 0.3019607843137254721, 0.3019607843137254721 ) ;
#55 = DIRECTION ( 'NONE',  ( 0.000000000000000000, 0.000000000000000000, -1.000000000000000000 ) ) ;
#56 = EDGE_CURVE ( 'NONE', #280, #77, #41, .T. ) ;
#57 =( NAMED_UNIT ( * ) PLANE_ANGLE_UNIT ( ) SI_UNIT ( $, .RADIAN. ) );
#58 = DIRECTION ( 'NONE',  ( 0.000000000000000000, 0.000000000000000000, -1.000000000000000000 ) ) ;
#59 = CARTESIAN_POINT ( 'NONE',  ( -59.00000000000000000, -7.225416114969380052E-15, 29.50000000000000000 ) ) ;
#60 = PRODUCT ( '5950-1 IGUS E-chain triflex® R Series TR.85.10 Protector (Screwed-on) STEP214', '5950-1 IGUS E-chain triflex® R Series TR.85.10 Protector (Screwed-on) STEP214', '', ( #354 ) ) ;
#61 = AXIS2_PLACEMENT_3D ( 'NONE', #111, #326, #23 ) ;
#62 = STYLED_ITEM ( 'NONE', ( #25 ), #257 ) ;
#63 = EDGE_LOOP ( 'NONE', ( #236, #34, #252, #288 ) ) ;
#64 = DIRECTION ( 'NONE',  ( 1.224646799147350002E-16, -1.000000000000000000, 0.000000000000000000 ) ) ;
#65 = DIRECTION ( 'NONE',  ( 1.224646799147350002E-16, -1.000000000000000000, 0.000000000000000000 ) ) ;
#66 = SURFACE_SIDE_STYLE ('',( #313 ) ) ;
#67 = ADVANCED_FACE ( 'NONE', ( #72 ), #177, .T. ) ;
#68 = ORIENTED_EDGE ( 'NONE', *, *, #270, .F. ) ;
#69 = DIRECTION ( 'NONE',  ( 1.000000000000000000, 0.000000000000000000, 0.000000000000000000 ) ) ;
#70 = EDGE_CURVE ( 'NONE', #190, #43, #160, .T. ) ;
#71 = DIRECTION ( 'NONE',  ( 0.000000000000000000, 0.000000000000000000, -1.000000000000000000 ) ) ;
#72 = FACE_OUTER_BOUND ( 'NONE', #157, .T. ) ;
#73 = VECTOR ( 'NONE', #310, 1000.000000000000000 ) ;
#74 = EDGE_LOOP ( 'NONE', ( #308, #319, #37, #193 ) ) ;
#75 = DIRECTION ( 'NONE',  ( 1.000000000000000000, 0.000000000000000000, 0.000000000000000000 ) ) ;
#76 = AXIS2_PLACEMENT_3D ( 'NONE', #249, #232, #69 ) ;
#77 = VERTEX_POINT ( 'NONE', #224 ) ;
#78 = CARTESIAN_POINT ( 'NONE',  ( 0.000000000000000000, 0.000000000000000000, 9.750000000000000000 ) ) ;
#79 = DIRECTION ( 'NONE',  ( -1.000000000000000000, -1.224646799147349509E-16, 0.000000000000000000 ) ) ;
#80 = DIRECTION ( 'NONE',  ( -1.000000000000000000, 0.000000000000000000, 0.000000000000000000 ) ) ;
#81 = DIRECTION ( 'NONE',  ( -1.000000000000000000, 0.000000000000000000, 0.000000000000000000 ) ) ;
#82 = AXIS2_PLACEMENT_3D ( 'NONE', #20, #296, #217 ) ;
#83 = EDGE_CURVE ( 'NONE', #333, #123, #202, .T. ) ;
#84 = CIRCLE ( 'NONE', #132, 59.00000000000000000 ) ;
#85 =( GEOMETRIC_REPRESENTATION_CONTEXT ( 3 ) GLOBAL_UNCERTAINTY_ASSIGNED_CONTEXT ( ( #127 ) ) GLOBAL_UNIT_ASSIGNED_CONTEXT ( ( #125, #207, #317 ) ) REPRESENTATION_CONTEXT ( 'NONE', 'WORKASPACE' ) );
#86 = PRODUCT_RELATED_PRODUCT_CATEGORY ( 'part', '', ( #60 ) ) ;
#87 = ORIENTED_EDGE ( 'NONE', *, *, #303, .F. ) ;
#88 = AXIS2_PLACEMENT_3D ( 'NONE', #256, #11, #42 ) ;
#89 = ORIENTED_EDGE ( 'NONE', *, *, #213, .T. ) ;
#90 = EDGE_CURVE ( 'NONE', #304, #123, #30, .T. ) ;
#91 = AXIS2_PLACEMENT_3D ( 'NONE', #255, #342, #338 ) ;
#92 = ORIENTED_EDGE ( 'NONE', *, *, #2, .F. ) ;
#93 = DIRECTION ( 'NONE',  ( 1.000000000000000000, 0.000000000000000000, 0.000000000000000000 ) ) ;
#94 = ORIENTED_EDGE ( 'NONE', *, *, #56, .T. ) ;
#95 = CARTESIAN_POINT ( 'NONE',  ( 0.000000000000000000, 0.000000000000000000, 1.332267629550190018E-15 ) ) ;
#96 = CARTESIAN_POINT ( 'NONE',  ( 0.000000000000000000, 0.000000000000000000, 49.25000000000000000 ) ) ;
#97 = EDGE_CURVE ( 'NONE', #341, #280, #233, .T. ) ;
#98 = ORIENTED_EDGE ( 'NONE', *, *, #83, .F. ) ;
#99 = CIRCLE ( 'NONE', #361, 49.25000000000000000 ) ;
#100 = DIRECTION ( 'NONE',  ( 0.000000000000000000, 0.000000000000000000, -1.000000000000000000 ) ) ;
#101 = VECTOR ( 'NONE', #331, 1000.000000000000000 ) ;
#102 = DIRECTION ( 'NONE',  ( 1.000000000000000000, 0.000000000000000000, 0.000000000000000000 ) ) ;
#103 = ORIENTED_EDGE ( 'NONE', *, *, #258, .T. ) ;
#104 = CARTESIAN_POINT ( 'NONE',  ( 47.25000000000000000, 0.000000000000000000, 2.000000000000000000 ) ) ;
#105 = AXIS2_PLACEMENT_3D ( 'NONE', #274, #360, #28 ) ;
#106 = EDGE_LOOP ( 'NONE', ( #225, #234, #315, #14 ) ) ;
#107 = CARTESIAN_POINT ( 'NONE',  ( 59.00000000000000000, 7.225416114969380052E-15, 29.50000000000000000 ) ) ;
#108 = DIRECTION ( 'NONE',  ( 0.000000000000000000, 0.000000000000000000, -1.000000000000000000 ) ) ;
#109 =( LENGTH_UNIT ( ) NAMED_UNIT ( * ) SI_UNIT ( .MILLI., .METRE. ) );
#110 = EDGE_CURVE ( 'NONE', #195, #77, #166, .T. ) ;
#111 = CARTESIAN_POINT ( 'NONE',  ( 0.000000000000000000, 0.000000000000000000, 29.50000000000000000 ) ) ;
#112 = AXIS2_PLACEMENT_3D ( 'NONE', #169, #108, #219 ) ;
#113 = TOROIDAL_SURFACE ( 'NONE', #1, 49.25000000000000000, 9.750000000000000000 ) ;
#114 = AXIS2_PLACEMENT_3D ( 'NONE', #32, #4, #122 ) ;
#115 = SHAPE_DEFINITION_REPRESENTATION ( #8, #357 ) ;
#116 = CARTESIAN_POINT ( 'NONE',  ( 49.25000000000000000, 0.000000000000000000, 59.00000000000000000 ) ) ;
#117 = AXIS2_PLACEMENT_3D ( 'NONE', #162, #21, #79 ) ;
#118 = PRODUCT_DEFINITION_CONTEXT ( 'detailed design', #248, 'design' ) ;
#119 = EDGE_CURVE ( 'NONE', #43, #53, #52, .T. ) ;
#120 = ORIENTED_EDGE ( 'NONE', *, *, #278, .F. ) ;
#121 = MECHANICAL_DESIGN_GEOMETRIC_PRESENTATION_REPRESENTATION (  '', ( #223 ), #147 ) ;
#122 = DIRECTION ( 'NONE',  ( -1.000000000000000000, 0.000000000000000000, 0.000000000000000000 ) ) ;
#123 = VERTEX_POINT ( 'NONE', #261 ) ;
#124 = DIRECTION ( 'NONE',  ( 1.000000000000000000, 0.000000000000000000, 0.000000000000000000 ) ) ;
#125 =( LENGTH_UNIT ( ) NAMED_UNIT ( * ) SI_UNIT ( .MILLI., .METRE. ) );
#126 = EDGE_CURVE ( 'NONE', #77, #304, #260, .T. ) ;
#127 = UNCERTAINTY_MEASURE_WITH_UNIT (LENGTH_MEASURE( 1.000000000000000082E-05 ), #125, 'distance_accuracy_value', 'NONE');
#128 = ORIENTED_EDGE ( 'NONE', *, *, #97, .T. ) ;
#129 = CARTESIAN_POINT ( 'NONE',  ( 0.000000000000000000, 0.000000000000000000, 29.50000000000000000 ) ) ;
#130 = DIRECTION ( 'NONE',  ( 0.000000000000000000, 0.000000000000000000, -1.000000000000000000 ) ) ;
#131 = AXIS2_PLACEMENT_3D ( 'NONE', #139, #55, #299 ) ;
#132 = AXIS2_PLACEMENT_3D ( 'NONE', #96, #100, #189 ) ;
#133 = CARTESIAN_POINT ( 'NONE',  ( 0.000000000000000000, 0.000000000000000000, 2.000000000000000000 ) ) ;
#134 = EDGE_LOOP ( 'NONE', ( #168, #98, #89, #182 ) ) ;
#135 = FILL_AREA_STYLE ('',( #164 ) ) ;
#136 = ORIENTED_EDGE ( 'NONE', *, *, #311, .T. ) ;
#137 = ADVANCED_FACE ( 'NONE', ( #265 ), #264, .T. ) ;
#138 = PRODUCT_DEFINITION ( 'UNKNOWN', '', #350, #118 ) ;
#139 = CARTESIAN_POINT ( 'NONE',  ( 0.000000000000000000, 0.000000000000000000, 9.750000000000000000 ) ) ;
#140 = AXIS2_PLACEMENT_3D ( 'NONE', #218, #151, #93 ) ;
#141 = AXIS2_PLACEMENT_3D ( 'NONE', #10, #64, #181 ) ;
#142 = AXIS2_PLACEMENT_3D ( 'NONE', #334, #254, #336 ) ;
#143 = EDGE_CURVE ( 'NONE', #304, #269, #99, .T. ) ;
#144 = CARTESIAN_POINT ( 'NONE',  ( 0.000000000000000000, 0.000000000000000000, 2.000000000000000000 ) ) ;
#145 = DIRECTION ( 'NONE',  ( 1.224646799147350002E-16, -1.000000000000000000, 0.000000000000000000 ) ) ;
#146 = DIRECTION ( 'NONE',  ( 1.000000000000000000, 0.000000000000000000, 0.000000000000000000 ) ) ;
#147 =( GEOMETRIC_REPRESENTATION_CONTEXT ( 3 ) GLOBAL_UNCERTAINTY_ASSIGNED_CONTEXT ( ( #340 ) ) GLOBAL_UNIT_ASSIGNED_CONTEXT ( ( #185, #16, #356 ) ) REPRESENTATION_CONTEXT ( 'NONE', 'WORKASPACE' ) );
#148 = DIRECTION ( 'NONE',  ( 1.000000000000000000, 0.000000000000000000, 0.000000000000000000 ) ) ;
#149 = CARTESIAN_POINT ( 'NONE',  ( 47.25000000000000000, 5.786456125971240483E-15, 29.50000000000000000 ) ) ;
#150 = CARTESIAN_POINT ( 'NONE',  ( 49.25000000000000000, 6.031385485800709991E-15, 2.000000000000000000 ) ) ;
#151 = DIRECTION ( 'NONE',  ( 0.000000000000000000, 0.000000000000000000, -1.000000000000000000 ) ) ;
#152 = ORIENTED_EDGE ( 'NONE', *, *, #83, .T. ) ;
#153 = CARTESIAN_POINT ( 'NONE',  ( 0.000000000000000000, 0.000000000000000000, 57.00000000000000000 ) ) ;
#154 = EDGE_LOOP ( 'NONE', ( #201, #47, #330, #136 ) ) ;
#155 = CARTESIAN_POINT ( 'NONE',  ( 59.00000000000000000, 0.000000000000000000, 9.750000000000000000 ) ) ;
#156 = FILL_AREA_STYLE_COLOUR ( '', #36 ) ;
#157 = EDGE_LOOP ( 'NONE', ( #161, #22, #87, #6 ) ) ;
#158 = CARTESIAN_POINT ( 'NONE',  ( 49.25000000000000000, 6.031385485800709991E-15, 9.750000000000000000 ) ) ;
#159 = ADVANCED_FACE ( 'NONE', ( #238 ), #298, .T. ) ;
#160 = CIRCLE ( 'NONE', #358, 2.000000000000001776 ) ;
#161 = ORIENTED_EDGE ( 'NONE', *, *, #126, .F. ) ;
#162 = CARTESIAN_POINT ( 'NONE',  ( -49.25000000000000000, -6.031385485800709991E-15, 9.750000000000000000 ) ) ;
#163 = ORIENTED_EDGE ( 'NONE', *, *, #231, .T. ) ;
#164 = FILL_AREA_STYLE_COLOUR ( '', #54 ) ;
#165 = SURFACE_STYLE_USAGE ( .BOTH. , #51 ) ;
#166 = CIRCLE ( 'NONE', #325, 47.25000000000000000 ) ;
#167 = AXIS2_PLACEMENT_3D ( 'NONE', #171, #247, #328 ) ;
#168 = ORIENTED_EDGE ( 'NONE', *, *, #90, .T. ) ;
#169 = CARTESIAN_POINT ( 'NONE',  ( 0.000000000000000000, 0.000000000000000000, 49.25000000000000000 ) ) ;
#170 = CIRCLE ( 'NONE', #76, 59.00000000000000000 ) ;
#171 = CARTESIAN_POINT ( 'NONE',  ( 0.000000000000000000, 0.000000000000000000, 57.00000000000000000 ) ) ;
#172 = CARTESIAN_POINT ( 'NONE',  ( 0.000000000000000000, 0.000000000000000000, 49.25000000000000000 ) ) ;
#173 = ADVANCED_FACE ( 'NONE', ( #49 ), #343, .T. ) ;
#174 = DIRECTION ( 'NONE',  ( 1.000000000000000000, 0.000000000000000000, 0.000000000000000000 ) ) ;
#175 = CIRCLE ( 'NONE', #17, 59.00000000000000000 ) ;
#176 = AXIS2_PLACEMENT_3D ( 'NONE', #144, #33, #146 ) ;
#177 = TOROIDAL_SURFACE ( 'NONE', #114, 49.25000000000000000, 2.000000000000000000 ) ;
#178 = ORIENTED_EDGE ( 'NONE', *, *, #362, .T. ) ;
#179 = CARTESIAN_POINT ( 'NONE',  ( -47.25000000000000000, -5.786456125971240483E-15, 29.50000000000000000 ) ) ;
#180 = ORIENTED_EDGE ( 'NONE', *, *, #70, .F. ) ;
#181 = DIRECTION ( 'NONE',  ( -1.000000000000000000, -1.224646799147350249E-16, 0.000000000000000000 ) ) ;
#182 = ORIENTED_EDGE ( 'NONE', *, *, #359, .T. ) ;
#183 = DIRECTION ( 'NONE',  ( -1.000000000000000000, -1.224646799147349509E-16, 0.000000000000000000 ) ) ;
#184 = SURFACE_STYLE_USAGE ( .BOTH. , #66 ) ;
#185 =( LENGTH_UNIT ( ) NAMED_UNIT ( * ) SI_UNIT ( .MILLI., .METRE. ) );
#186 = ADVANCED_FACE ( 'NONE', ( #188 ), #196, .T. ) ;
#187 = ORIENTED_EDGE ( 'NONE', *, *, #110, .F. ) ;
#188 = FACE_OUTER_BOUND ( 'NONE', #214, .T. ) ;
#189 = DIRECTION ( 'NONE',  ( 1.000000000000000000, 0.000000000000000000, 0.000000000000000000 ) ) ;
#190 = VERTEX_POINT ( 'NONE', #104 ) ;
#191 = CARTESIAN_POINT ( 'NONE',  ( 49.25000000000000000, 6.031385485800719457E-15, 49.25000000000000000 ) ) ;
#192 = DIRECTION ( 'NONE',  ( 0.000000000000000000, 0.000000000000000000, -1.000000000000000000 ) ) ;
#193 = ORIENTED_EDGE ( 'NONE', *, *, #311, .F. ) ;
#194 = FACE_OUTER_BOUND ( 'NONE', #63, .T. ) ;
#195 = VERTEX_POINT ( 'NONE', #44 ) ;
#196 = TOROIDAL_SURFACE ( 'NONE', #276, 49.25000000000000000, 2.000000000000000000 ) ;
#197 =( GEOMETRIC_REPRESENTATION_CONTEXT ( 3 ) GLOBAL_UNCERTAINTY_ASSIGNED_CONTEXT ( ( #305 ) ) GLOBAL_UNIT_ASSIGNED_CONTEXT ( ( #109, #57, #246 ) ) REPRESENTATION_CONTEXT ( 'NONE', 'WORKASPACE' ) );
#198 = EDGE_CURVE ( 'NONE', #295, #53, #175, .T. ) ;
#199 = FACE_OUTER_BOUND ( 'NONE', #74, .T. ) ;
#200 = ORIENTED_EDGE ( 'NONE', *, *, #258, .F. ) ;
#201 = ORIENTED_EDGE ( 'NONE', *, *, #226, .T. ) ;
#202 = CIRCLE ( 'NONE', #46, 59.00000000000000000 ) ;
#203 = DIRECTION ( 'NONE',  ( 0.000000000000000000, 0.000000000000000000, -1.000000000000000000 ) ) ;
#204 = ORIENTED_EDGE ( 'NONE', *, *, #270, .T. ) ;
#205 = CARTESIAN_POINT ( 'NONE',  ( 49.25000000000000000, 0.000000000000000000, 1.332267629550190018E-15 ) ) ;
#206 = ORIENTED_EDGE ( 'NONE', *, *, #297, .F. ) ;
#207 =( NAMED_UNIT ( * ) PLANE_ANGLE_UNIT ( ) SI_UNIT ( $, .RADIAN. ) );
#208 = AXIS2_PLACEMENT_3D ( 'NONE', #312, #65, #183 ) ;
#209 = EDGE_LOOP ( 'NONE', ( #163, #92, #348, #285 ) ) ;
#210 = MECHANICAL_DESIGN_GEOMETRIC_PRESENTATION_REPRESENTATION (  '', ( #62 ), #197 ) ;
#211 = DIRECTION ( 'NONE',  ( 0.000000000000000000, 0.000000000000000000, -1.000000000000000000 ) ) ;
#212 = CARTESIAN_POINT ( 'NONE',  ( 59.00000000000000000, 0.000000000000000000, 49.25000000000000000 ) ) ;
#213 = EDGE_CURVE ( 'NONE', #333, #269, #220, .T. ) ;
#214 = EDGE_LOOP ( 'NONE', ( #128, #200, #12, #259 ) ) ;
#215 = DIRECTION ( 'NONE',  ( 0.000000000000000000, 0.000000000000000000, -1.000000000000000000 ) ) ;
#216 = DIRECTION ( 'NONE',  ( 0.000000000000000000, 0.000000000000000000, -1.000000000000000000 ) ) ;
#217 = DIRECTION ( 'NONE',  ( -1.000000000000000000, -1.224646799147349509E-16, 0.000000000000000000 ) ) ;
#218 = CARTESIAN_POINT ( 'NONE',  ( 0.000000000000000000, 0.000000000000000000, 59.00000000000000000 ) ) ;
#219 = DIRECTION ( 'NONE',  ( -1.000000000000000000, 0.000000000000000000, 0.000000000000000000 ) ) ;
#220 = CIRCLE ( 'NONE', #266, 9.750000000000001776 ) ;
#221 = CIRCLE ( 'NONE', #117, 9.750000000000001776 ) ;
#222 = DIRECTION ( 'NONE',  ( -1.000000000000000000, 0.000000000000000000, 0.000000000000000000 ) ) ;
#223 = STYLED_ITEM ( 'NONE', ( #287 ), #357 ) ;
#224 = CARTESIAN_POINT ( 'NONE',  ( -47.25000000000000000, -5.786456125971240483E-15, 57.00000000000000000 ) ) ;
#225 = ORIENTED_EDGE ( 'NONE', *, *, #126, .T. ) ;
#226 = EDGE_CURVE ( 'NONE', #333, #53, #351, .T. ) ;
#227 = CIRCLE ( 'NONE', #321, 49.25000000000000000 ) ;
#228 = DIRECTION ( 'NONE',  ( 0.000000000000000000, 0.000000000000000000, -1.000000000000000000 ) ) ;
#229 = LINE ( 'NONE', #149, #73 ) ;
#230 = EDGE_LOOP ( 'NONE', ( #178, #103, #94, #187 ) ) ;
#231 = EDGE_CURVE ( 'NONE', #295, #341, #221, .T. ) ;
#232 = DIRECTION ( 'NONE',  ( 0.000000000000000000, 0.000000000000000000, -1.000000000000000000 ) ) ;
#233 = CIRCLE ( 'NONE', #208, 2.000000000000001776 ) ;
#234 = ORIENTED_EDGE ( 'NONE', *, *, #359, .F. ) ;
#235 = CIRCLE ( 'NONE', #18, 47.25000000000000000 ) ;
#236 = ORIENTED_EDGE ( 'NONE', *, *, #231, .F. ) ;
#237 = DIRECTION ( 'NONE',  ( 1.224646799147350002E-16, -1.000000000000000000, 0.000000000000000000 ) ) ;
#238 = FACE_OUTER_BOUND ( 'NONE', #209, .T. ) ;
#239 = TOROIDAL_SURFACE ( 'NONE', #332, 49.25000000000000000, 2.000000000000000000 ) ;
#240 = ORIENTED_EDGE ( 'NONE', *, *, #39, .F. ) ;
#241 = SURFACE_STYLE_FILL_AREA ( #135 ) ;
#242 = EDGE_LOOP ( 'NONE', ( #318, #120, #40, #204 ) ) ;
#243 = DIRECTION ( 'NONE',  ( 1.000000000000000000, 0.000000000000000000, 0.000000000000000000 ) ) ;
#244 = ADVANCED_FACE ( 'NONE', ( #194 ), #113, .T. ) ;
#245 = AXIS2_PLACEMENT_3D ( 'NONE', #158, #237, #26 ) ;
#246 =( NAMED_UNIT ( * ) SI_UNIT ( $, .STERADIAN. ) SOLID_ANGLE_UNIT ( ) );
#247 = DIRECTION ( 'NONE',  ( 0.000000000000000000, 0.000000000000000000, -1.000000000000000000 ) ) ;
#248 = APPLICATION_CONTEXT ( 'automotive_design' ) ;
#249 = CARTESIAN_POINT ( 'NONE',  ( 0.000000000000000000, 0.000000000000000000, 9.750000000000000000 ) ) ;
#250 = CARTESIAN_POINT ( 'NONE',  ( -59.00000000000000000, -7.225416114969380052E-15, 9.750000000000000000 ) ) ;
#251 = CIRCLE ( 'NONE', #140, 49.25000000000000000 ) ;
#252 = ORIENTED_EDGE ( 'NONE', *, *, #119, .F. ) ;
#253 = CARTESIAN_POINT ( 'NONE',  ( 0.000000000000000000, 0.000000000000000000, 49.25000000000000000 ) ) ;
#254 = DIRECTION ( 'NONE',  ( 1.224646799147350002E-16, -1.000000000000000000, 0.000000000000000000 ) ) ;
#255 = CARTESIAN_POINT ( 'NONE',  ( 0.000000000000000000, 0.000000000000000000, 29.50000000000000000 ) ) ;
#256 = CARTESIAN_POINT ( 'NONE',  ( 0.000000000000000000, 0.000000000000000000, 2.000000000000000000 ) ) ;
#257 = MANIFOLD_SOLID_BREP ( 'Imported1', #29 ) ;
#258 = EDGE_CURVE ( 'NONE', #190, #280, #235, .T. ) ;
#259 = ORIENTED_EDGE ( 'NONE', *, *, #2, .T. ) ;
#260 = CIRCLE ( 'NONE', #82, 2.000000000000001776 ) ;
#261 = CARTESIAN_POINT ( 'NONE',  ( -59.00000000000000000, -7.225416114969380052E-15, 49.25000000000000000 ) ) ;
#262 = AXIS2_PLACEMENT_3D ( 'NONE', #129, #215, #316 ) ;
#263 = CYLINDRICAL_SURFACE ( 'NONE', #283, 47.25000000000000000 ) ;
#264 = CYLINDRICAL_SURFACE ( 'NONE', #61, 59.00000000000000000 ) ;
#265 = FACE_OUTER_BOUND ( 'NONE', #154, .T. ) ;
#266 = AXIS2_PLACEMENT_3D ( 'NONE', #191, #290, #48 ) ;
#267 = DIRECTION ( 'NONE',  ( 0.000000000000000000, 0.000000000000000000, -1.000000000000000000 ) ) ;
#268 = CIRCLE ( 'NONE', #176, 47.25000000000000000 ) ;
#269 = VERTEX_POINT ( 'NONE', #116 ) ;
#270 = EDGE_CURVE ( 'NONE', #280, #190, #268, .T. ) ;
#271 = CARTESIAN_POINT ( 'NONE',  ( 0.000000000000000000, 0.000000000000000000, 59.00000000000000000 ) ) ;
#272 = APPLICATION_PROTOCOL_DEFINITION ( 'draft international standard', 'automotive_design', 1998, #248 ) ;
#273 = PRESENTATION_LAYER_ASSIGNMENT (  '', '', ( #223 ) ) ;
#274 = CARTESIAN_POINT ( 'NONE',  ( 0.000000000000000000, 0.000000000000000000, 0.000000000000000000 ) ) ;
#275 = CARTESIAN_POINT ( 'NONE',  ( -47.25000000000000000, -5.786456125971240483E-15, 2.000000000000000000 ) ) ;
#276 = AXIS2_PLACEMENT_3D ( 'NONE', #133, #324, #349 ) ;
#277 = PRESENTATION_LAYER_ASSIGNMENT (  '', '', ( #62 ) ) ;
#278 = EDGE_CURVE ( 'NONE', #77, #195, #327, .T. ) ;
#279 = APPLICATION_CONTEXT ( 'automotive_design' ) ;
#280 = VERTEX_POINT ( 'NONE', #275 ) ;
#281 = DIRECTION ( 'NONE',  ( 1.000000000000000000, 1.224646799147349509E-16, 0.000000000000000000 ) ) ;
#282 = CARTESIAN_POINT ( 'NONE',  ( -49.25000000000000000, -6.031385485800709991E-15, 59.00000000000000000 ) ) ;
#283 = AXIS2_PLACEMENT_3D ( 'NONE', #323, #71, #102 ) ;
#284 = FACE_OUTER_BOUND ( 'NONE', #306, .T. ) ;
#285 = ORIENTED_EDGE ( 'NONE', *, *, #39, .T. ) ;
#286 = DIRECTION ( 'NONE',  ( 1.000000000000000000, 0.000000000000000000, 0.000000000000000000 ) ) ;
#287 = PRESENTATION_STYLE_ASSIGNMENT (( #184 ) ) ;
#288 = ORIENTED_EDGE ( 'NONE', *, *, #24, .F. ) ;
#289 = FACE_OUTER_BOUND ( 'NONE', #106, .T. ) ;
#290 = DIRECTION ( 'NONE',  ( 1.224646799147350002E-16, -1.000000000000000000, 0.000000000000000000 ) ) ;
#291 = CIRCLE ( 'NONE', #9, 49.25000000000000000 ) ;
#292 = ADVANCED_FACE ( 'NONE', ( #199 ), #31, .T. ) ;
#293 = EDGE_LOOP ( 'NONE', ( #337, #345, #180, #68 ) ) ;
#294 = CARTESIAN_POINT ( 'NONE',  ( 0.000000000000000000, 0.000000000000000000, 9.750000000000000000 ) ) ;
#295 = VERTEX_POINT ( 'NONE', #250 ) ;
#296 = DIRECTION ( 'NONE',  ( 1.224646799147350002E-16, -1.000000000000000000, 0.000000000000000000 ) ) ;
#297 = EDGE_CURVE ( 'NONE', #295, #123, #5, .T. ) ;
#298 = TOROIDAL_SURFACE ( 'NONE', #131, 49.25000000000000000, 9.750000000000000000 ) ;
#299 = DIRECTION ( 'NONE',  ( -1.000000000000000000, 0.000000000000000000, 0.000000000000000000 ) ) ;
#300 = CIRCLE ( 'NONE', #142, 2.000000000000001776 ) ;
#301 = TOROIDAL_SURFACE ( 'NONE', #88, 49.25000000000000000, 2.000000000000000000 ) ;
#302 = CARTESIAN_POINT ( 'NONE',  ( 0.000000000000000000, 0.000000000000000000, 2.000000000000000000 ) ) ;
#303 = EDGE_CURVE ( 'NONE', #269, #195, #300, .T. ) ;
#304 = VERTEX_POINT ( 'NONE', #282 ) ;
#305 = UNCERTAINTY_MEASURE_WITH_UNIT (LENGTH_MEASURE( 1.000000000000000082E-05 ), #109, 'distance_accuracy_value', 'NONE');
#306 = EDGE_LOOP ( 'NONE', ( #50, #152, #206, #240 ) ) ;
#307 = FACE_OUTER_BOUND ( 'NONE', #242, .T. ) ;
#308 = ORIENTED_EDGE ( 'NONE', *, *, #90, .F. ) ;
#309 = DIRECTION ( 'NONE',  ( 0.000000000000000000, 0.000000000000000000, 1.000000000000000000 ) ) ;
#310 = DIRECTION ( 'NONE',  ( 0.000000000000000000, 0.000000000000000000, -1.000000000000000000 ) ) ;
#311 = EDGE_CURVE ( 'NONE', #123, #333, #84, .T. ) ;
#312 = CARTESIAN_POINT ( 'NONE',  ( -49.25000000000000000, -6.031385485800709991E-15, 2.000000000000000000 ) ) ;
#313 = SURFACE_STYLE_FILL_AREA ( #339 ) ;
#314 = VECTOR ( 'NONE', #322, 1000.000000000000000 ) ;
#315 = ORIENTED_EDGE ( 'NONE', *, *, #303, .T. ) ;
#316 = DIRECTION ( 'NONE',  ( 1.000000000000000000, 0.000000000000000000, 0.000000000000000000 ) ) ;
#317 =( NAMED_UNIT ( * ) SI_UNIT ( $, .STERADIAN. ) SOLID_ANGLE_UNIT ( ) );
#318 = ORIENTED_EDGE ( 'NONE', *, *, #362, .F. ) ;
#319 = ORIENTED_EDGE ( 'NONE', *, *, #143, .T. ) ;
#320 = DIRECTION ( 'NONE',  ( 0.000000000000000000, 0.000000000000000000, -1.000000000000000000 ) ) ;
#321 = AXIS2_PLACEMENT_3D ( 'NONE', #95, #211, #286 ) ;
#322 = DIRECTION ( 'NONE',  ( 0.000000000000000000, 0.000000000000000000, -1.000000000000000000 ) ) ;
#323 = CARTESIAN_POINT ( 'NONE',  ( 0.000000000000000000, 0.000000000000000000, 29.50000000000000000 ) ) ;
#324 = DIRECTION ( 'NONE',  ( 0.000000000000000000, 0.000000000000000000, -1.000000000000000000 ) ) ;
#325 = AXIS2_PLACEMENT_3D ( 'NONE', #352, #267, #355 ) ;
#326 = DIRECTION ( 'NONE',  ( 0.000000000000000000, 0.000000000000000000, -1.000000000000000000 ) ) ;
#327 = CIRCLE ( 'NONE', #167, 47.25000000000000000 ) ;
#328 = DIRECTION ( 'NONE',  ( 1.000000000000000000, 0.000000000000000000, 0.000000000000000000 ) ) ;
#329 = ADVANCED_FACE ( 'NONE', ( #289 ), #239, .T. ) ;
#330 = ORIENTED_EDGE ( 'NONE', *, *, #297, .T. ) ;
#331 = DIRECTION ( 'NONE',  ( 0.000000000000000000, 0.000000000000000000, 1.000000000000000000 ) ) ;
#332 = AXIS2_PLACEMENT_3D ( 'NONE', #153, #130, #80 ) ;
#333 = VERTEX_POINT ( 'NONE', #212 ) ;
#334 = CARTESIAN_POINT ( 'NONE',  ( 49.25000000000000000, 6.031385485800709991E-15, 57.00000000000000000 ) ) ;
#335 = CARTESIAN_POINT ( 'NONE',  ( 0.000000000000000000, 0.000000000000000000, 1.332267629550190018E-15 ) ) ;
#336 = DIRECTION ( 'NONE',  ( 1.000000000000000000, 1.224646799147349509E-16, 0.000000000000000000 ) ) ;
#337 = ORIENTED_EDGE ( 'NONE', *, *, #97, .F. ) ;
#338 = DIRECTION ( 'NONE',  ( 1.000000000000000000, 0.000000000000000000, 0.000000000000000000 ) ) ;
#339 = FILL_AREA_STYLE ('',( #156 ) ) ;
#340 = UNCERTAINTY_MEASURE_WITH_UNIT (LENGTH_MEASURE( 1.000000000000000082E-05 ), #185, 'distance_accuracy_value', 'NONE');
#341 = VERTEX_POINT ( 'NONE', #38 ) ;
#342 = DIRECTION ( 'NONE',  ( 0.000000000000000000, 0.000000000000000000, -1.000000000000000000 ) ) ;
#343 = TOROIDAL_SURFACE ( 'NONE', #112, 49.25000000000000000, 9.750000000000000000 ) ;
#344 = AXIS2_PLACEMENT_3D ( 'NONE', #172, #3, #222 ) ;
#345 = ORIENTED_EDGE ( 'NONE', *, *, #24, .T. ) ;
#346 = FACE_OUTER_BOUND ( 'NONE', #293, .T. ) ;
#347 = ADVANCED_FACE ( 'NONE', ( #346 ), #301, .T. ) ;
#348 = ORIENTED_EDGE ( 'NONE', *, *, #119, .T. ) ;
#349 = DIRECTION ( 'NONE',  ( -1.000000000000000000, 0.000000000000000000, 0.000000000000000000 ) ) ;
#350 = PRODUCT_DEFINITION_FORMATION_WITH_SPECIFIED_SOURCE ( 'ANY', '', #60, .NOT_KNOWN. ) ;
#351 = LINE ( 'NONE', #107, #314 ) ;
#352 = CARTESIAN_POINT ( 'NONE',  ( 0.000000000000000000, 0.000000000000000000, 57.00000000000000000 ) ) ;
#353 = ADVANCED_FACE ( 'NONE', ( #35 ), #263, .F. ) ;
#354 = PRODUCT_CONTEXT ( 'NONE', #279, 'mechanical' ) ;
#355 = DIRECTION ( 'NONE',  ( 1.000000000000000000, 0.000000000000000000, 0.000000000000000000 ) ) ;
#356 =( NAMED_UNIT ( * ) SI_UNIT ( $, .STERADIAN. ) SOLID_ANGLE_UNIT ( ) );
#357 = ADVANCED_BREP_SHAPE_REPRESENTATION ( '5950-1 IGUS E-chain triflex« R Series TR.85.10 Protector (Screwed-on) STEP214', ( #257, #105 ), #85 ) ;
#358 = AXIS2_PLACEMENT_3D ( 'NONE', #150, #145, #281 ) ;
#359 = EDGE_CURVE ( 'NONE', #269, #304, #251, .T. ) ;
#360 = DIRECTION ( 'NONE',  ( 0.000000000000000000, 0.000000000000000000, 1.000000000000000000 ) ) ;
#361 = AXIS2_PLACEMENT_3D ( 'NONE', #271, #320, #243 ) ;
#362 = EDGE_CURVE ( 'NONE', #195, #190, #229, .T. ) ;
ENDSEC;
END-ISO-10303-21;
