ISO-10303-21;
HEADER;

/* File generated by Alibre Version V23 */

FILE_DESCRIPTION(('HOOPS Exchange Step'),'2;1');

FILE_NAME('C:\\Users\\User\\AppData\\Local\\Temp\\Alibre Design\\export-B141E036-FF82-4BCA-9829-3F62847A6E48.stp',
'2022-06-28T09:33:16+02:00',
('User'),
('Alibre'),
'HOOPS Exchange 2021.0',
'Alibre',
'Unknown authorisation');

FILE_SCHEMA( ('AP242_MANAGED_MODEL_BASED_3D_ENGINEERING_MIM_LF {1 0 10303 442 1 1 4 }') );

ENDSEC;

DATA;
#3=(NAMED_UNIT(*)PLANE_ANGLE_UNIT()SI_UNIT($,.RADIAN.));
#4=PLANE_ANGLE_MEASURE_WITH_UNIT(PLANE_ANGLE_MEASURE(0.0174532925),#3);
#5=(CONVERSION_BASED_UNIT('DEGREE',#4)NAMED_UNIT(#6)PLANE_ANGLE_UNIT());
#6=DIMENSIONAL_EXPONENTS(0.,0.,0.,0.,0.,0.,0.);
#7=(NAMED_UNIT(*)SI_UNIT($,.STERADIAN.)SOLID_ANGLE_UNIT());
#8=(LENGTH_UNIT()NAMED_UNIT(*)SI_UNIT(.MILLI.,.METRE.));
#9=UNCERTAINTY_MEASURE_WITH_UNIT(LENGTH_MEASURE(1.000000E-06),#8,'DISTANCE_ACCURACY_VALUE','Maximum Tolerance applied to model');
#10=(GEOMETRIC_REPRESENTATION_CONTEXT(3)GLOBAL_UNCERTAINTY_ASSIGNED_CONTEXT((#9))GLOBAL_UNIT_ASSIGNED_CONTEXT((#8,#5,#7))REPRESENTATION_CONTEXT('','5950-1 IGUS E-chain triflex\S\. R Series TR.85.10 Protector (Screwed-on) STEP214'));
#12=CARTESIAN_POINT('',(0.,0.,0.));
#13=DIRECTION('',(0.,0.,1.));
#14=DIRECTION('',(1.,0.,0.));
#15=AXIS2_PLACEMENT_3D('',#12,#13,#14);
#27=CARTESIAN_POINT('',(0.,0.,2.));
#28=DIRECTION('',(0.,0.,-1.));
#29=DIRECTION('',(-1.,0.,0.));
#30=AXIS2_PLACEMENT_3D('',#27,#28,#29);
#31=TOROIDAL_SURFACE('',#30,49.25,2.);
#32=CARTESIAN_POINT('',(-49.25,-0.,-0.));
#33=VERTEX_POINT('',#32);
#34=CARTESIAN_POINT('',(-47.25,-0.,2.));
#35=VERTEX_POINT('',#34);
#36=CARTESIAN_POINT('',(-49.25,-0.,2.));
#37=DIRECTION('',(0.,-1.,0.));
#38=DIRECTION('',(-1.,-0.,0.));
#39=AXIS2_PLACEMENT_3D('',#36,#37,#38);
#40=CIRCLE('',#39,2.);
#41=EDGE_CURVE('',#33,#35,#40,.T.);
#42=ORIENTED_EDGE('',*,*,#41,.T.);
#43=CARTESIAN_POINT('',(47.25,0.,2.));
#44=VERTEX_POINT('',#43);
#45=CARTESIAN_POINT('',(0.,0.,2.));
#46=DIRECTION('',(0.,0.,-1.));
#47=DIRECTION('',(1.,0.,0.));
#48=AXIS2_PLACEMENT_3D('',#45,#46,#47);
#49=CIRCLE('',#48,47.25);
#50=EDGE_CURVE('',#44,#35,#49,.T.);
#51=ORIENTED_EDGE('',*,*,#50,.F.);
#52=CARTESIAN_POINT('',(49.25,0.,-0.));
#53=VERTEX_POINT('',#52);
#54=CARTESIAN_POINT('',(49.25,0.,2.));
#55=DIRECTION('',(0.,-1.,0.));
#56=DIRECTION('',(1.,0.,0.));
#57=AXIS2_PLACEMENT_3D('',#54,#55,#56);
#58=CIRCLE('',#57,2.);
#59=EDGE_CURVE('',#44,#53,#58,.T.);
#60=ORIENTED_EDGE('',*,*,#59,.T.);
#61=CARTESIAN_POINT('',(0.,0.,0.));
#62=DIRECTION('',(0.,0.,-1.));
#63=DIRECTION('',(1.,0.,0.));
#64=AXIS2_PLACEMENT_3D('',#61,#62,#63);
#65=CIRCLE('',#64,49.25);
#66=EDGE_CURVE('',#53,#33,#65,.T.);
#67=ORIENTED_EDGE('',*,*,#66,.T.);
#68=EDGE_LOOP('',(#42,#51,#60,#67));
#69=FACE_BOUND('',#68,.T.);
#70=ADVANCED_FACE('NONE',(#69),#31,.T.);
#71=CARTESIAN_POINT('',(0.,0.,9.75));
#72=DIRECTION('',(0.,0.,-1.));
#73=DIRECTION('',(-1.,0.,0.));
#74=AXIS2_PLACEMENT_3D('',#71,#72,#73);
#75=TOROIDAL_SURFACE('',#74,49.25,9.75);
#76=CARTESIAN_POINT('',(-59.,-0.,9.75));
#77=VERTEX_POINT('',#76);
#78=CARTESIAN_POINT('',(-49.25,-0.,9.75));
#79=DIRECTION('',(0.,-1.,0.));
#80=DIRECTION('',(-1.,-0.,0.));
#81=AXIS2_PLACEMENT_3D('',#78,#79,#80);
#82=CIRCLE('',#81,9.75);
#83=EDGE_CURVE('',#77,#33,#82,.T.);
#84=ORIENTED_EDGE('',*,*,#83,.T.);
#85=ORIENTED_EDGE('',*,*,#66,.F.);
#86=CARTESIAN_POINT('',(59.,0.,9.75));
#87=VERTEX_POINT('',#86);
#88=CARTESIAN_POINT('',(49.25,0.,9.75));
#89=DIRECTION('',(0.,-1.,0.));
#90=DIRECTION('',(1.,0.,0.));
#91=AXIS2_PLACEMENT_3D('',#88,#89,#90);
#92=CIRCLE('',#91,9.75);
#93=EDGE_CURVE('',#53,#87,#92,.T.);
#94=ORIENTED_EDGE('',*,*,#93,.T.);
#95=CARTESIAN_POINT('',(0.,0.,9.75));
#96=DIRECTION('',(0.,0.,-1.));
#97=DIRECTION('',(1.,0.,0.));
#98=AXIS2_PLACEMENT_3D('',#95,#96,#97);
#99=CIRCLE('',#98,59.);
#100=EDGE_CURVE('',#87,#77,#99,.T.);
#101=ORIENTED_EDGE('',*,*,#100,.T.);
#102=EDGE_LOOP('',(#84,#85,#94,#101));
#103=FACE_BOUND('',#102,.T.);
#104=ADVANCED_FACE('NONE',(#103),#75,.T.);
#105=CARTESIAN_POINT('',(0.,0.,29.5));
#106=DIRECTION('',(0.,0.,-1.));
#107=DIRECTION('',(1.,0.,0.));
#108=AXIS2_PLACEMENT_3D('',#105,#106,#107);
#109=CYLINDRICAL_SURFACE('',#108,59.);
#110=CARTESIAN_POINT('',(59.,0.,49.25));
#111=VERTEX_POINT('',#110);
#112=CARTESIAN_POINT('',(59.,0.,49.25));
#113=DIRECTION('',(0.,0.,-1.));
#114=VECTOR('',#113,39.5);
#115=LINE('',#112,#114);
#116=EDGE_CURVE('',#111,#87,#115,.T.);
#117=ORIENTED_EDGE('',*,*,#116,.T.);
#118=CARTESIAN_POINT('',(0.,0.,9.75));
#119=DIRECTION('',(0.,0.,-1.));
#120=DIRECTION('',(1.,0.,0.));
#121=AXIS2_PLACEMENT_3D('',#118,#119,#120);
#122=CIRCLE('',#121,59.);
#123=EDGE_CURVE('',#77,#87,#122,.T.);
#124=ORIENTED_EDGE('',*,*,#123,.F.);
#125=CARTESIAN_POINT('',(-59.,-0.,49.25));
#126=VERTEX_POINT('',#125);
#127=CARTESIAN_POINT('',(-59.,-0.,9.75));
#128=DIRECTION('',(0.,0.,1.));
#129=VECTOR('',#128,39.5);
#130=LINE('',#127,#129);
#131=EDGE_CURVE('',#77,#126,#130,.T.);
#132=ORIENTED_EDGE('',*,*,#131,.T.);
#133=CARTESIAN_POINT('',(0.,0.,49.25));
#134=DIRECTION('',(0.,0.,-1.));
#135=DIRECTION('',(1.,0.,0.));
#136=AXIS2_PLACEMENT_3D('',#133,#134,#135);
#137=CIRCLE('',#136,59.);
#138=EDGE_CURVE('',#126,#111,#137,.T.);
#139=ORIENTED_EDGE('',*,*,#138,.T.);
#140=EDGE_LOOP('',(#117,#124,#132,#139));
#141=FACE_BOUND('',#140,.T.);
#142=ADVANCED_FACE('NONE',(#141),#109,.T.);
#143=CARTESIAN_POINT('',(0.,0.,49.25));
#144=DIRECTION('',(0.,0.,-1.));
#145=DIRECTION('',(-1.,0.,0.));
#146=AXIS2_PLACEMENT_3D('',#143,#144,#145);
#147=TOROIDAL_SURFACE('',#146,49.25,9.75);
#148=CARTESIAN_POINT('',(-49.25,-0.,59.));
#149=VERTEX_POINT('',#148);
#150=CARTESIAN_POINT('',(-49.25,-0.,49.25));
#151=DIRECTION('',(0.,-1.,0.));
#152=DIRECTION('',(-1.,-0.,0.));
#153=AXIS2_PLACEMENT_3D('',#150,#151,#152);
#154=CIRCLE('',#153,9.75);
#155=EDGE_CURVE('',#149,#126,#154,.T.);
#156=ORIENTED_EDGE('',*,*,#155,.T.);
#157=CARTESIAN_POINT('',(0.,0.,49.25));
#158=DIRECTION('',(0.,0.,-1.));
#159=DIRECTION('',(1.,0.,0.));
#160=AXIS2_PLACEMENT_3D('',#157,#158,#159);
#161=CIRCLE('',#160,59.);
#162=EDGE_CURVE('',#111,#126,#161,.T.);
#163=ORIENTED_EDGE('',*,*,#162,.F.);
#164=CARTESIAN_POINT('',(49.25,0.,59.));
#165=VERTEX_POINT('',#164);
#166=CARTESIAN_POINT('',(49.25,0.,49.25));
#167=DIRECTION('',(0.,-1.,0.));
#168=DIRECTION('',(1.,0.,0.));
#169=AXIS2_PLACEMENT_3D('',#166,#167,#168);
#170=CIRCLE('',#169,9.75);
#171=EDGE_CURVE('',#111,#165,#170,.T.);
#172=ORIENTED_EDGE('',*,*,#171,.T.);
#173=CARTESIAN_POINT('',(0.,0.,59.));
#174=DIRECTION('',(0.,0.,-1.));
#175=DIRECTION('',(1.,0.,0.));
#176=AXIS2_PLACEMENT_3D('',#173,#174,#175);
#177=CIRCLE('',#176,49.25);
#178=EDGE_CURVE('',#165,#149,#177,.T.);
#179=ORIENTED_EDGE('',*,*,#178,.T.);
#180=EDGE_LOOP('',(#156,#163,#172,#179));
#181=FACE_BOUND('',#180,.T.);
#182=ADVANCED_FACE('NONE',(#181),#147,.T.);
#183=CARTESIAN_POINT('',(0.,0.,57.));
#184=DIRECTION('',(0.,0.,-1.));
#185=DIRECTION('',(-1.,0.,0.));
#186=AXIS2_PLACEMENT_3D('',#183,#184,#185);
#187=TOROIDAL_SURFACE('',#186,49.25,2.);
#188=CARTESIAN_POINT('',(-47.25,-0.,57.));
#189=VERTEX_POINT('',#188);
#190=CARTESIAN_POINT('',(-49.25,-0.,57.));
#191=DIRECTION('',(0.,-1.,0.));
#192=DIRECTION('',(-1.,-0.,0.));
#193=AXIS2_PLACEMENT_3D('',#190,#191,#192);
#194=CIRCLE('',#193,2.);
#195=EDGE_CURVE('',#189,#149,#194,.T.);
#196=ORIENTED_EDGE('',*,*,#195,.T.);
#197=ORIENTED_EDGE('',*,*,#178,.F.);
#198=CARTESIAN_POINT('',(47.25,0.,57.));
#199=VERTEX_POINT('',#198);
#200=CARTESIAN_POINT('',(49.25,0.,57.));
#201=DIRECTION('',(0.,-1.,0.));
#202=DIRECTION('',(1.,0.,0.));
#203=AXIS2_PLACEMENT_3D('',#200,#201,#202);
#204=CIRCLE('',#203,2.);
#205=EDGE_CURVE('',#165,#199,#204,.T.);
#206=ORIENTED_EDGE('',*,*,#205,.T.);
#207=CARTESIAN_POINT('',(0.,0.,57.));
#208=DIRECTION('',(0.,0.,-1.));
#209=DIRECTION('',(1.,0.,0.));
#210=AXIS2_PLACEMENT_3D('',#207,#208,#209);
#211=CIRCLE('',#210,47.25);
#212=EDGE_CURVE('',#199,#189,#211,.T.);
#213=ORIENTED_EDGE('',*,*,#212,.T.);
#214=EDGE_LOOP('',(#196,#197,#206,#213));
#215=FACE_BOUND('',#214,.T.);
#216=ADVANCED_FACE('NONE',(#215),#187,.T.);
#217=CARTESIAN_POINT('',(0.,0.,29.5));
#218=DIRECTION('',(0.,0.,-1.));
#219=DIRECTION('',(1.,0.,0.));
#220=AXIS2_PLACEMENT_3D('',#217,#218,#219);
#221=CYLINDRICAL_SURFACE('',#220,47.25);
#222=CARTESIAN_POINT('',(47.25,0.,57.));
#223=DIRECTION('',(0.,0.,-1.));
#224=VECTOR('',#223,55.);
#225=LINE('',#222,#224);
#226=EDGE_CURVE('',#199,#44,#225,.T.);
#227=ORIENTED_EDGE('',*,*,#226,.T.);
#228=ORIENTED_EDGE('',*,*,#50,.T.);
#229=CARTESIAN_POINT('',(-47.25,-0.,2.));
#230=DIRECTION('',(0.,0.,1.));
#231=VECTOR('',#230,55.);
#232=LINE('',#229,#231);
#233=EDGE_CURVE('',#35,#189,#232,.T.);
#234=ORIENTED_EDGE('',*,*,#233,.T.);
#235=ORIENTED_EDGE('',*,*,#212,.F.);
#236=EDGE_LOOP('',(#227,#228,#234,#235));
#237=FACE_BOUND('',#236,.T.);
#238=ADVANCED_FACE('NONE',(#237),#221,.F.);
#239=CARTESIAN_POINT('',(0.,0.,29.5));
#240=DIRECTION('',(0.,0.,-1.));
#241=DIRECTION('',(1.,0.,0.));
#242=AXIS2_PLACEMENT_3D('',#239,#240,#241);
#243=CYLINDRICAL_SURFACE('',#242,47.25);
#244=ORIENTED_EDGE('',*,*,#226,.F.);
#245=CARTESIAN_POINT('',(0.,0.,57.));
#246=DIRECTION('',(0.,0.,-1.));
#247=DIRECTION('',(1.,0.,0.));
#248=AXIS2_PLACEMENT_3D('',#245,#246,#247);
#249=CIRCLE('',#248,47.25);
#250=EDGE_CURVE('',#189,#199,#249,.T.);
#251=ORIENTED_EDGE('',*,*,#250,.F.);
#252=ORIENTED_EDGE('',*,*,#233,.F.);
#253=CARTESIAN_POINT('',(0.,0.,2.));
#254=DIRECTION('',(0.,0.,-1.));
#255=DIRECTION('',(1.,0.,0.));
#256=AXIS2_PLACEMENT_3D('',#253,#254,#255);
#257=CIRCLE('',#256,47.25);
#258=EDGE_CURVE('',#35,#44,#257,.T.);
#259=ORIENTED_EDGE('',*,*,#258,.T.);
#260=EDGE_LOOP('',(#244,#251,#252,#259));
#261=FACE_BOUND('',#260,.T.);
#262=ADVANCED_FACE('NONE',(#261),#243,.F.);
#263=CARTESIAN_POINT('',(0.,0.,57.));
#264=DIRECTION('',(0.,0.,-1.));
#265=DIRECTION('',(-1.,0.,0.));
#266=AXIS2_PLACEMENT_3D('',#263,#264,#265);
#267=TOROIDAL_SURFACE('',#266,49.25,2.);
#268=ORIENTED_EDGE('',*,*,#195,.F.);
#269=ORIENTED_EDGE('',*,*,#250,.T.);
#270=ORIENTED_EDGE('',*,*,#205,.F.);
#271=CARTESIAN_POINT('',(0.,0.,59.));
#272=DIRECTION('',(0.,0.,-1.));
#273=DIRECTION('',(1.,0.,0.));
#274=AXIS2_PLACEMENT_3D('',#271,#272,#273);
#275=CIRCLE('',#274,49.25);
#276=EDGE_CURVE('',#149,#165,#275,.T.);
#277=ORIENTED_EDGE('',*,*,#276,.F.);
#278=EDGE_LOOP('',(#268,#269,#270,#277));
#279=FACE_BOUND('',#278,.T.);
#280=ADVANCED_FACE('NONE',(#279),#267,.T.);
#281=CARTESIAN_POINT('',(0.,0.,49.25));
#282=DIRECTION('',(0.,0.,-1.));
#283=DIRECTION('',(-1.,0.,0.));
#284=AXIS2_PLACEMENT_3D('',#281,#282,#283);
#285=TOROIDAL_SURFACE('',#284,49.25,9.75);
#286=ORIENTED_EDGE('',*,*,#155,.F.);
#287=ORIENTED_EDGE('',*,*,#276,.T.);
#288=ORIENTED_EDGE('',*,*,#171,.F.);
#289=ORIENTED_EDGE('',*,*,#138,.F.);
#290=EDGE_LOOP('',(#286,#287,#288,#289));
#291=FACE_BOUND('',#290,.T.);
#292=ADVANCED_FACE('NONE',(#291),#285,.T.);
#293=CARTESIAN_POINT('',(0.,0.,29.5));
#294=DIRECTION('',(0.,0.,-1.));
#295=DIRECTION('',(1.,0.,0.));
#296=AXIS2_PLACEMENT_3D('',#293,#294,#295);
#297=CYLINDRICAL_SURFACE('',#296,59.);
#298=ORIENTED_EDGE('',*,*,#116,.F.);
#299=ORIENTED_EDGE('',*,*,#162,.T.);
#300=ORIENTED_EDGE('',*,*,#131,.F.);
#301=ORIENTED_EDGE('',*,*,#100,.F.);
#302=EDGE_LOOP('',(#298,#299,#300,#301));
#303=FACE_BOUND('',#302,.T.);
#304=ADVANCED_FACE('NONE',(#303),#297,.T.);
#305=CARTESIAN_POINT('',(0.,0.,9.75));
#306=DIRECTION('',(0.,0.,-1.));
#307=DIRECTION('',(-1.,0.,0.));
#308=AXIS2_PLACEMENT_3D('',#305,#306,#307);
#309=TOROIDAL_SURFACE('',#308,49.25,9.75);
#310=ORIENTED_EDGE('',*,*,#83,.F.);
#311=ORIENTED_EDGE('',*,*,#123,.T.);
#312=ORIENTED_EDGE('',*,*,#93,.F.);
#313=CARTESIAN_POINT('',(0.,0.,0.));
#314=DIRECTION('',(0.,0.,-1.));
#315=DIRECTION('',(1.,0.,0.));
#316=AXIS2_PLACEMENT_3D('',#313,#314,#315);
#317=CIRCLE('',#316,49.25);
#318=EDGE_CURVE('',#33,#53,#317,.T.);
#319=ORIENTED_EDGE('',*,*,#318,.F.);
#320=EDGE_LOOP('',(#310,#311,#312,#319));
#321=FACE_BOUND('',#320,.T.);
#322=ADVANCED_FACE('NONE',(#321),#309,.T.);
#323=CARTESIAN_POINT('',(0.,0.,2.));
#324=DIRECTION('',(0.,0.,-1.));
#325=DIRECTION('',(-1.,0.,0.));
#326=AXIS2_PLACEMENT_3D('',#323,#324,#325);
#327=TOROIDAL_SURFACE('',#326,49.25,2.);
#328=ORIENTED_EDGE('',*,*,#41,.F.);
#329=ORIENTED_EDGE('',*,*,#318,.T.);
#330=ORIENTED_EDGE('',*,*,#59,.F.);
#331=ORIENTED_EDGE('',*,*,#258,.F.);
#332=EDGE_LOOP('',(#328,#329,#330,#331));
#333=FACE_BOUND('',#332,.T.);
#334=ADVANCED_FACE('NONE',(#333),#327,.T.);
#335=CLOSED_SHELL('',(#70,#104,#142,#182,#216,#238,#262,#280,#292,#304,#322,#334));
#336=MANIFOLD_SOLID_BREP('Imported1',#335);
#337=COLOUR_RGB('',0.301960796,0.301960796,0.301960796);
#338=FILL_AREA_STYLE_COLOUR('',#337);
#339=FILL_AREA_STYLE('',(#338));
#340=SURFACE_STYLE_FILL_AREA(#339);
#341=SURFACE_SIDE_STYLE('',(#340));
#342=SURFACE_STYLE_USAGE(.BOTH.,#341);
#343=PRESENTATION_STYLE_ASSIGNMENT((#342));
#26=STYLED_ITEM('',(#343),#336);
#344=INTEGER_REPRESENTATION_ITEM('ATTRIB_BOUNDING_BOX_ALGORITHM',3);
#345=ID_ATTRIBUTE('SA #346',#346);
#346=SHAPE_ASPECT('properties','',#23,.F.);
#347=GEOMETRIC_ITEM_SPECIFIC_USAGE('','properties',#346,#17,#336);
#348=PROPERTY_DEFINITION('ATTRIB_BOUNDING_BOX_ALGORITHM','',#346);
#349=REPRESENTATION('',(#344),#10);
#350=PROPERTY_DEFINITION_REPRESENTATION(#348,#349);
#351=GENERAL_PROPERTY('','ATTRIB_BOUNDING_BOX_ALGORITHM','');
#352=GENERAL_PROPERTY_ASSOCIATION('','',#351,#348);
#16=SHAPE_REPRESENTATION('5950-1 IGUS E-chain triflex\S\. R Series TR.85.10 Protector (Screwed-on) STEP214',(#15),#10);
#17=ADVANCED_BREP_SHAPE_REPRESENTATION('5950-1 IGUS E-chain triflex\S\. R Series TR.85.10 Protector (Screwed-on) STEP214',(#336),#10);
#360=SHAPE_REPRESENTATION_RELATIONSHIP('','',#16,#17);
#361=CARTESIAN_POINT('',(0.,0.,0.));
#362=DIRECTION('',(0.,0.,1.));
#363=DIRECTION('',(1.,0.,0.));
#364=AXIS2_PLACEMENT_3D('',#361,#362,#363);
#366=MAPPED_ITEM('',#365,#364);
#365=REPRESENTATION_MAP(#364,#16);
#367=APPLICATION_CONTEXT('Managed model based 3d engineering');
#368=APPLICATION_PROTOCOL_DEFINITION('international standard','ap242_managed_model_based_3d_engineering',2013,#367);
#369=PRODUCT_CONTEXT('',#367,'mechanical');
#370=PRODUCT_DEFINITION_CONTEXT('part definition',#367,'design');
#24=PRODUCT('5950-1 IGUS E-chain triflex\S\. R Series TR.85.10 Protector (Screwed-on) STEP214','5950-1 IGUS E-chain triflex\S\. R Series TR.85.10 Protector (Screwed-on) STEP214','',(#369));
#371=PRODUCT_RELATED_PRODUCT_CATEGORY('part','',(#24));
#372=PRODUCT_DEFINITION_FORMATION_WITH_SPECIFIED_SOURCE('','',#24,.NOT_KNOWN.);
#25=PRODUCT_DEFINITION('design','',#372,#370);
#23=PRODUCT_DEFINITION_SHAPE('','',#25);
#373=SHAPE_DEFINITION_REPRESENTATION(#23,#16);
#11=DRAUGHTING_MODEL('',(#366),#10);
#1=MECHANICAL_DESIGN_GEOMETRIC_PRESENTATION_REPRESENTATION('',(#26),#10);
ENDSEC;
END-ISO-10303-21;
