ISO-10303-21;
HEADER;
/* Generated by software containing ST-Developer
 * from STEP Tools, Inc. (www.steptools.com) 
 */

FILE_DESCRIPTION(
/* description */ ('Alibre Inc.'),
/* implementation_level */ '2;1');

FILE_NAME(
/* name */ 'export-6F0F3DB4-7C14-4ED4-932A-B78F0DC663F4',
/* time_stamp */ '2022-04-12T08:54:30+02:00',
/* author */ (''),
/* organization */ (''),
/* preprocessor_version */ 'ST-DEVELOPER v17',
/* originating_system */ 'Alibre',
/* authorisation */ '');

FILE_SCHEMA (('AUTOMOTIVE_DESIGN'));
ENDSEC;

DATA;
#10=STYLED_ITEM('NAME_0',(#18),#481);
#11=MECHANICAL_DESIGN_GEOMETRIC_PRESENTATION_REPRESENTATION('NAME_0',(#10),
#33);
#12=COLOUR_RGB('',0.882352941176471,0.882352941176471,0.882352941176471);
#13=FILL_AREA_STYLE_COLOUR('NAME_0',#12);
#14=FILL_AREA_STYLE('NAME_0',(#13));
#15=SURFACE_STYLE_FILL_AREA(#14);
#16=SURFACE_SIDE_STYLE('NAME_0',(#15));
#17=SURFACE_STYLE_USAGE(.POSITIVE.,#16);
#18=PRESENTATION_STYLE_ASSIGNMENT((#17));
#19=PRODUCT_DEFINITION_CONTEXT('part definition',#26,'design');
#20=SHAPE_DEFINITION_REPRESENTATION(#21,#482);
#21=PRODUCT_DEFINITION_SHAPE('PRODUCT_VERSION_ID',
'PRODUCT_VERSION_DESCR',#22);
#22=PRODUCT_DEFINITION('PRODUCT_VERSION_ID','PRODUCT_VERSION_DESCR',#23,
#19);
#23=PRODUCT_DEFINITION_FORMATION_WITH_SPECIFIED_SOURCE(
'PRODUCT_VERSION_ID','PRODUCT_VERSION_DESCR',#28,.MADE.);
#24=PRODUCT_RELATED_PRODUCT_CATEGORY('part','part',(#28));
#25=APPLICATION_PROTOCOL_DEFINITION('Draft International Standard',
'automotive_design',1994,#26);
#26=APPLICATION_CONTEXT('automotive_Design');
#27=PRODUCT_CONTEXT('3D Mechanical Parts',#26,'mechanical');
#28=PRODUCT('1',
'5991 Eaton Moeller Pushbutton 22mm Clear Shield PAUSE Translucent (M2
2-XDL-W-X2)(218301)','',(#27));
#29=(
LENGTH_UNIT()
NAMED_UNIT(*)
SI_UNIT(.MILLI.,.METRE.)
);
#30=(
NAMED_UNIT(*)
PLANE_ANGLE_UNIT()
SI_UNIT($,.RADIAN.)
);
#31=(
NAMED_UNIT(*)
SI_UNIT($,.STERADIAN.)
SOLID_ANGLE_UNIT()
);
#32=UNCERTAINTY_MEASURE_WITH_UNIT(LENGTH_MEASURE(1.E-6),#29,
'DISTANCE_ACCURACY_VALUE',
'Maximum model space distance between geometric entities at asserted c
onnectivities');
#33=(
GEOMETRIC_REPRESENTATION_CONTEXT(3)
GLOBAL_UNCERTAINTY_ASSIGNED_CONTEXT((#32))
GLOBAL_UNIT_ASSIGNED_CONTEXT((#31,#30,#29))
REPRESENTATION_CONTEXT('ID1','3D')
);
#34=PLANE('',#394);
#35=PLANE('',#398);
#36=TOROIDAL_SURFACE('',#371,9.35746310843806,1.00000000000001);
#37=TOROIDAL_SURFACE('',#376,6.02810000000001,5.);
#38=TOROIDAL_SURFACE('',#388,6.02810000000001,5.);
#39=TOROIDAL_SURFACE('',#389,9.35746310843806,1.00000000000001);
#40=CONICAL_SURFACE('',#367,9.76690746538556,1.39626340159546);
#41=CONICAL_SURFACE('',#391,9.76690746538556,1.39626340159546);
#42=VECTOR('',#277,1.);
#43=VECTOR('',#280,1.);
#44=VECTOR('',#285,1.);
#45=VECTOR('',#288,1.);
#46=VECTOR('',#293,1.);
#47=VECTOR('',#298,1.);
#48=LINE('',#410,#42);
#49=LINE('',#415,#43);
#50=LINE('',#419,#44);
#51=LINE('',#424,#45);
#52=LINE('',#428,#46);
#53=LINE('',#434,#47);
#54=CYLINDRICAL_SURFACE('',#361,11.2);
#55=CYLINDRICAL_SURFACE('',#364,10.35);
#56=CYLINDRICAL_SURFACE('',#392,10.35);
#57=CYLINDRICAL_SURFACE('',#396,11.2);
#58=VERTEX_POINT('',#404);
#59=VERTEX_POINT('',#405);
#60=VERTEX_POINT('',#407);
#61=VERTEX_POINT('',#411);
#62=VERTEX_POINT('',#412);
#63=VERTEX_POINT('',#414);
#64=VERTEX_POINT('',#416);
#65=VERTEX_POINT('',#420);
#66=VERTEX_POINT('',#421);
#67=VERTEX_POINT('',#423);
#68=VERTEX_POINT('',#425);
#69=VERTEX_POINT('',#429);
#70=VERTEX_POINT('',#431);
#71=VERTEX_POINT('',#433);
#72=VERTEX_POINT('',#438);
#73=VERTEX_POINT('',#440);
#74=VERTEX_POINT('',#442);
#75=VERTEX_POINT('',#446);
#76=VERTEX_POINT('',#448);
#77=VERTEX_POINT('',#450);
#78=VERTEX_POINT('',#453);
#79=VERTEX_POINT('',#457);
#80=VERTEX_POINT('',#473);
#81=CIRCLE('',#358,56.9999999999993);
#82=CIRCLE('',#359,56.9999999999993);
#83=CIRCLE('',#360,10.6301458127346);
#84=CIRCLE('',#362,11.2);
#85=CIRCLE('',#363,11.2);
#86=CIRCLE('',#365,10.35);
#87=CIRCLE('',#366,10.35);
#88=CIRCLE('',#368,9.18381493077112);
#89=CIRCLE('',#369,9.18381493077112);
#90=CIRCLE('',#370,10.35);
#91=CIRCLE('',#372,1.00000000000001);
#92=CIRCLE('',#373,8.80256925703171);
#93=CIRCLE('',#374,1.00000000000001);
#94=CIRCLE('',#375,9.18381493077112);
#95=CIRCLE('',#377,5.);
#96=CIRCLE('',#378,6.58951614300314);
#97=CIRCLE('',#379,6.58951614300314);
#98=CIRCLE('',#380,5.);
#99=CIRCLE('',#381,8.80256925703171);
#100=CIRCLE('',#382,8.80256925703171);
#101=CIRCLE('',#384,58.2499999999988);
#102=CIRCLE('',#385,58.2499999999988);
#103=CIRCLE('',#386,6.58951614300314);
#104=CIRCLE('',#390,9.18381493077112);
#105=CIRCLE('',#393,10.35);
#106=CIRCLE('',#395,11.2);
#107=CIRCLE('',#397,11.2);
#108=CIRCLE('',#399,10.6301458127346);
#109=CIRCLE('',#400,10.6301458127346);
#110=EDGE_CURVE('',#58,#59,#81,.T.);
#111=EDGE_CURVE('',#60,#58,#82,.T.);
#112=EDGE_CURVE('',#60,#59,#83,.T.);
#113=EDGE_CURVE('',#61,#62,#48,.T.);
#114=EDGE_CURVE('',#61,#63,#84,.T.);
#115=EDGE_CURVE('',#64,#63,#49,.T.);
#116=EDGE_CURVE('',#62,#64,#85,.T.);
#117=EDGE_CURVE('',#65,#66,#50,.T.);
#118=EDGE_CURVE('',#67,#65,#86,.T.);
#119=EDGE_CURVE('',#68,#67,#51,.T.);
#120=EDGE_CURVE('',#68,#66,#87,.T.);
#121=EDGE_CURVE('',#69,#66,#52,.T.);
#122=EDGE_CURVE('',#69,#70,#88,.T.);
#123=EDGE_CURVE('',#70,#71,#89,.T.);
#124=EDGE_CURVE('',#68,#71,#53,.T.);
#125=EDGE_CURVE('',#66,#68,#90,.T.);
#126=EDGE_CURVE('',#72,#70,#91,.T.);
#127=EDGE_CURVE('',#72,#73,#92,.T.);
#128=EDGE_CURVE('',#74,#73,#93,.T.);
#129=EDGE_CURVE('',#71,#74,#94,.T.);
#130=EDGE_CURVE('',#75,#73,#95,.T.);
#131=EDGE_CURVE('',#75,#76,#96,.T.);
#132=EDGE_CURVE('',#76,#77,#97,.T.);
#133=EDGE_CURVE('',#72,#77,#98,.T.);
#134=EDGE_CURVE('',#78,#72,#99,.T.);
#135=EDGE_CURVE('',#73,#78,#100,.T.);
#136=EDGE_CURVE('',#77,#79,#101,.T.);
#137=EDGE_CURVE('',#79,#75,#102,.T.);
#138=EDGE_CURVE('',#77,#75,#103,.T.);
#139=EDGE_CURVE('',#74,#69,#104,.T.);
#140=EDGE_CURVE('',#65,#67,#105,.T.);
#141=EDGE_CURVE('',#63,#61,#106,.T.);
#142=EDGE_CURVE('',#64,#62,#107,.T.);
#143=EDGE_CURVE('',#80,#60,#108,.T.);
#144=EDGE_CURVE('',#59,#80,#109,.T.);
#145=ORIENTED_EDGE('',*,*,#110,.F.);
#146=ORIENTED_EDGE('',*,*,#111,.F.);
#147=ORIENTED_EDGE('',*,*,#112,.T.);
#148=ORIENTED_EDGE('',*,*,#113,.F.);
#149=ORIENTED_EDGE('',*,*,#114,.T.);
#150=ORIENTED_EDGE('',*,*,#115,.F.);
#151=ORIENTED_EDGE('',*,*,#116,.F.);
#152=ORIENTED_EDGE('',*,*,#117,.F.);
#153=ORIENTED_EDGE('',*,*,#118,.F.);
#154=ORIENTED_EDGE('',*,*,#119,.F.);
#155=ORIENTED_EDGE('',*,*,#120,.T.);
#156=ORIENTED_EDGE('',*,*,#121,.F.);
#157=ORIENTED_EDGE('',*,*,#122,.T.);
#158=ORIENTED_EDGE('',*,*,#123,.T.);
#159=ORIENTED_EDGE('',*,*,#124,.F.);
#160=ORIENTED_EDGE('',*,*,#125,.F.);
#161=ORIENTED_EDGE('',*,*,#126,.F.);
#162=ORIENTED_EDGE('',*,*,#127,.T.);
#163=ORIENTED_EDGE('',*,*,#128,.F.);
#164=ORIENTED_EDGE('',*,*,#129,.F.);
#165=ORIENTED_EDGE('',*,*,#123,.F.);
#166=ORIENTED_EDGE('',*,*,#130,.F.);
#167=ORIENTED_EDGE('',*,*,#131,.T.);
#168=ORIENTED_EDGE('',*,*,#132,.T.);
#169=ORIENTED_EDGE('',*,*,#133,.F.);
#170=ORIENTED_EDGE('',*,*,#134,.F.);
#171=ORIENTED_EDGE('',*,*,#135,.F.);
#172=ORIENTED_EDGE('',*,*,#136,.T.);
#173=ORIENTED_EDGE('',*,*,#137,.T.);
#174=ORIENTED_EDGE('',*,*,#138,.F.);
#175=ORIENTED_EDGE('',*,*,#136,.F.);
#176=ORIENTED_EDGE('',*,*,#132,.F.);
#177=ORIENTED_EDGE('',*,*,#131,.F.);
#178=ORIENTED_EDGE('',*,*,#137,.F.);
#179=ORIENTED_EDGE('',*,*,#130,.T.);
#180=ORIENTED_EDGE('',*,*,#127,.F.);
#181=ORIENTED_EDGE('',*,*,#133,.T.);
#182=ORIENTED_EDGE('',*,*,#138,.T.);
#183=ORIENTED_EDGE('',*,*,#126,.T.);
#184=ORIENTED_EDGE('',*,*,#122,.F.);
#185=ORIENTED_EDGE('',*,*,#139,.F.);
#186=ORIENTED_EDGE('',*,*,#128,.T.);
#187=ORIENTED_EDGE('',*,*,#135,.T.);
#188=ORIENTED_EDGE('',*,*,#134,.T.);
#189=ORIENTED_EDGE('',*,*,#121,.T.);
#190=ORIENTED_EDGE('',*,*,#120,.F.);
#191=ORIENTED_EDGE('',*,*,#124,.T.);
#192=ORIENTED_EDGE('',*,*,#129,.T.);
#193=ORIENTED_EDGE('',*,*,#139,.T.);
#194=ORIENTED_EDGE('',*,*,#117,.T.);
#195=ORIENTED_EDGE('',*,*,#125,.T.);
#196=ORIENTED_EDGE('',*,*,#119,.T.);
#197=ORIENTED_EDGE('',*,*,#140,.F.);
#198=ORIENTED_EDGE('',*,*,#114,.F.);
#199=ORIENTED_EDGE('',*,*,#141,.F.);
#200=ORIENTED_EDGE('',*,*,#140,.T.);
#201=ORIENTED_EDGE('',*,*,#118,.T.);
#202=ORIENTED_EDGE('',*,*,#113,.T.);
#203=ORIENTED_EDGE('',*,*,#142,.F.);
#204=ORIENTED_EDGE('',*,*,#115,.T.);
#205=ORIENTED_EDGE('',*,*,#141,.T.);
#206=ORIENTED_EDGE('',*,*,#143,.F.);
#207=ORIENTED_EDGE('',*,*,#144,.F.);
#208=ORIENTED_EDGE('',*,*,#112,.F.);
#209=ORIENTED_EDGE('',*,*,#116,.T.);
#210=ORIENTED_EDGE('',*,*,#142,.T.);
#211=ORIENTED_EDGE('',*,*,#110,.T.);
#212=ORIENTED_EDGE('',*,*,#144,.T.);
#213=ORIENTED_EDGE('',*,*,#143,.T.);
#214=ORIENTED_EDGE('',*,*,#111,.T.);
#215=EDGE_LOOP('',(#145,#146,#147));
#216=EDGE_LOOP('',(#148,#149,#150,#151));
#217=EDGE_LOOP('',(#152,#153,#154,#155));
#218=EDGE_LOOP('',(#156,#157,#158,#159,#160));
#219=EDGE_LOOP('',(#161,#162,#163,#164,#165));
#220=EDGE_LOOP('',(#166,#167,#168,#169,#170,#171));
#221=EDGE_LOOP('',(#172,#173,#174));
#222=EDGE_LOOP('',(#175,#176,#177,#178));
#223=EDGE_LOOP('',(#179,#180,#181,#182));
#224=EDGE_LOOP('',(#183,#184,#185,#186,#187,#188));
#225=EDGE_LOOP('',(#189,#190,#191,#192,#193));
#226=EDGE_LOOP('',(#194,#195,#196,#197));
#227=EDGE_LOOP('',(#198,#199));
#228=EDGE_LOOP('',(#200,#201));
#229=EDGE_LOOP('',(#202,#203,#204,#205));
#230=EDGE_LOOP('',(#206,#207,#208));
#231=EDGE_LOOP('',(#209,#210));
#232=EDGE_LOOP('',(#211,#212,#213,#214));
#233=FACE_BOUND('',#215,.T.);
#234=FACE_BOUND('',#216,.T.);
#235=FACE_BOUND('',#217,.T.);
#236=FACE_BOUND('',#218,.T.);
#237=FACE_BOUND('',#219,.T.);
#238=FACE_BOUND('',#220,.T.);
#239=FACE_BOUND('',#221,.T.);
#240=FACE_BOUND('',#222,.T.);
#241=FACE_BOUND('',#223,.T.);
#242=FACE_BOUND('',#224,.T.);
#243=FACE_BOUND('',#225,.T.);
#244=FACE_BOUND('',#226,.T.);
#245=FACE_BOUND('',#227,.T.);
#246=FACE_BOUND('',#228,.T.);
#247=FACE_BOUND('',#229,.T.);
#248=FACE_BOUND('',#230,.T.);
#249=FACE_BOUND('',#231,.T.);
#250=FACE_BOUND('',#232,.T.);
#251=ADVANCED_FACE('',(#233),#476,.F.);
#252=ADVANCED_FACE('',(#234),#54,.T.);
#253=ADVANCED_FACE('',(#235),#55,.F.);
#254=ADVANCED_FACE('',(#236),#40,.T.);
#255=ADVANCED_FACE('',(#237),#36,.F.);
#256=ADVANCED_FACE('',(#238),#37,.T.);
#257=ADVANCED_FACE('',(#239),#477,.T.);
#258=ADVANCED_FACE('',(#240),#478,.T.);
#259=ADVANCED_FACE('',(#241),#38,.T.);
#260=ADVANCED_FACE('',(#242),#39,.F.);
#261=ADVANCED_FACE('',(#243),#41,.T.);
#262=ADVANCED_FACE('',(#244),#56,.F.);
#263=ADVANCED_FACE('',(#245,#246),#34,.T.);
#264=ADVANCED_FACE('',(#247),#57,.T.);
#265=ADVANCED_FACE('',(#248,#249),#35,.T.);
#266=ADVANCED_FACE('',(#250),#479,.F.);
#267=DIRECTION('',(0.,0.,1.));
#268=DIRECTION('',(1.,0.,0.));
#269=DIRECTION('',(-1.22460635382238E-16,-1.,0.));
#270=DIRECTION('',(0.,0.,-56.9999999999993));
#271=DIRECTION('',(-1.22460635382238E-16,-1.,0.));
#272=DIRECTION('',(0.,0.,-56.9999999999993));
#273=DIRECTION('',(0.,0.,1.));
#274=DIRECTION('',(-2.60354882086662E-15,10.6301458127346,0.));
#275=DIRECTION('',(0.,0.,-1.));
#276=DIRECTION('',(-2.74311823256212E-15,11.2,0.));
#277=DIRECTION('',(0.,0.,1.));
#278=DIRECTION('',(0.,0.,1.));
#279=DIRECTION('',(-2.74311823256212E-15,11.2,0.));
#280=DIRECTION('',(0.,0.,-1.));
#281=DIRECTION('',(0.,0.,1.));
#282=DIRECTION('',(-2.74311823256212E-15,11.2,0.));
#283=DIRECTION('',(0.,0.,-1.));
#284=DIRECTION('',(-2.53493515241232E-15,10.35,0.));
#285=DIRECTION('',(0.,0.,1.));
#286=DIRECTION('',(0.,0.,1.));
#287=DIRECTION('',(-2.53493515241232E-15,10.35,0.));
#288=DIRECTION('',(-1.08395654196681E-14,0.,-1.));
#289=DIRECTION('',(0.,0.,1.));
#290=DIRECTION('',(-2.53493515241232E-15,10.35,0.));
#291=DIRECTION('',(0.,0.,1.));
#292=DIRECTION('',(-2.39212338786127E-15,9.76690746538556,0.));
#293=DIRECTION('',(-3.58007064828628E-16,0.984807753012208,0.17364817766693));
#294=DIRECTION('',(0.,0.,1.));
#295=DIRECTION('',(-2.24931162331022E-15,9.18381493077112,0.));
#296=DIRECTION('',(0.,0.,1.));
#297=DIRECTION('',(-2.24931162331022E-15,9.18381493077112,0.));
#298=DIRECTION('',(-1.87743077121866E-14,0.984807753012208,-0.17364817766693));
#299=DIRECTION('',(0.,0.,1.));
#300=DIRECTION('',(-2.53493515241232E-15,10.35,0.));
#301=DIRECTION('',(0.,0.,1.));
#302=DIRECTION('',(-1.22460635382238E-16,-1.,0.));
#303=DIRECTION('',(-1.00000000000001,1.22460635382239E-16,0.));
#304=DIRECTION('',(0.,0.,1.));
#305=DIRECTION('',(-2.15593644842451E-15,8.80256925703171,0.));
#306=DIRECTION('',(-1.22460635382238E-16,-1.,0.));
#307=DIRECTION('',(1.00000000000001,-1.22460635382239E-16,0.));
#308=DIRECTION('',(0.,0.,1.));
#309=DIRECTION('',(-2.24931162331022E-15,9.18381493077112,0.));
#310=DIRECTION('',(0.,0.,1.));
#311=DIRECTION('',(-1.22460635382238E-16,-1.,0.));
#312=DIRECTION('',(5.,-6.1230317691119E-16,0.));
#313=DIRECTION('',(0.,0.,1.));
#314=DIRECTION('',(-1.61391266746735E-15,6.58951614300314,0.));
#315=DIRECTION('',(0.,0.,1.));
#316=DIRECTION('',(-1.61391266746735E-15,6.58951614300314,0.));
#317=DIRECTION('',(-1.22460635382238E-16,-1.,0.));
#318=DIRECTION('',(-5.,6.1230317691119E-16,0.));
#319=DIRECTION('',(0.,0.,1.));
#320=DIRECTION('',(-2.15593644842451E-15,8.80256925703171,0.));
#321=DIRECTION('',(0.,0.,1.));
#322=DIRECTION('',(-2.15593644842451E-15,8.80256925703171,0.));
#323=DIRECTION('',(0.,0.,1.));
#324=DIRECTION('',(1.,0.,0.));
#325=DIRECTION('',(-1.22460635382238E-16,-1.,0.));
#326=DIRECTION('',(0.,0.,58.2499999999988));
#327=DIRECTION('',(-1.22460635382238E-16,-1.,0.));
#328=DIRECTION('',(0.,0.,58.2499999999988));
#329=DIRECTION('',(0.,0.,1.));
#330=DIRECTION('',(-1.61391266746735E-15,6.58951614300314,0.));
#331=DIRECTION('',(0.,0.,1.));
#332=DIRECTION('',(1.,0.,0.));
#333=DIRECTION('',(0.,0.,1.));
#334=DIRECTION('',(0.,0.,1.));
#335=DIRECTION('',(0.,0.,1.));
#336=DIRECTION('',(-2.24931162331022E-15,9.18381493077112,0.));
#337=DIRECTION('',(0.,0.,1.));
#338=DIRECTION('',(-2.39212338786127E-15,9.76690746538556,0.));
#339=DIRECTION('',(0.,0.,-1.));
#340=DIRECTION('',(-2.53493515241232E-15,10.35,0.));
#341=DIRECTION('',(0.,0.,1.));
#342=DIRECTION('',(-2.53493515241232E-15,10.35,0.));
#343=DIRECTION('',(0.,0.,-1.));
#344=DIRECTION('',(0.,0.,1.));
#345=DIRECTION('',(-2.74311823256212E-15,11.2,0.));
#346=DIRECTION('',(0.,0.,-1.));
#347=DIRECTION('',(-2.74311823256212E-15,11.2,0.));
#348=DIRECTION('',(0.,0.,1.));
#349=DIRECTION('',(-2.74311823256212E-15,11.2,0.));
#350=DIRECTION('',(-2.653064336377E-29,1.08323149234689E-13,1.));
#351=DIRECTION('',(0.,0.,1.));
#352=DIRECTION('',(-2.60354882086662E-15,10.6301458127346,0.));
#353=DIRECTION('',(0.,0.,1.));
#354=DIRECTION('',(-2.60354882086662E-15,10.6301458127346,0.));
#355=DIRECTION('',(0.,0.,1.));
#356=DIRECTION('',(1.,0.,0.));
#357=AXIS2_PLACEMENT_3D('',#402,#267,#268);
#358=AXIS2_PLACEMENT_3D('',#403,#269,#270);
#359=AXIS2_PLACEMENT_3D('',#406,#271,#272);
#360=AXIS2_PLACEMENT_3D('',#408,#273,#274);
#361=AXIS2_PLACEMENT_3D('',#409,#275,#276);
#362=AXIS2_PLACEMENT_3D('',#413,#278,#279);
#363=AXIS2_PLACEMENT_3D('',#417,#281,#282);
#364=AXIS2_PLACEMENT_3D('',#418,#283,#284);
#365=AXIS2_PLACEMENT_3D('',#422,#286,#287);
#366=AXIS2_PLACEMENT_3D('',#426,#289,#290);
#367=AXIS2_PLACEMENT_3D('',#427,#291,#292);
#368=AXIS2_PLACEMENT_3D('',#430,#294,#295);
#369=AXIS2_PLACEMENT_3D('',#432,#296,#297);
#370=AXIS2_PLACEMENT_3D('',#435,#299,#300);
#371=AXIS2_PLACEMENT_3D('',#436,#301,$);
#372=AXIS2_PLACEMENT_3D('',#437,#302,#303);
#373=AXIS2_PLACEMENT_3D('',#439,#304,#305);
#374=AXIS2_PLACEMENT_3D('',#441,#306,#307);
#375=AXIS2_PLACEMENT_3D('',#443,#308,#309);
#376=AXIS2_PLACEMENT_3D('',#444,#310,$);
#377=AXIS2_PLACEMENT_3D('',#445,#311,#312);
#378=AXIS2_PLACEMENT_3D('',#447,#313,#314);
#379=AXIS2_PLACEMENT_3D('',#449,#315,#316);
#380=AXIS2_PLACEMENT_3D('',#451,#317,#318);
#381=AXIS2_PLACEMENT_3D('',#452,#319,#320);
#382=AXIS2_PLACEMENT_3D('',#454,#321,#322);
#383=AXIS2_PLACEMENT_3D('',#455,#323,#324);
#384=AXIS2_PLACEMENT_3D('',#456,#325,#326);
#385=AXIS2_PLACEMENT_3D('',#458,#327,#328);
#386=AXIS2_PLACEMENT_3D('',#459,#329,#330);
#387=AXIS2_PLACEMENT_3D('',#460,#331,#332);
#388=AXIS2_PLACEMENT_3D('',#461,#333,$);
#389=AXIS2_PLACEMENT_3D('',#462,#334,$);
#390=AXIS2_PLACEMENT_3D('',#463,#335,#336);
#391=AXIS2_PLACEMENT_3D('',#464,#337,#338);
#392=AXIS2_PLACEMENT_3D('',#465,#339,#340);
#393=AXIS2_PLACEMENT_3D('',#466,#341,#342);
#394=AXIS2_PLACEMENT_3D('',#467,#343,$);
#395=AXIS2_PLACEMENT_3D('',#468,#344,#345);
#396=AXIS2_PLACEMENT_3D('',#469,#346,#347);
#397=AXIS2_PLACEMENT_3D('',#470,#348,#349);
#398=AXIS2_PLACEMENT_3D('',#471,#350,$);
#399=AXIS2_PLACEMENT_3D('',#472,#351,#352);
#400=AXIS2_PLACEMENT_3D('',#474,#353,#354);
#401=AXIS2_PLACEMENT_3D('',#475,#355,#356);
#402=CARTESIAN_POINT('',(0.,0.,58.4999999999992));
#403=CARTESIAN_POINT('',(0.,0.,58.4999999999992));
#404=CARTESIAN_POINT('',(-1.26565424807266E-14,-2.34634071249709E-29,1.4999999999999));
#405=CARTESIAN_POINT('',(10.6301458127347,-7.68335462774966E-14,2.50000000000056));
#406=CARTESIAN_POINT('',(0.,0.,58.4999999999992));
#407=CARTESIAN_POINT('',(-10.6301458127347,2.01847281256916E-14,2.50000000000056));
#408=CARTESIAN_POINT('',(0.,0.,2.50000000000006));
#409=CARTESIAN_POINT('',(0.,0.,1.25));
#410=CARTESIAN_POINT('',(-1.37151381751709E-15,11.2,0.));
#411=CARTESIAN_POINT('',(-1.37151381751708E-15,11.2,0.));
#412=CARTESIAN_POINT('',(-1.37151381751708E-15,11.2,2.5));
#413=CARTESIAN_POINT('',(0.,0.,0.));
#414=CARTESIAN_POINT('',(2.74311823256212E-15,-11.2,0.));
#415=CARTESIAN_POINT('',(2.74311823256212E-15,-11.2,2.50000000000121));
#416=CARTESIAN_POINT('',(2.74311823256212E-15,-11.2,2.50000000000121));
#417=CARTESIAN_POINT('',(0.,0.,2.5));
#418=CARTESIAN_POINT('',(0.,0.,0.895605347628578));
#419=CARTESIAN_POINT('',(-1.26742571529481E-15,10.35,0.));
#420=CARTESIAN_POINT('',(-1.26742571529481E-15,10.35,0.));
#421=CARTESIAN_POINT('',(-1.26742571529481E-15,10.35,1.79121069525716));
#422=CARTESIAN_POINT('',(0.,0.,0.));
#423=CARTESIAN_POINT('',(1.17275817963086E-14,-10.35,-5.55111512312578E-17));
#424=CARTESIAN_POINT('',(2.19508806640614E-14,-10.35,1.79121069525716));
#425=CARTESIAN_POINT('',(1.17275817963086E-14,-10.35,1.79121069525716));
#426=CARTESIAN_POINT('',(0.,0.,1.79121069525716));
#427=CARTESIAN_POINT('',(0.,0.,1.68839574915495));
#428=CARTESIAN_POINT('',(-8.43482572681852E-16,9.18381493077112,1.58558080305274));
#429=CARTESIAN_POINT('',(-8.43482572681848E-16,9.18381493077112,1.58558080305274));
#430=CARTESIAN_POINT('',(0.,0.,1.58558080305274));
#431=CARTESIAN_POINT('',(-9.18381493077112,-2.81136094735322E-16,1.58558080305274));
#432=CARTESIAN_POINT('',(0.,0.,1.58558080305274));
#433=CARTESIAN_POINT('',(1.75800617479647E-15,-9.18381493077112,1.58558080305274));
#434=CARTESIAN_POINT('',(2.19508806640614E-14,-10.35,1.79121069525716));
#435=CARTESIAN_POINT('',(0.,0.,1.79121069525716));
#436=CARTESIAN_POINT('',(0.,0.,0.600773050040519));
#437=CARTESIAN_POINT('',(-9.35746310843806,1.14592087782517E-15,0.600773050040519));
#438=CARTESIAN_POINT('',(-8.80256925703171,7.0781615215642E-16,1.43269420836711));
#439=CARTESIAN_POINT('',(0.,0.,1.43269420836711));
#440=CARTESIAN_POINT('',(8.80256925703171,-2.69518757761132E-16,1.43269420836711));
#441=CARTESIAN_POINT('',(9.35746310843806,-1.14592087782517E-15,0.600773050040519));
#442=CARTESIAN_POINT('',(9.18381493077112,-2.81191811092232E-16,1.58558080305274));
#443=CARTESIAN_POINT('',(0.,0.,1.58558080305274));
#444=CARTESIAN_POINT('',(0.,0.,5.59230000000001));
#445=CARTESIAN_POINT('',(6.02810000000001,-7.38204956147669E-16,5.59230000000001));
#446=CARTESIAN_POINT('',(6.58951614300317,-2.01759072067561E-16,0.6239187833082));
#447=CARTESIAN_POINT('',(0.,0.,0.623918783308248));
#448=CARTESIAN_POINT('',(2.01562393589965E-14,6.58951614300317,0.623918783308199));
#449=CARTESIAN_POINT('',(0.,0.,0.623918783308248));
#450=CARTESIAN_POINT('',(-6.58951614300317,-1.07467338652653E-13,0.623918783308201));
#451=CARTESIAN_POINT('',(-6.02810000000001,7.38204956147669E-16,5.59230000000001));
#452=CARTESIAN_POINT('',(0.,0.,1.43269420836711));
#453=CARTESIAN_POINT('',(-8.08467267589835E-16,8.80256925703171,1.43269420836711));
#454=CARTESIAN_POINT('',(0.,0.,1.43269420836711));
#455=CARTESIAN_POINT('',(0.,0.,58.4999999999987));
#456=CARTESIAN_POINT('',(0.,0.,58.4999999999987));
#457=CARTESIAN_POINT('',(-2.58681964737656E-14,3.38634291948132E-30,0.249999999999901));
#458=CARTESIAN_POINT('',(0.,0.,58.4999999999987));
#459=CARTESIAN_POINT('',(0.,0.,0.623918783308248));
#460=CARTESIAN_POINT('',(0.,0.,58.4999999999987));
#461=CARTESIAN_POINT('',(0.,0.,5.59230000000001));
#462=CARTESIAN_POINT('',(0.,0.,0.600773050040519));
#463=CARTESIAN_POINT('',(0.,0.,1.58558080305274));
#464=CARTESIAN_POINT('',(0.,0.,1.68839574915495));
#465=CARTESIAN_POINT('',(0.,0.,0.895605347628578));
#466=CARTESIAN_POINT('',(0.,0.,0.));
#467=CARTESIAN_POINT('',(-2.63902669248722E-15,10.775,0.));
#468=CARTESIAN_POINT('',(0.,0.,0.));
#469=CARTESIAN_POINT('',(0.,0.,1.25));
#470=CARTESIAN_POINT('',(0.,0.,2.5));
#471=CARTESIAN_POINT('',(-2.67333352671438E-15,10.9150729063673,2.50000000000003));
#472=CARTESIAN_POINT('',(0.,0.,2.50000000000006));
#473=CARTESIAN_POINT('',(1.38404646795171E-15,10.6301458127346,2.49999999999998));
#474=CARTESIAN_POINT('',(0.,0.,2.50000000000006));
#475=CARTESIAN_POINT('',(0.,0.,58.4999999999992));
#476=SPHERICAL_SURFACE('',#357,56.9999999999993);
#477=SPHERICAL_SURFACE('',#383,58.2499999999988);
#478=SPHERICAL_SURFACE('',#387,58.2499999999988);
#479=SPHERICAL_SURFACE('',#401,56.9999999999993);
#480=CLOSED_SHELL('',(#251,#252,#253,#254,#255,#256,#257,#258,#259,#260,
#261,#262,#263,#264,#265,#266));
#481=MANIFOLD_SOLID_BREP('',#480);
#482=ADVANCED_BREP_SHAPE_REPRESENTATION('',(#481),#33);
ENDSEC;
END-ISO-10303-21;
