ISO-10303-21;
HEADER;
/* Generated by software containing ST-Developer
 * from STEP Tools, Inc. (www.steptools.com) 
 */

FILE_DESCRIPTION(
/* description */ ('Alibre Inc.'),
/* implementation_level */ '2;1');

FILE_NAME(
/* name */ 'export-A5919FFE-20C3-4FC8-97E1-B1F895BE9430',
/* time_stamp */ '2023-07-20T09:13:25+02:00',
/* author */ (''),
/* organization */ (''),
/* preprocessor_version */ 'ST-DEVELOPER v17',
/* originating_system */ 'Alibre',
/* authorisation */ '');

FILE_SCHEMA (('AUTOMOTIVE_DESIGN'));
ENDSEC;

DATA;
#10=STYLED_ITEM('NAME_0',(#18),#637);
#11=MECHANICAL_DESIGN_GEOMETRIC_PRESENTATION_REPRESENTATION('NAME_0',(#10),
#33);
#12=COLOUR_RGB('',0.529411764705882,0.549019607843137,0.549019607843137);
#13=FILL_AREA_STYLE_COLOUR('NAME_0',#12);
#14=FILL_AREA_STYLE('NAME_0',(#13));
#15=SURFACE_STYLE_FILL_AREA(#14);
#16=SURFACE_SIDE_STYLE('NAME_0',(#15));
#17=SURFACE_STYLE_USAGE(.POSITIVE.,#16);
#18=PRESENTATION_STYLE_ASSIGNMENT((#17));
#19=PRODUCT_DEFINITION_CONTEXT('part definition',#26,'design');
#20=SHAPE_DEFINITION_REPRESENTATION(#21,#638);
#21=PRODUCT_DEFINITION_SHAPE('PRODUCT_VERSION_ID',
'PRODUCT_VERSION_DESCR',#22);
#22=PRODUCT_DEFINITION('PRODUCT_VERSION_ID','PRODUCT_VERSION_DESCR',#23,
#19);
#23=PRODUCT_DEFINITION_FORMATION_WITH_SPECIFIED_SOURCE(
'PRODUCT_VERSION_ID','PRODUCT_VERSION_DESCR',#28,.MADE.);
#24=PRODUCT_RELATED_PRODUCT_CATEGORY('part','part',(#28));
#25=APPLICATION_PROTOCOL_DEFINITION('Draft International Standard',
'automotive_design',1994,#26);
#26=APPLICATION_CONTEXT('automotive_Design');
#27=PRODUCT_CONTEXT('3D Mechanical Parts',#26,'mechanical');
#28=PRODUCT('6042-1 ATC & QTC flange end stop, 18x102x3mm STEP214',
'6042 ATC & QTC flange end stop, 18x102x3mm','',(#27));
#29=(
LENGTH_UNIT()
NAMED_UNIT(*)
SI_UNIT(.MILLI.,.METRE.)
);
#30=(
NAMED_UNIT(*)
PLANE_ANGLE_UNIT()
SI_UNIT($,.RADIAN.)
);
#31=(
NAMED_UNIT(*)
SI_UNIT($,.STERADIAN.)
SOLID_ANGLE_UNIT()
);
#32=UNCERTAINTY_MEASURE_WITH_UNIT(LENGTH_MEASURE(1.E-6),#29,
'DISTANCE_ACCURACY_VALUE',
'Maximum model space distance between geometric entities at asserted c
onnectivities');
#33=(
GEOMETRIC_REPRESENTATION_CONTEXT(3)
GLOBAL_UNCERTAINTY_ASSIGNED_CONTEXT((#32))
GLOBAL_UNIT_ASSIGNED_CONTEXT((#31,#30,#29))
REPRESENTATION_CONTEXT('ID1','3D')
);
#34=PLANE('',#377);
#35=PLANE('',#378);
#36=PLANE('',#379);
#37=PLANE('',#380);
#38=PLANE('',#381);
#39=PLANE('',#382);
#40=PLANE('',#393);
#41=VECTOR('',#418,1.);
#42=VECTOR('',#421,1.);
#43=VECTOR('',#426,1.);
#44=VECTOR('',#429,1.);
#45=VECTOR('',#431,1.);
#46=VECTOR('',#432,1.);
#47=VECTOR('',#433,1.);
#48=VECTOR('',#434,1.);
#49=VECTOR('',#436,1.);
#50=VECTOR('',#437,1.);
#51=VECTOR('',#438,1.);
#52=VECTOR('',#439,1.);
#53=VECTOR('',#441,1.);
#54=VECTOR('',#442,1.);
#55=VECTOR('',#443,1.);
#56=VECTOR('',#445,1.);
#57=VECTOR('',#446,1.);
#58=VECTOR('',#447,1.);
#59=VECTOR('',#448,1.);
#60=VECTOR('',#450,1.);
#61=VECTOR('',#451,1.);
#62=VECTOR('',#452,1.);
#63=VECTOR('',#453,1.);
#64=VECTOR('',#502,1.);
#65=VECTOR('',#503,1.);
#66=VECTOR('',#506,1.);
#67=VECTOR('',#507,1.);
#68=LINE('',#524,#41);
#69=LINE('',#528,#42);
#70=LINE('',#533,#43);
#71=LINE('',#537,#44);
#72=LINE('',#539,#45);
#73=LINE('',#542,#46);
#74=LINE('',#544,#47);
#75=LINE('',#546,#48);
#76=LINE('',#548,#49);
#77=LINE('',#551,#50);
#78=LINE('',#553,#51);
#79=LINE('',#555,#52);
#80=LINE('',#557,#53);
#81=LINE('',#559,#54);
#82=LINE('',#561,#55);
#83=LINE('',#563,#56);
#84=LINE('',#566,#57);
#85=LINE('',#568,#58);
#86=LINE('',#570,#59);
#87=LINE('',#572,#60);
#88=LINE('',#575,#61);
#89=LINE('',#577,#62);
#90=LINE('',#579,#63);
#91=LINE('',#613,#64);
#92=LINE('',#614,#65);
#93=LINE('',#616,#66);
#94=LINE('',#617,#67);
#95=VERTEX_POINT('',#522);
#96=VERTEX_POINT('',#523);
#97=VERTEX_POINT('',#525);
#98=VERTEX_POINT('',#527);
#99=VERTEX_POINT('',#531);
#100=VERTEX_POINT('',#532);
#101=VERTEX_POINT('',#534);
#102=VERTEX_POINT('',#536);
#103=VERTEX_POINT('',#540);
#104=VERTEX_POINT('',#541);
#105=VERTEX_POINT('',#543);
#106=VERTEX_POINT('',#545);
#107=VERTEX_POINT('',#549);
#108=VERTEX_POINT('',#550);
#109=VERTEX_POINT('',#552);
#110=VERTEX_POINT('',#554);
#111=VERTEX_POINT('',#558);
#112=VERTEX_POINT('',#560);
#113=VERTEX_POINT('',#564);
#114=VERTEX_POINT('',#565);
#115=VERTEX_POINT('',#567);
#116=VERTEX_POINT('',#569);
#117=VERTEX_POINT('',#573);
#118=VERTEX_POINT('',#574);
#119=VERTEX_POINT('',#576);
#120=VERTEX_POINT('',#578);
#121=VERTEX_POINT('',#584);
#122=VERTEX_POINT('',#585);
#123=VERTEX_POINT('',#588);
#124=VERTEX_POINT('',#590);
#125=VERTEX_POINT('',#597);
#126=VERTEX_POINT('',#599);
#127=VERTEX_POINT('',#604);
#128=VERTEX_POINT('',#606);
#129=CIRCLE('',#372,3.25);
#130=CIRCLE('',#373,3.25);
#131=CIRCLE('',#375,3.25);
#132=CIRCLE('',#376,3.25);
#133=CIRCLE('',#383,3.25);
#134=CIRCLE('',#384,3.25);
#135=CIRCLE('',#385,80.);
#136=CIRCLE('',#386,3.);
#137=CIRCLE('',#387,3.);
#138=CIRCLE('',#388,80.);
#139=CIRCLE('',#389,1.);
#140=CIRCLE('',#390,1.);
#141=CIRCLE('',#391,1.);
#142=CIRCLE('',#392,1.);
#143=CIRCLE('',#394,3.);
#144=CIRCLE('',#395,80.);
#145=CIRCLE('',#396,1.);
#146=CIRCLE('',#397,1.);
#147=CIRCLE('',#398,1.);
#148=CIRCLE('',#399,1.);
#149=CIRCLE('',#400,80.);
#150=CIRCLE('',#401,3.);
#151=CIRCLE('',#402,3.25);
#152=CIRCLE('',#403,3.25);
#153=EDGE_CURVE('',#95,#96,#129,.T.);
#154=EDGE_CURVE('',#95,#97,#68,.T.);
#155=EDGE_CURVE('',#97,#98,#130,.T.);
#156=EDGE_CURVE('',#96,#98,#69,.T.);
#157=EDGE_CURVE('',#99,#100,#131,.T.);
#158=EDGE_CURVE('',#99,#101,#70,.T.);
#159=EDGE_CURVE('',#101,#102,#132,.T.);
#160=EDGE_CURVE('',#100,#102,#71,.T.);
#161=EDGE_CURVE('',#103,#104,#72,.T.);
#162=EDGE_CURVE('',#103,#105,#73,.T.);
#163=EDGE_CURVE('',#105,#106,#74,.T.);
#164=EDGE_CURVE('',#106,#104,#75,.T.);
#165=EDGE_CURVE('',#107,#108,#76,.T.);
#166=EDGE_CURVE('',#107,#109,#77,.T.);
#167=EDGE_CURVE('',#109,#110,#78,.T.);
#168=EDGE_CURVE('',#110,#108,#79,.T.);
#169=EDGE_CURVE('',#106,#111,#80,.T.);
#170=EDGE_CURVE('',#111,#112,#81,.T.);
#171=EDGE_CURVE('',#104,#112,#82,.T.);
#172=EDGE_CURVE('',#113,#114,#83,.T.);
#173=EDGE_CURVE('',#114,#115,#84,.T.);
#174=EDGE_CURVE('',#116,#115,#85,.T.);
#175=EDGE_CURVE('',#116,#113,#86,.T.);
#176=EDGE_CURVE('',#117,#118,#87,.T.);
#177=EDGE_CURVE('',#118,#119,#88,.T.);
#178=EDGE_CURVE('',#120,#119,#89,.T.);
#179=EDGE_CURVE('',#120,#117,#90,.T.);
#180=EDGE_CURVE('',#96,#95,#133,.T.);
#181=EDGE_CURVE('',#100,#99,#134,.T.);
#182=EDGE_CURVE('',#121,#122,#135,.T.);
#183=EDGE_CURVE('',#122,#118,#136,.T.);
#184=EDGE_CURVE('',#117,#123,#137,.T.);
#185=EDGE_CURVE('',#123,#124,#138,.T.);
#186=EDGE_CURVE('',#124,#110,#139,.T.);
#187=EDGE_CURVE('',#109,#111,#140,.T.);
#188=EDGE_CURVE('',#105,#114,#141,.T.);
#189=EDGE_CURVE('',#113,#121,#142,.T.);
#190=EDGE_CURVE('',#119,#125,#143,.T.);
#191=EDGE_CURVE('',#126,#125,#144,.T.);
#192=EDGE_CURVE('',#126,#116,#145,.T.);
#193=EDGE_CURVE('',#115,#103,#146,.T.);
#194=EDGE_CURVE('',#112,#107,#147,.T.);
#195=EDGE_CURVE('',#108,#127,#148,.T.);
#196=EDGE_CURVE('',#128,#127,#149,.T.);
#197=EDGE_CURVE('',#128,#120,#150,.T.);
#198=EDGE_CURVE('',#98,#97,#151,.T.);
#199=EDGE_CURVE('',#102,#101,#152,.T.);
#200=EDGE_CURVE('',#123,#128,#91,.T.);
#201=EDGE_CURVE('',#127,#124,#92,.T.);
#202=EDGE_CURVE('',#125,#122,#93,.T.);
#203=EDGE_CURVE('',#121,#126,#94,.T.);
#204=ORIENTED_EDGE('',*,*,#153,.F.);
#205=ORIENTED_EDGE('',*,*,#154,.T.);
#206=ORIENTED_EDGE('',*,*,#155,.T.);
#207=ORIENTED_EDGE('',*,*,#156,.F.);
#208=ORIENTED_EDGE('',*,*,#157,.F.);
#209=ORIENTED_EDGE('',*,*,#158,.T.);
#210=ORIENTED_EDGE('',*,*,#159,.T.);
#211=ORIENTED_EDGE('',*,*,#160,.F.);
#212=ORIENTED_EDGE('',*,*,#161,.F.);
#213=ORIENTED_EDGE('',*,*,#162,.T.);
#214=ORIENTED_EDGE('',*,*,#163,.T.);
#215=ORIENTED_EDGE('',*,*,#164,.T.);
#216=ORIENTED_EDGE('',*,*,#165,.F.);
#217=ORIENTED_EDGE('',*,*,#166,.T.);
#218=ORIENTED_EDGE('',*,*,#167,.T.);
#219=ORIENTED_EDGE('',*,*,#168,.T.);
#220=ORIENTED_EDGE('',*,*,#169,.T.);
#221=ORIENTED_EDGE('',*,*,#170,.T.);
#222=ORIENTED_EDGE('',*,*,#171,.F.);
#223=ORIENTED_EDGE('',*,*,#164,.F.);
#224=ORIENTED_EDGE('',*,*,#172,.T.);
#225=ORIENTED_EDGE('',*,*,#173,.T.);
#226=ORIENTED_EDGE('',*,*,#174,.F.);
#227=ORIENTED_EDGE('',*,*,#175,.T.);
#228=ORIENTED_EDGE('',*,*,#176,.T.);
#229=ORIENTED_EDGE('',*,*,#177,.T.);
#230=ORIENTED_EDGE('',*,*,#178,.F.);
#231=ORIENTED_EDGE('',*,*,#179,.T.);
#232=ORIENTED_EDGE('',*,*,#180,.T.);
#233=ORIENTED_EDGE('',*,*,#153,.T.);
#234=ORIENTED_EDGE('',*,*,#181,.T.);
#235=ORIENTED_EDGE('',*,*,#157,.T.);
#236=ORIENTED_EDGE('',*,*,#182,.T.);
#237=ORIENTED_EDGE('',*,*,#183,.T.);
#238=ORIENTED_EDGE('',*,*,#176,.F.);
#239=ORIENTED_EDGE('',*,*,#184,.T.);
#240=ORIENTED_EDGE('',*,*,#185,.T.);
#241=ORIENTED_EDGE('',*,*,#186,.T.);
#242=ORIENTED_EDGE('',*,*,#167,.F.);
#243=ORIENTED_EDGE('',*,*,#187,.T.);
#244=ORIENTED_EDGE('',*,*,#169,.F.);
#245=ORIENTED_EDGE('',*,*,#163,.F.);
#246=ORIENTED_EDGE('',*,*,#188,.T.);
#247=ORIENTED_EDGE('',*,*,#172,.F.);
#248=ORIENTED_EDGE('',*,*,#189,.T.);
#249=ORIENTED_EDGE('',*,*,#178,.T.);
#250=ORIENTED_EDGE('',*,*,#190,.T.);
#251=ORIENTED_EDGE('',*,*,#191,.F.);
#252=ORIENTED_EDGE('',*,*,#192,.T.);
#253=ORIENTED_EDGE('',*,*,#174,.T.);
#254=ORIENTED_EDGE('',*,*,#193,.T.);
#255=ORIENTED_EDGE('',*,*,#161,.T.);
#256=ORIENTED_EDGE('',*,*,#171,.T.);
#257=ORIENTED_EDGE('',*,*,#194,.T.);
#258=ORIENTED_EDGE('',*,*,#165,.T.);
#259=ORIENTED_EDGE('',*,*,#195,.T.);
#260=ORIENTED_EDGE('',*,*,#196,.F.);
#261=ORIENTED_EDGE('',*,*,#197,.T.);
#262=ORIENTED_EDGE('',*,*,#198,.F.);
#263=ORIENTED_EDGE('',*,*,#155,.F.);
#264=ORIENTED_EDGE('',*,*,#199,.F.);
#265=ORIENTED_EDGE('',*,*,#159,.F.);
#266=ORIENTED_EDGE('',*,*,#158,.F.);
#267=ORIENTED_EDGE('',*,*,#181,.F.);
#268=ORIENTED_EDGE('',*,*,#160,.T.);
#269=ORIENTED_EDGE('',*,*,#199,.T.);
#270=ORIENTED_EDGE('',*,*,#154,.F.);
#271=ORIENTED_EDGE('',*,*,#180,.F.);
#272=ORIENTED_EDGE('',*,*,#156,.T.);
#273=ORIENTED_EDGE('',*,*,#198,.T.);
#274=ORIENTED_EDGE('',*,*,#185,.F.);
#275=ORIENTED_EDGE('',*,*,#200,.T.);
#276=ORIENTED_EDGE('',*,*,#196,.T.);
#277=ORIENTED_EDGE('',*,*,#201,.T.);
#278=ORIENTED_EDGE('',*,*,#191,.T.);
#279=ORIENTED_EDGE('',*,*,#202,.T.);
#280=ORIENTED_EDGE('',*,*,#182,.F.);
#281=ORIENTED_EDGE('',*,*,#203,.T.);
#282=ORIENTED_EDGE('',*,*,#188,.F.);
#283=ORIENTED_EDGE('',*,*,#162,.F.);
#284=ORIENTED_EDGE('',*,*,#193,.F.);
#285=ORIENTED_EDGE('',*,*,#173,.F.);
#286=ORIENTED_EDGE('',*,*,#187,.F.);
#287=ORIENTED_EDGE('',*,*,#166,.F.);
#288=ORIENTED_EDGE('',*,*,#194,.F.);
#289=ORIENTED_EDGE('',*,*,#170,.F.);
#290=ORIENTED_EDGE('',*,*,#189,.F.);
#291=ORIENTED_EDGE('',*,*,#175,.F.);
#292=ORIENTED_EDGE('',*,*,#192,.F.);
#293=ORIENTED_EDGE('',*,*,#203,.F.);
#294=ORIENTED_EDGE('',*,*,#186,.F.);
#295=ORIENTED_EDGE('',*,*,#201,.F.);
#296=ORIENTED_EDGE('',*,*,#195,.F.);
#297=ORIENTED_EDGE('',*,*,#168,.F.);
#298=ORIENTED_EDGE('',*,*,#183,.F.);
#299=ORIENTED_EDGE('',*,*,#202,.F.);
#300=ORIENTED_EDGE('',*,*,#190,.F.);
#301=ORIENTED_EDGE('',*,*,#177,.F.);
#302=ORIENTED_EDGE('',*,*,#184,.F.);
#303=ORIENTED_EDGE('',*,*,#179,.F.);
#304=ORIENTED_EDGE('',*,*,#197,.F.);
#305=ORIENTED_EDGE('',*,*,#200,.F.);
#306=EDGE_LOOP('',(#204,#205,#206,#207));
#307=EDGE_LOOP('',(#208,#209,#210,#211));
#308=EDGE_LOOP('',(#212,#213,#214,#215));
#309=EDGE_LOOP('',(#216,#217,#218,#219));
#310=EDGE_LOOP('',(#220,#221,#222,#223));
#311=EDGE_LOOP('',(#224,#225,#226,#227));
#312=EDGE_LOOP('',(#228,#229,#230,#231));
#313=EDGE_LOOP('',(#232,#233));
#314=EDGE_LOOP('',(#234,#235));
#315=EDGE_LOOP('',(#236,#237,#238,#239,#240,#241,#242,#243,#244,#245,#246,
#247,#248));
#316=EDGE_LOOP('',(#249,#250,#251,#252,#253,#254,#255,#256,#257,#258,#259,
#260,#261));
#317=EDGE_LOOP('',(#262,#263));
#318=EDGE_LOOP('',(#264,#265));
#319=EDGE_LOOP('',(#266,#267,#268,#269));
#320=EDGE_LOOP('',(#270,#271,#272,#273));
#321=EDGE_LOOP('',(#274,#275,#276,#277));
#322=EDGE_LOOP('',(#278,#279,#280,#281));
#323=EDGE_LOOP('',(#282,#283,#284,#285));
#324=EDGE_LOOP('',(#286,#287,#288,#289));
#325=EDGE_LOOP('',(#290,#291,#292,#293));
#326=EDGE_LOOP('',(#294,#295,#296,#297));
#327=EDGE_LOOP('',(#298,#299,#300,#301));
#328=EDGE_LOOP('',(#302,#303,#304,#305));
#329=FACE_BOUND('',#306,.T.);
#330=FACE_BOUND('',#307,.T.);
#331=FACE_BOUND('',#308,.T.);
#332=FACE_BOUND('',#309,.T.);
#333=FACE_BOUND('',#310,.T.);
#334=FACE_BOUND('',#311,.T.);
#335=FACE_BOUND('',#312,.T.);
#336=FACE_BOUND('',#313,.T.);
#337=FACE_BOUND('',#314,.T.);
#338=FACE_BOUND('',#315,.T.);
#339=FACE_BOUND('',#316,.T.);
#340=FACE_BOUND('',#317,.T.);
#341=FACE_BOUND('',#318,.T.);
#342=FACE_BOUND('',#319,.T.);
#343=FACE_BOUND('',#320,.T.);
#344=FACE_BOUND('',#321,.T.);
#345=FACE_BOUND('',#322,.T.);
#346=FACE_BOUND('',#323,.T.);
#347=FACE_BOUND('',#324,.T.);
#348=FACE_BOUND('',#325,.T.);
#349=FACE_BOUND('',#326,.T.);
#350=FACE_BOUND('',#327,.T.);
#351=FACE_BOUND('',#328,.T.);
#352=ADVANCED_FACE('',(#329),#624,.F.);
#353=ADVANCED_FACE('',(#330),#625,.F.);
#354=ADVANCED_FACE('',(#331),#34,.T.);
#355=ADVANCED_FACE('',(#332),#35,.T.);
#356=ADVANCED_FACE('',(#333),#36,.T.);
#357=ADVANCED_FACE('',(#334),#37,.T.);
#358=ADVANCED_FACE('',(#335),#38,.T.);
#359=ADVANCED_FACE('',(#336,#337,#338),#39,.F.);
#360=ADVANCED_FACE('',(#339,#340,#341),#40,.T.);
#361=ADVANCED_FACE('',(#342),#626,.F.);
#362=ADVANCED_FACE('',(#343),#627,.F.);
#363=ADVANCED_FACE('',(#344),#628,.T.);
#364=ADVANCED_FACE('',(#345),#629,.T.);
#365=ADVANCED_FACE('',(#346),#630,.T.);
#366=ADVANCED_FACE('',(#347),#631,.T.);
#367=ADVANCED_FACE('',(#348),#632,.T.);
#368=ADVANCED_FACE('',(#349),#633,.T.);
#369=ADVANCED_FACE('',(#350),#634,.T.);
#370=ADVANCED_FACE('',(#351),#635,.T.);
#371=AXIS2_PLACEMENT_3D('',#520,#414,#415);
#372=AXIS2_PLACEMENT_3D('',#521,#416,#417);
#373=AXIS2_PLACEMENT_3D('',#526,#419,#420);
#374=AXIS2_PLACEMENT_3D('',#529,#422,#423);
#375=AXIS2_PLACEMENT_3D('',#530,#424,#425);
#376=AXIS2_PLACEMENT_3D('',#535,#427,#428);
#377=AXIS2_PLACEMENT_3D('',#538,#430,$);
#378=AXIS2_PLACEMENT_3D('',#547,#435,$);
#379=AXIS2_PLACEMENT_3D('',#556,#440,$);
#380=AXIS2_PLACEMENT_3D('',#562,#444,$);
#381=AXIS2_PLACEMENT_3D('',#571,#449,$);
#382=AXIS2_PLACEMENT_3D('',#580,#454,$);
#383=AXIS2_PLACEMENT_3D('',#581,#455,#456);
#384=AXIS2_PLACEMENT_3D('',#582,#457,#458);
#385=AXIS2_PLACEMENT_3D('',#583,#459,#460);
#386=AXIS2_PLACEMENT_3D('',#586,#461,#462);
#387=AXIS2_PLACEMENT_3D('',#587,#463,#464);
#388=AXIS2_PLACEMENT_3D('',#589,#465,#466);
#389=AXIS2_PLACEMENT_3D('',#591,#467,#468);
#390=AXIS2_PLACEMENT_3D('',#592,#469,#470);
#391=AXIS2_PLACEMENT_3D('',#593,#471,#472);
#392=AXIS2_PLACEMENT_3D('',#594,#473,#474);
#393=AXIS2_PLACEMENT_3D('',#595,#475,$);
#394=AXIS2_PLACEMENT_3D('',#596,#476,#477);
#395=AXIS2_PLACEMENT_3D('',#598,#478,#479);
#396=AXIS2_PLACEMENT_3D('',#600,#480,#481);
#397=AXIS2_PLACEMENT_3D('',#601,#482,#483);
#398=AXIS2_PLACEMENT_3D('',#602,#484,#485);
#399=AXIS2_PLACEMENT_3D('',#603,#486,#487);
#400=AXIS2_PLACEMENT_3D('',#605,#488,#489);
#401=AXIS2_PLACEMENT_3D('',#607,#490,#491);
#402=AXIS2_PLACEMENT_3D('',#608,#492,#493);
#403=AXIS2_PLACEMENT_3D('',#609,#494,#495);
#404=AXIS2_PLACEMENT_3D('',#610,#496,#497);
#405=AXIS2_PLACEMENT_3D('',#611,#498,#499);
#406=AXIS2_PLACEMENT_3D('',#612,#500,#501);
#407=AXIS2_PLACEMENT_3D('',#615,#504,#505);
#408=AXIS2_PLACEMENT_3D('',#618,#508,#509);
#409=AXIS2_PLACEMENT_3D('',#619,#510,#511);
#410=AXIS2_PLACEMENT_3D('',#620,#512,#513);
#411=AXIS2_PLACEMENT_3D('',#621,#514,#515);
#412=AXIS2_PLACEMENT_3D('',#622,#516,#517);
#413=AXIS2_PLACEMENT_3D('',#623,#518,#519);
#414=DIRECTION('',(0.,0.,1.));
#415=DIRECTION('',(3.25,0.,0.));
#416=DIRECTION('',(0.,0.,1.));
#417=DIRECTION('',(3.25,0.,0.));
#418=DIRECTION('',(0.,0.,1.));
#419=DIRECTION('',(0.,0.,1.));
#420=DIRECTION('',(3.25,0.,0.));
#421=DIRECTION('',(0.,0.,1.));
#422=DIRECTION('',(0.,0.,1.));
#423=DIRECTION('',(3.25,0.,0.));
#424=DIRECTION('',(0.,0.,1.));
#425=DIRECTION('',(3.25,0.,0.));
#426=DIRECTION('',(0.,0.,1.));
#427=DIRECTION('',(0.,0.,1.));
#428=DIRECTION('',(3.25,0.,0.));
#429=DIRECTION('',(0.,0.,1.));
#430=DIRECTION('',(-1.36056743213867E-16,1.,0.));
#431=DIRECTION('',(-1.,-2.1316282072803E-16,0.));
#432=DIRECTION('',(0.,0.,-1.));
#433=DIRECTION('',(-1.,-2.1316282072803E-16,0.));
#434=DIRECTION('',(0.,0.,1.));
#435=DIRECTION('',(-1.,0.,0.));
#436=DIRECTION('',(0.,-1.,0.));
#437=DIRECTION('',(0.,0.,-1.));
#438=DIRECTION('',(0.,-1.,0.));
#439=DIRECTION('',(0.,0.,1.));
#440=DIRECTION('',(-1.36056743213867E-16,1.,0.));
#441=DIRECTION('',(-1.,-7.105427357601E-17,0.));
#442=DIRECTION('',(0.,0.,1.));
#443=DIRECTION('',(-1.,-7.105427357601E-17,0.));
#444=DIRECTION('',(1.,0.,0.));
#445=DIRECTION('',(0.,1.,0.));
#446=DIRECTION('',(0.,0.,1.));
#447=DIRECTION('',(0.,1.,0.));
#448=DIRECTION('',(0.,0.,-1.));
#449=DIRECTION('',(1.19049650312134E-16,-1.,0.));
#450=DIRECTION('',(1.,1.34425187207079E-16,0.));
#451=DIRECTION('',(0.,0.,1.));
#452=DIRECTION('',(1.,1.34425187207079E-16,0.));
#453=DIRECTION('',(0.,0.,-1.));
#454=DIRECTION('',(0.,0.,1.));
#455=DIRECTION('',(0.,0.,1.));
#456=DIRECTION('',(3.25,0.,0.));
#457=DIRECTION('',(0.,0.,1.));
#458=DIRECTION('',(3.25,0.,0.));
#459=DIRECTION('',(0.,0.,-1.));
#460=DIRECTION('',(80.,0.,0.));
#461=DIRECTION('',(0.,0.,-1.));
#462=DIRECTION('',(3.,1.04083408558608E-14,0.));
#463=DIRECTION('',(0.,0.,-1.));
#464=DIRECTION('',(3.,-1.56125112837913E-14,0.));
#465=DIRECTION('',(0.,0.,-1.));
#466=DIRECTION('',(-80.,0.,0.));
#467=DIRECTION('',(0.,0.,-1.));
#468=DIRECTION('',(1.,1.04083408558608E-14,0.));
#469=DIRECTION('',(0.,0.,-1.));
#470=DIRECTION('',(1.,0.,0.));
#471=DIRECTION('',(0.,0.,-1.));
#472=DIRECTION('',(1.,0.,0.));
#473=DIRECTION('',(0.,0.,-1.));
#474=DIRECTION('',(1.,-1.73472347597681E-15,0.));
#475=DIRECTION('',(0.,0.,1.));
#476=DIRECTION('',(0.,0.,1.));
#477=DIRECTION('',(3.,0.,0.));
#478=DIRECTION('',(0.,0.,-1.));
#479=DIRECTION('',(80.,0.,0.));
#480=DIRECTION('',(0.,0.,1.));
#481=DIRECTION('',(1.,0.,0.));
#482=DIRECTION('',(0.,0.,1.));
#483=DIRECTION('',(1.,0.,0.));
#484=DIRECTION('',(0.,0.,1.));
#485=DIRECTION('',(1.,0.,0.));
#486=DIRECTION('',(0.,0.,1.));
#487=DIRECTION('',(1.,0.,0.));
#488=DIRECTION('',(0.,0.,-1.));
#489=DIRECTION('',(80.,0.,0.));
#490=DIRECTION('',(0.,0.,1.));
#491=DIRECTION('',(3.,0.,0.));
#492=DIRECTION('',(0.,0.,1.));
#493=DIRECTION('',(3.25,0.,0.));
#494=DIRECTION('',(0.,0.,1.));
#495=DIRECTION('',(3.25,0.,0.));
#496=DIRECTION('',(0.,0.,1.));
#497=DIRECTION('',(3.25,0.,0.));
#498=DIRECTION('',(0.,0.,1.));
#499=DIRECTION('',(3.25,0.,0.));
#500=DIRECTION('',(0.,0.,1.));
#501=DIRECTION('',(80.,0.,0.));
#502=DIRECTION('',(0.,0.,1.));
#503=DIRECTION('',(0.,0.,-1.));
#504=DIRECTION('',(0.,0.,1.));
#505=DIRECTION('',(80.,0.,0.));
#506=DIRECTION('',(0.,0.,-1.));
#507=DIRECTION('',(0.,0.,1.));
#508=DIRECTION('',(0.,0.,1.));
#509=DIRECTION('',(1.,0.,0.));
#510=DIRECTION('',(0.,0.,1.));
#511=DIRECTION('',(1.,0.,0.));
#512=DIRECTION('',(0.,0.,1.));
#513=DIRECTION('',(1.,0.,0.));
#514=DIRECTION('',(0.,0.,1.));
#515=DIRECTION('',(1.,0.,0.));
#516=DIRECTION('',(0.,0.,1.));
#517=DIRECTION('',(3.,0.,0.));
#518=DIRECTION('',(0.,0.,1.));
#519=DIRECTION('',(3.,0.,0.));
#520=CARTESIAN_POINT('',(-25.,-1.5,-3.));
#521=CARTESIAN_POINT('',(-25.,-1.5,-3.));
#522=CARTESIAN_POINT('',(-28.25,-1.5,-3.));
#523=CARTESIAN_POINT('',(-21.75,-1.50000000000001,-3.));
#524=CARTESIAN_POINT('',(-28.25,-1.5,-3.));
#525=CARTESIAN_POINT('',(-28.25,-1.5,0.));
#526=CARTESIAN_POINT('',(-25.,-1.5,0.));
#527=CARTESIAN_POINT('',(-21.75,-1.50000000000001,0.));
#528=CARTESIAN_POINT('',(-21.75,-1.5,-3.));
#529=CARTESIAN_POINT('',(25.,-1.5,-3.));
#530=CARTESIAN_POINT('',(25.,-1.5,-3.));
#531=CARTESIAN_POINT('',(21.75,-1.5,-3.));
#532=CARTESIAN_POINT('',(28.25,-1.50000000000001,-3.));
#533=CARTESIAN_POINT('',(21.75,-1.5,-3.));
#534=CARTESIAN_POINT('',(21.75,-1.5,0.));
#535=CARTESIAN_POINT('',(25.,-1.5,0.));
#536=CARTESIAN_POINT('',(28.25,-1.50000000000001,0.));
#537=CARTESIAN_POINT('',(28.25,-1.5,-3.));
#538=CARTESIAN_POINT('',(51.,9.00000000000001,-3.));
#539=CARTESIAN_POINT('',(50.,9.00000000000001,0.));
#540=CARTESIAN_POINT('',(50.,9.00000000000001,0.));
#541=CARTESIAN_POINT('',(8.14462876226852E-15,9.,0.));
#542=CARTESIAN_POINT('',(50.,9.00000000000001,0.));
#543=CARTESIAN_POINT('',(50.,9.00000000000001,-3.));
#544=CARTESIAN_POINT('',(50.,9.00000000000001,-3.));
#545=CARTESIAN_POINT('',(8.14462876226852E-15,9.,-3.));
#546=CARTESIAN_POINT('',(9.18383016693604E-15,8.99999999999999,-3.));
#547=CARTESIAN_POINT('',(-51.,-9.00000000000001,-3.));
#548=CARTESIAN_POINT('',(-51.,7.99999999999999,0.));
#549=CARTESIAN_POINT('',(-51.,7.99999999999999,0.));
#550=CARTESIAN_POINT('',(-51.,7.60576207944114,0.));
#551=CARTESIAN_POINT('',(-51.,7.99999999999999,0.));
#552=CARTESIAN_POINT('',(-51.,7.99999999999999,-3.));
#553=CARTESIAN_POINT('',(-51.,7.99999999999999,-3.));
#554=CARTESIAN_POINT('',(-51.,7.60576207944114,-3.));
#555=CARTESIAN_POINT('',(-51.,7.60576207944114,-3.));
#556=CARTESIAN_POINT('',(51.,9.00000000000001,-3.));
#557=CARTESIAN_POINT('',(9.18383016693604E-15,8.99999999999999,-3.));
#558=CARTESIAN_POINT('',(-50.,8.99999999999999,-3.));
#559=CARTESIAN_POINT('',(-50.,8.99999999999999,-3.));
#560=CARTESIAN_POINT('',(-50.,8.99999999999999,0.));
#561=CARTESIAN_POINT('',(9.18383016693604E-15,8.99999999999999,0.));
#562=CARTESIAN_POINT('',(51.,-9.,-3.));
#563=CARTESIAN_POINT('',(51.,7.60576207944114,-3.));
#564=CARTESIAN_POINT('',(51.,7.60576207944114,-3.));
#565=CARTESIAN_POINT('',(51.,8.,-3.));
#566=CARTESIAN_POINT('',(51.,8.00000000000001,-3.));
#567=CARTESIAN_POINT('',(51.,8.,0.));
#568=CARTESIAN_POINT('',(51.,7.60576207944114,0.));
#569=CARTESIAN_POINT('',(51.,7.60576207944114,0.));
#570=CARTESIAN_POINT('',(51.,7.60576207944114,0.));
#571=CARTESIAN_POINT('',(51.,-9.,-3.));
#572=CARTESIAN_POINT('',(-33.036160787781,-9.00000000000001,-3.));
#573=CARTESIAN_POINT('',(-33.0361607877809,-9.00000000000001,-3.));
#574=CARTESIAN_POINT('',(33.036160787781,-9.,-3.));
#575=CARTESIAN_POINT('',(33.036160787781,-9.,-3.));
#576=CARTESIAN_POINT('',(33.036160787781,-9.,0.));
#577=CARTESIAN_POINT('',(-33.036160787781,-9.00000000000001,0.));
#578=CARTESIAN_POINT('',(-33.0361607877809,-9.00000000000001,0.));
#579=CARTESIAN_POINT('',(-33.036160787781,-9.00000000000001,0.));
#580=CARTESIAN_POINT('',(0.,0.,-3.));
#581=CARTESIAN_POINT('',(-25.,-1.5,-3.));
#582=CARTESIAN_POINT('',(25.,-1.5,-3.));
#583=CARTESIAN_POINT('',(-12.1988283430832,56.3120835659554,-3.));
#584=CARTESIAN_POINT('',(50.7873269410517,6.98922636442197,-3.));
#585=CARTESIAN_POINT('',(34.7985629617107,-8.42774351555671,-3.));
#586=CARTESIAN_POINT('',(33.036160787781,-6.,-3.));
#587=CARTESIAN_POINT('',(-33.036160787781,-6.00000000000001,-3.));
#588=CARTESIAN_POINT('',(-34.7985629617107,-8.42774351555671,-3.));
#589=CARTESIAN_POINT('',(12.1988283430832,56.3120835659554,-3.));
#590=CARTESIAN_POINT('',(-50.7873269410517,6.98922636442198,-3.));
#591=CARTESIAN_POINT('',(-50.,7.60576207944114,-3.));
#592=CARTESIAN_POINT('',(-50.,7.99999999999999,-3.));
#593=CARTESIAN_POINT('',(50.,8.00000000000001,-3.));
#594=CARTESIAN_POINT('',(50.,7.60576207944114,-3.));
#595=CARTESIAN_POINT('',(0.,0.,0.));
#596=CARTESIAN_POINT('',(33.036160787781,-6.,0.));
#597=CARTESIAN_POINT('',(34.7985629617107,-8.42774351555671,0.));
#598=CARTESIAN_POINT('',(-12.1988283430832,56.3120835659554,0.));
#599=CARTESIAN_POINT('',(50.7873269410517,6.98922636442197,0.));
#600=CARTESIAN_POINT('',(50.,7.60576207944114,0.));
#601=CARTESIAN_POINT('',(50.,8.00000000000001,0.));
#602=CARTESIAN_POINT('',(-50.,7.99999999999999,0.));
#603=CARTESIAN_POINT('',(-50.,7.60576207944114,0.));
#604=CARTESIAN_POINT('',(-50.7873269410517,6.98922636442198,0.));
#605=CARTESIAN_POINT('',(12.1988283430832,56.3120835659554,0.));
#606=CARTESIAN_POINT('',(-34.7985629617107,-8.42774351555671,0.));
#607=CARTESIAN_POINT('',(-33.036160787781,-6.00000000000001,0.));
#608=CARTESIAN_POINT('',(-25.,-1.5,0.));
#609=CARTESIAN_POINT('',(25.,-1.5,0.));
#610=CARTESIAN_POINT('',(25.,-1.5,-3.));
#611=CARTESIAN_POINT('',(-25.,-1.5,-3.));
#612=CARTESIAN_POINT('',(12.1988283430832,56.3120835659554,-3.));
#613=CARTESIAN_POINT('',(-34.7985629617107,-8.42774351555672,-3.));
#614=CARTESIAN_POINT('',(-50.7873269410517,6.98922636442197,0.));
#615=CARTESIAN_POINT('',(-12.1988283430832,56.3120835659554,-3.));
#616=CARTESIAN_POINT('',(34.7985629617107,-8.42774351555671,0.));
#617=CARTESIAN_POINT('',(50.7873269410517,6.98922636442197,-3.));
#618=CARTESIAN_POINT('',(50.,8.00000000000001,-3.));
#619=CARTESIAN_POINT('',(-50.,7.99999999999999,-3.));
#620=CARTESIAN_POINT('',(50.,7.60576207944114,-3.));
#621=CARTESIAN_POINT('',(-50.,7.60576207944114,-3.));
#622=CARTESIAN_POINT('',(33.036160787781,-6.,-3.));
#623=CARTESIAN_POINT('',(-33.036160787781,-6.00000000000001,-3.));
#624=CYLINDRICAL_SURFACE('',#371,3.25);
#625=CYLINDRICAL_SURFACE('',#374,3.25);
#626=CYLINDRICAL_SURFACE('',#404,3.25);
#627=CYLINDRICAL_SURFACE('',#405,3.25);
#628=CYLINDRICAL_SURFACE('',#406,80.);
#629=CYLINDRICAL_SURFACE('',#407,80.);
#630=CYLINDRICAL_SURFACE('',#408,1.);
#631=CYLINDRICAL_SURFACE('',#409,1.);
#632=CYLINDRICAL_SURFACE('',#410,1.);
#633=CYLINDRICAL_SURFACE('',#411,1.);
#634=CYLINDRICAL_SURFACE('',#412,3.);
#635=CYLINDRICAL_SURFACE('',#413,3.);
#636=CLOSED_SHELL('',(#352,#353,#354,#355,#356,#357,#358,#359,#360,#361,
#362,#363,#364,#365,#366,#367,#368,#369,#370));
#637=MANIFOLD_SOLID_BREP('',#636);
#638=ADVANCED_BREP_SHAPE_REPRESENTATION('',(#637),#33);
ENDSEC;
END-ISO-10303-21;
