ISO-10303-21;
HEADER;

/* File generated by Alibre Version V23 */

FILE_DESCRIPTION(('HOOPS Exchange Step'),'2;1');

FILE_NAME('C:\\Users\\Gebruiker\\AppData\\Local\\Temp\\Alibre Design\\export-8C5363AC-C9F0-460E-BE66-D13E3BC685EA.stp',
'2023-07-20T09:13:35+02:00',
('Engineering'),
('Alibre'),
'HOOPS Exchange 2021.0',
'Alibre',
'Unknown authorisation');

FILE_SCHEMA( ('AP242_MANAGED_MODEL_BASED_3D_ENGINEERING_MIM_LF {1 0 10303 442 1 1 4 }') );

ENDSEC;

DATA;
#3=(NAMED_UNIT(*)PLANE_ANGLE_UNIT()SI_UNIT($,.RADIAN.));
#4=PLANE_ANGLE_MEASURE_WITH_UNIT(PLANE_ANGLE_MEASURE(0.0174532925),#3);
#5=(CONVERSION_BASED_UNIT('DEGREE',#4)NAMED_UNIT(#6)PLANE_ANGLE_UNIT());
#6=DIMENSIONAL_EXPONENTS(0.,0.,0.,0.,0.,0.,0.);
#7=(NAMED_UNIT(*)SI_UNIT($,.STERADIAN.)SOLID_ANGLE_UNIT());
#8=(LENGTH_UNIT()NAMED_UNIT(*)SI_UNIT(.MILLI.,.METRE.));
#9=UNCERTAINTY_MEASURE_WITH_UNIT(LENGTH_MEASURE(1.000000E-06),#8,'DISTANCE_ACCURACY_VALUE','Maximum Tolerance applied to model');
#10=(GEOMETRIC_REPRESENTATION_CONTEXT(3)GLOBAL_UNCERTAINTY_ASSIGNED_CONTEXT((#9))GLOBAL_UNIT_ASSIGNED_CONTEXT((#8,#5,#7))REPRESENTATION_CONTEXT('','6042 ATC & QTC flange end stop, 18x102x3mm'));
#12=CARTESIAN_POINT('',(0.,0.,0.));
#13=DIRECTION('',(0.,0.,1.));
#14=DIRECTION('',(1.,0.,0.));
#15=AXIS2_PLACEMENT_3D('',#12,#13,#14);
#27=CARTESIAN_POINT('',(-25.,-1.5,-3.));
#28=DIRECTION('',(0.,-0.,1.));
#29=DIRECTION('',(1.,0.,0.));
#30=AXIS2_PLACEMENT_3D('',#27,#28,#29);
#31=CYLINDRICAL_SURFACE('',#30,3.25);
#32=CARTESIAN_POINT('',(-28.25,-1.5,-3.));
#33=VERTEX_POINT('',#32);
#34=CARTESIAN_POINT('',(-21.75,-1.5,-3.));
#35=VERTEX_POINT('',#34);
#36=CARTESIAN_POINT('',(-25.,-1.5,-3.));
#37=DIRECTION('',(0.,-0.,1.));
#38=DIRECTION('',(1.,0.,0.));
#39=AXIS2_PLACEMENT_3D('',#36,#37,#38);
#40=CIRCLE('',#39,3.25);
#41=EDGE_CURVE('',#33,#35,#40,.T.);
#42=ORIENTED_EDGE('',*,*,#41,.F.);
#43=CARTESIAN_POINT('',(-28.25,-1.5,0.));
#44=VERTEX_POINT('',#43);
#45=CARTESIAN_POINT('',(-28.25,-1.5,-3.));
#46=DIRECTION('',(0.,0.,1.));
#47=VECTOR('',#46,3.);
#48=LINE('',#45,#47);
#49=EDGE_CURVE('',#33,#44,#48,.T.);
#50=ORIENTED_EDGE('',*,*,#49,.T.);
#51=CARTESIAN_POINT('',(-21.75,-1.5,0.));
#52=VERTEX_POINT('',#51);
#53=CARTESIAN_POINT('',(-25.,-1.5,0.));
#54=DIRECTION('',(0.,0.,1.));
#55=DIRECTION('',(1.,0.,-0.));
#56=AXIS2_PLACEMENT_3D('',#53,#54,#55);
#57=CIRCLE('',#56,3.25);
#58=EDGE_CURVE('',#44,#52,#57,.T.);
#59=ORIENTED_EDGE('',*,*,#58,.T.);
#60=CARTESIAN_POINT('',(-21.75,-1.5,-3.));
#61=DIRECTION('',(0.,0.,1.));
#62=VECTOR('',#61,3.);
#63=LINE('',#60,#62);
#64=EDGE_CURVE('',#35,#52,#63,.T.);
#65=ORIENTED_EDGE('',*,*,#64,.F.);
#66=EDGE_LOOP('',(#42,#50,#59,#65));
#67=FACE_BOUND('',#66,.T.);
#68=ADVANCED_FACE('NONE',(#67),#31,.F.);
#69=CARTESIAN_POINT('',(25.,-1.5,-3.));
#70=DIRECTION('',(0.,-0.,1.));
#71=DIRECTION('',(1.,0.,0.));
#72=AXIS2_PLACEMENT_3D('',#69,#70,#71);
#73=CYLINDRICAL_SURFACE('',#72,3.25);
#74=CARTESIAN_POINT('',(21.75,-1.5,-3.));
#75=VERTEX_POINT('',#74);
#76=CARTESIAN_POINT('',(28.25,-1.5,-3.));
#77=VERTEX_POINT('',#76);
#78=CARTESIAN_POINT('',(25.,-1.5,-3.));
#79=DIRECTION('',(0.,-0.,1.));
#80=DIRECTION('',(1.,0.,0.));
#81=AXIS2_PLACEMENT_3D('',#78,#79,#80);
#82=CIRCLE('',#81,3.25);
#83=EDGE_CURVE('',#75,#77,#82,.T.);
#84=ORIENTED_EDGE('',*,*,#83,.F.);
#85=CARTESIAN_POINT('',(21.75,-1.5,0.));
#86=VERTEX_POINT('',#85);
#87=CARTESIAN_POINT('',(21.75,-1.5,-3.));
#88=DIRECTION('',(0.,0.,1.));
#89=VECTOR('',#88,3.);
#90=LINE('',#87,#89);
#91=EDGE_CURVE('',#75,#86,#90,.T.);
#92=ORIENTED_EDGE('',*,*,#91,.T.);
#93=CARTESIAN_POINT('',(28.25,-1.5,0.));
#94=VERTEX_POINT('',#93);
#95=CARTESIAN_POINT('',(25.,-1.5,0.));
#96=DIRECTION('',(0.,0.,1.));
#97=DIRECTION('',(1.,0.,-0.));
#98=AXIS2_PLACEMENT_3D('',#95,#96,#97);
#99=CIRCLE('',#98,3.25);
#100=EDGE_CURVE('',#86,#94,#99,.T.);
#101=ORIENTED_EDGE('',*,*,#100,.T.);
#102=CARTESIAN_POINT('',(28.25,-1.5,-3.));
#103=DIRECTION('',(0.,0.,1.));
#104=VECTOR('',#103,3.);
#105=LINE('',#102,#104);
#106=EDGE_CURVE('',#77,#94,#105,.T.);
#107=ORIENTED_EDGE('',*,*,#106,.F.);
#108=EDGE_LOOP('',(#84,#92,#101,#107));
#109=FACE_BOUND('',#108,.T.);
#110=ADVANCED_FACE('NONE',(#109),#73,.F.);
#111=CARTESIAN_POINT('',(51.,9.,-3.));
#112=DIRECTION('',(-0.,1.,0.));
#113=DIRECTION('',(-1.,-0.,0.));
#114=AXIS2_PLACEMENT_3D('',#111,#112,#113);
#115=PLANE('',#114);
#116=CARTESIAN_POINT('',(50.,9.,0.));
#117=VERTEX_POINT('',#116);
#118=CARTESIAN_POINT('',(0.,9.,0.));
#119=VERTEX_POINT('',#118);
#120=CARTESIAN_POINT('',(50.,9.,0.));
#121=DIRECTION('',(-1.,-0.,0.));
#122=VECTOR('',#121,50.);
#123=LINE('',#120,#122);
#124=EDGE_CURVE('',#117,#119,#123,.T.);
#125=ORIENTED_EDGE('',*,*,#124,.F.);
#126=CARTESIAN_POINT('',(50.,9.,-3.));
#127=VERTEX_POINT('',#126);
#128=CARTESIAN_POINT('',(50.,9.,0.));
#129=DIRECTION('',(0.,0.,-1.));
#130=VECTOR('',#129,3.);
#131=LINE('',#128,#130);
#132=EDGE_CURVE('',#117,#127,#131,.T.);
#133=ORIENTED_EDGE('',*,*,#132,.T.);
#134=CARTESIAN_POINT('',(0.,9.,-3.));
#135=VERTEX_POINT('',#134);
#136=CARTESIAN_POINT('',(50.,9.,-3.));
#137=DIRECTION('',(-1.,-0.,0.));
#138=VECTOR('',#137,50.);
#139=LINE('',#136,#138);
#140=EDGE_CURVE('',#127,#135,#139,.T.);
#141=ORIENTED_EDGE('',*,*,#140,.T.);
#142=CARTESIAN_POINT('',(0.,9.,-3.));
#143=DIRECTION('',(0.,0.,1.));
#144=VECTOR('',#143,3.);
#145=LINE('',#142,#144);
#146=EDGE_CURVE('',#135,#119,#145,.T.);
#147=ORIENTED_EDGE('',*,*,#146,.T.);
#148=EDGE_LOOP('',(#125,#133,#141,#147));
#149=FACE_BOUND('',#148,.T.);
#150=ADVANCED_FACE('NONE',(#149),#115,.T.);
#151=CARTESIAN_POINT('',(-51.,-9.,-3.));
#152=DIRECTION('',(-1.,0.,0.));
#153=DIRECTION('',(0.,0.,1.));
#154=AXIS2_PLACEMENT_3D('',#151,#152,#153);
#155=PLANE('',#154);
#156=CARTESIAN_POINT('',(-51.,8.,0.));
#157=VERTEX_POINT('',#156);
#158=CARTESIAN_POINT('',(-51.,7.605762079,0.));
#159=VERTEX_POINT('',#158);
#160=CARTESIAN_POINT('',(-51.,8.,0.));
#161=DIRECTION('',(0.,-1.,0.));
#162=VECTOR('',#161,0.394237921);
#163=LINE('',#160,#162);
#164=EDGE_CURVE('',#157,#159,#163,.T.);
#165=ORIENTED_EDGE('',*,*,#164,.F.);
#166=CARTESIAN_POINT('',(-51.,8.,-3.));
#167=VERTEX_POINT('',#166);
#168=CARTESIAN_POINT('',(-51.,8.,0.));
#169=DIRECTION('',(0.,0.,-1.));
#170=VECTOR('',#169,3.);
#171=LINE('',#168,#170);
#172=EDGE_CURVE('',#157,#167,#171,.T.);
#173=ORIENTED_EDGE('',*,*,#172,.T.);
#174=CARTESIAN_POINT('',(-51.,7.605762079,-3.));
#175=VERTEX_POINT('',#174);
#176=CARTESIAN_POINT('',(-51.,8.,-3.));
#177=DIRECTION('',(0.,-1.,0.));
#178=VECTOR('',#177,0.394237921);
#179=LINE('',#176,#178);
#180=EDGE_CURVE('',#167,#175,#179,.T.);
#181=ORIENTED_EDGE('',*,*,#180,.T.);
#182=CARTESIAN_POINT('',(-51.,7.605762079,-3.));
#183=DIRECTION('',(0.,0.,1.));
#184=VECTOR('',#183,3.);
#185=LINE('',#182,#184);
#186=EDGE_CURVE('',#175,#159,#185,.T.);
#187=ORIENTED_EDGE('',*,*,#186,.T.);
#188=EDGE_LOOP('',(#165,#173,#181,#187));
#189=FACE_BOUND('',#188,.T.);
#190=ADVANCED_FACE('NONE',(#189),#155,.T.);
#191=CARTESIAN_POINT('',(51.,9.,-3.));
#192=DIRECTION('',(-0.,1.,0.));
#193=DIRECTION('',(-1.,-0.,0.));
#194=AXIS2_PLACEMENT_3D('',#191,#192,#193);
#195=PLANE('',#194);
#196=CARTESIAN_POINT('',(-50.,9.,-3.));
#197=VERTEX_POINT('',#196);
#198=CARTESIAN_POINT('',(0.,9.,-3.));
#199=DIRECTION('',(-1.,-0.,0.));
#200=VECTOR('',#199,50.);
#201=LINE('',#198,#200);
#202=EDGE_CURVE('',#135,#197,#201,.T.);
#203=ORIENTED_EDGE('',*,*,#202,.T.);
#204=CARTESIAN_POINT('',(-50.,9.,0.));
#205=VERTEX_POINT('',#204);
#206=CARTESIAN_POINT('',(-50.,9.,-3.));
#207=DIRECTION('',(0.,0.,1.));
#208=VECTOR('',#207,3.);
#209=LINE('',#206,#208);
#210=EDGE_CURVE('',#197,#205,#209,.T.);
#211=ORIENTED_EDGE('',*,*,#210,.T.);
#212=CARTESIAN_POINT('',(0.,9.,0.));
#213=DIRECTION('',(-1.,-0.,0.));
#214=VECTOR('',#213,50.);
#215=LINE('',#212,#214);
#216=EDGE_CURVE('',#119,#205,#215,.T.);
#217=ORIENTED_EDGE('',*,*,#216,.F.);
#218=ORIENTED_EDGE('',*,*,#146,.F.);
#219=EDGE_LOOP('',(#203,#211,#217,#218));
#220=FACE_BOUND('',#219,.T.);
#221=ADVANCED_FACE('NONE',(#220),#195,.T.);
#222=CARTESIAN_POINT('',(51.,-9.,-3.));
#223=DIRECTION('',(1.,0.,0.));
#224=DIRECTION('',(0.,0.,-1.));
#225=AXIS2_PLACEMENT_3D('',#222,#223,#224);
#226=PLANE('',#225);
#227=CARTESIAN_POINT('',(51.,7.605762079,-3.));
#228=VERTEX_POINT('',#227);
#229=CARTESIAN_POINT('',(51.,8.,-3.));
#230=VERTEX_POINT('',#229);
#231=CARTESIAN_POINT('',(51.,7.605762079,-3.));
#232=DIRECTION('',(0.,1.,0.));
#233=VECTOR('',#232,0.394237921);
#234=LINE('',#231,#233);
#235=EDGE_CURVE('',#228,#230,#234,.T.);
#236=ORIENTED_EDGE('',*,*,#235,.T.);
#237=CARTESIAN_POINT('',(51.,8.,0.));
#238=VERTEX_POINT('',#237);
#239=CARTESIAN_POINT('',(51.,8.,-3.));
#240=DIRECTION('',(0.,0.,1.));
#241=VECTOR('',#240,3.);
#242=LINE('',#239,#241);
#243=EDGE_CURVE('',#230,#238,#242,.T.);
#244=ORIENTED_EDGE('',*,*,#243,.T.);
#245=CARTESIAN_POINT('',(51.,7.605762079,0.));
#246=VERTEX_POINT('',#245);
#247=CARTESIAN_POINT('',(51.,7.605762079,0.));
#248=DIRECTION('',(0.,1.,0.));
#249=VECTOR('',#248,0.394237921);
#250=LINE('',#247,#249);
#251=EDGE_CURVE('',#246,#238,#250,.T.);
#252=ORIENTED_EDGE('',*,*,#251,.F.);
#253=CARTESIAN_POINT('',(51.,7.605762079,0.));
#254=DIRECTION('',(0.,0.,-1.));
#255=VECTOR('',#254,3.);
#256=LINE('',#253,#255);
#257=EDGE_CURVE('',#246,#228,#256,.T.);
#258=ORIENTED_EDGE('',*,*,#257,.T.);
#259=EDGE_LOOP('',(#236,#244,#252,#258));
#260=FACE_BOUND('',#259,.T.);
#261=ADVANCED_FACE('NONE',(#260),#226,.T.);
#262=CARTESIAN_POINT('',(51.,-9.,-3.));
#263=DIRECTION('',(0.,-1.,0.));
#264=DIRECTION('',(1.,0.,0.));
#265=AXIS2_PLACEMENT_3D('',#262,#263,#264);
#266=PLANE('',#265);
#267=CARTESIAN_POINT('',(-33.036160788,-9.,-3.));
#268=VERTEX_POINT('',#267);
#269=CARTESIAN_POINT('',(33.036160788,-9.,-3.));
#270=VERTEX_POINT('',#269);
#271=CARTESIAN_POINT('',(-33.036160788,-9.,-3.));
#272=DIRECTION('',(1.,0.,0.));
#273=VECTOR('',#272,66.072321576);
#274=LINE('',#271,#273);
#275=EDGE_CURVE('',#268,#270,#274,.T.);
#276=ORIENTED_EDGE('',*,*,#275,.T.);
#277=CARTESIAN_POINT('',(33.036160788,-9.,0.));
#278=VERTEX_POINT('',#277);
#279=CARTESIAN_POINT('',(33.036160788,-9.,-3.));
#280=DIRECTION('',(0.,0.,1.));
#281=VECTOR('',#280,3.);
#282=LINE('',#279,#281);
#283=EDGE_CURVE('',#270,#278,#282,.T.);
#284=ORIENTED_EDGE('',*,*,#283,.T.);
#285=CARTESIAN_POINT('',(-33.036160788,-9.,0.));
#286=VERTEX_POINT('',#285);
#287=CARTESIAN_POINT('',(-33.036160788,-9.,0.));
#288=DIRECTION('',(1.,0.,0.));
#289=VECTOR('',#288,66.072321576);
#290=LINE('',#287,#289);
#291=EDGE_CURVE('',#286,#278,#290,.T.);
#292=ORIENTED_EDGE('',*,*,#291,.F.);
#293=CARTESIAN_POINT('',(-33.036160788,-9.,0.));
#294=DIRECTION('',(0.,0.,-1.));
#295=VECTOR('',#294,3.);
#296=LINE('',#293,#295);
#297=EDGE_CURVE('',#286,#268,#296,.T.);
#298=ORIENTED_EDGE('',*,*,#297,.T.);
#299=EDGE_LOOP('',(#276,#284,#292,#298));
#300=FACE_BOUND('',#299,.T.);
#301=ADVANCED_FACE('NONE',(#300),#266,.T.);
#302=CARTESIAN_POINT('',(0.,0.,-3.));
#303=DIRECTION('',(0.,0.,1.));
#304=DIRECTION('',(1.,0.,0.));
#305=AXIS2_PLACEMENT_3D('',#302,#303,#304);
#306=PLANE('',#305);
#307=CARTESIAN_POINT('',(-25.,-1.5,-3.));
#308=DIRECTION('',(0.,-0.,1.));
#309=DIRECTION('',(1.,0.,0.));
#310=AXIS2_PLACEMENT_3D('',#307,#308,#309);
#311=CIRCLE('',#310,3.25);
#312=EDGE_CURVE('',#35,#33,#311,.T.);
#313=ORIENTED_EDGE('',*,*,#312,.T.);
#314=ORIENTED_EDGE('',*,*,#41,.T.);
#315=EDGE_LOOP('',(#313,#314));
#316=FACE_BOUND('',#315,.T.);
#317=CARTESIAN_POINT('',(25.,-1.5,-3.));
#318=DIRECTION('',(0.,-0.,1.));
#319=DIRECTION('',(1.,0.,0.));
#320=AXIS2_PLACEMENT_3D('',#317,#318,#319);
#321=CIRCLE('',#320,3.25);
#322=EDGE_CURVE('',#77,#75,#321,.T.);
#323=ORIENTED_EDGE('',*,*,#322,.T.);
#324=ORIENTED_EDGE('',*,*,#83,.T.);
#325=EDGE_LOOP('',(#323,#324));
#326=FACE_BOUND('',#325,.T.);
#327=CARTESIAN_POINT('',(50.787326941,6.989226364,-3.));
#328=VERTEX_POINT('',#327);
#329=CARTESIAN_POINT('',(34.798562962,-8.427743516,-3.));
#330=VERTEX_POINT('',#329);
#331=CARTESIAN_POINT('',(-12.198828343,56.312083566,-3.));
#332=DIRECTION('',(0.,0.,-1.));
#333=DIRECTION('',(1.,0.,0.));
#334=AXIS2_PLACEMENT_3D('',#331,#332,#333);
#335=CIRCLE('',#334,80.);
#336=EDGE_CURVE('',#328,#330,#335,.T.);
#337=ORIENTED_EDGE('',*,*,#336,.T.);
#338=CARTESIAN_POINT('',(33.036160788,-6.,-3.));
#339=DIRECTION('',(0.,0.,-1.));
#340=DIRECTION('',(1.,0.,0.));
#341=AXIS2_PLACEMENT_3D('',#338,#339,#340);
#342=CIRCLE('',#341,3.);
#343=EDGE_CURVE('',#330,#270,#342,.T.);
#344=ORIENTED_EDGE('',*,*,#343,.T.);
#345=ORIENTED_EDGE('',*,*,#275,.F.);
#346=CARTESIAN_POINT('',(-34.798562962,-8.427743516,-3.));
#347=VERTEX_POINT('',#346);
#348=CARTESIAN_POINT('',(-33.036160788,-6.,-3.));
#349=DIRECTION('',(0.,0.,-1.));
#350=DIRECTION('',(1.,-0.,0.));
#351=AXIS2_PLACEMENT_3D('',#348,#349,#350);
#352=CIRCLE('',#351,3.);
#353=EDGE_CURVE('',#268,#347,#352,.T.);
#354=ORIENTED_EDGE('',*,*,#353,.T.);
#355=CARTESIAN_POINT('',(-50.787326941,6.989226364,-3.));
#356=VERTEX_POINT('',#355);
#357=CARTESIAN_POINT('',(12.198828343,56.312083566,-3.));
#358=DIRECTION('',(0.,0.,-1.));
#359=DIRECTION('',(-1.,0.,0.));
#360=AXIS2_PLACEMENT_3D('',#357,#358,#359);
#361=CIRCLE('',#360,80.);
#362=EDGE_CURVE('',#347,#356,#361,.T.);
#363=ORIENTED_EDGE('',*,*,#362,.T.);
#364=CARTESIAN_POINT('',(-50.,7.605762079,-3.));
#365=DIRECTION('',(0.,0.,-1.));
#366=DIRECTION('',(1.,0.,0.));
#367=AXIS2_PLACEMENT_3D('',#364,#365,#366);
#368=CIRCLE('',#367,1.);
#369=EDGE_CURVE('',#356,#175,#368,.T.);
#370=ORIENTED_EDGE('',*,*,#369,.T.);
#371=ORIENTED_EDGE('',*,*,#180,.F.);
#372=CARTESIAN_POINT('',(-50.,8.,-3.));
#373=DIRECTION('',(0.,0.,-1.));
#374=DIRECTION('',(1.,0.,0.));
#375=AXIS2_PLACEMENT_3D('',#372,#373,#374);
#376=CIRCLE('',#375,1.);
#377=EDGE_CURVE('',#167,#197,#376,.T.);
#378=ORIENTED_EDGE('',*,*,#377,.T.);
#379=ORIENTED_EDGE('',*,*,#202,.F.);
#380=ORIENTED_EDGE('',*,*,#140,.F.);
#381=CARTESIAN_POINT('',(50.,8.,-3.));
#382=DIRECTION('',(0.,0.,-1.));
#383=DIRECTION('',(1.,0.,0.));
#384=AXIS2_PLACEMENT_3D('',#381,#382,#383);
#385=CIRCLE('',#384,1.);
#386=EDGE_CURVE('',#127,#230,#385,.T.);
#387=ORIENTED_EDGE('',*,*,#386,.T.);
#388=ORIENTED_EDGE('',*,*,#235,.F.);
#389=CARTESIAN_POINT('',(50.,7.605762079,-3.));
#390=DIRECTION('',(0.,0.,-1.));
#391=DIRECTION('',(1.,-0.,0.));
#392=AXIS2_PLACEMENT_3D('',#389,#390,#391);
#393=CIRCLE('',#392,1.);
#394=EDGE_CURVE('',#228,#328,#393,.T.);
#395=ORIENTED_EDGE('',*,*,#394,.T.);
#396=EDGE_LOOP('',(#337,#344,#345,#354,#363,#370,#371,#378,#379,#380,#387,#388,#395));
#397=FACE_BOUND('',#396,.T.);
#398=ADVANCED_FACE('NONE',(#316,#326,#397),#306,.F.);
#399=CARTESIAN_POINT('',(0.,0.,0.));
#400=DIRECTION('',(0.,0.,1.));
#401=DIRECTION('',(1.,0.,0.));
#402=AXIS2_PLACEMENT_3D('',#399,#400,#401);
#403=PLANE('',#402);
#404=ORIENTED_EDGE('',*,*,#291,.T.);
#405=CARTESIAN_POINT('',(34.798562962,-8.427743516,0.));
#406=VERTEX_POINT('',#405);
#407=CARTESIAN_POINT('',(33.036160788,-6.,0.));
#408=DIRECTION('',(0.,0.,1.));
#409=DIRECTION('',(1.,0.,-0.));
#410=AXIS2_PLACEMENT_3D('',#407,#408,#409);
#411=CIRCLE('',#410,3.);
#412=EDGE_CURVE('',#278,#406,#411,.T.);
#413=ORIENTED_EDGE('',*,*,#412,.T.);
#414=CARTESIAN_POINT('',(50.787326941,6.989226364,0.));
#415=VERTEX_POINT('',#414);
#416=CARTESIAN_POINT('',(-12.198828343,56.312083566,0.));
#417=DIRECTION('',(0.,0.,-1.));
#418=DIRECTION('',(1.,0.,0.));
#419=AXIS2_PLACEMENT_3D('',#416,#417,#418);
#420=CIRCLE('',#419,80.);
#421=EDGE_CURVE('',#415,#406,#420,.T.);
#422=ORIENTED_EDGE('',*,*,#421,.F.);
#423=CARTESIAN_POINT('',(50.,7.605762079,0.));
#424=DIRECTION('',(0.,0.,1.));
#425=DIRECTION('',(1.,0.,-0.));
#426=AXIS2_PLACEMENT_3D('',#423,#424,#425);
#427=CIRCLE('',#426,1.);
#428=EDGE_CURVE('',#415,#246,#427,.T.);
#429=ORIENTED_EDGE('',*,*,#428,.T.);
#430=ORIENTED_EDGE('',*,*,#251,.T.);
#431=CARTESIAN_POINT('',(50.,8.,0.));
#432=DIRECTION('',(0.,0.,1.));
#433=DIRECTION('',(1.,0.,-0.));
#434=AXIS2_PLACEMENT_3D('',#431,#432,#433);
#435=CIRCLE('',#434,1.);
#436=EDGE_CURVE('',#238,#117,#435,.T.);
#437=ORIENTED_EDGE('',*,*,#436,.T.);
#438=ORIENTED_EDGE('',*,*,#124,.T.);
#439=ORIENTED_EDGE('',*,*,#216,.T.);
#440=CARTESIAN_POINT('',(-50.,8.,0.));
#441=DIRECTION('',(0.,0.,1.));
#442=DIRECTION('',(1.,0.,-0.));
#443=AXIS2_PLACEMENT_3D('',#440,#441,#442);
#444=CIRCLE('',#443,1.);
#445=EDGE_CURVE('',#205,#157,#444,.T.);
#446=ORIENTED_EDGE('',*,*,#445,.T.);
#447=ORIENTED_EDGE('',*,*,#164,.T.);
#448=CARTESIAN_POINT('',(-50.787326941,6.989226364,0.));
#449=VERTEX_POINT('',#448);
#450=CARTESIAN_POINT('',(-50.,7.605762079,0.));
#451=DIRECTION('',(0.,0.,1.));
#452=DIRECTION('',(1.,0.,-0.));
#453=AXIS2_PLACEMENT_3D('',#450,#451,#452);
#454=CIRCLE('',#453,1.);
#455=EDGE_CURVE('',#159,#449,#454,.T.);
#456=ORIENTED_EDGE('',*,*,#455,.T.);
#457=CARTESIAN_POINT('',(-34.798562962,-8.427743516,0.));
#458=VERTEX_POINT('',#457);
#459=CARTESIAN_POINT('',(12.198828343,56.312083566,0.));
#460=DIRECTION('',(0.,0.,-1.));
#461=DIRECTION('',(1.,0.,0.));
#462=AXIS2_PLACEMENT_3D('',#459,#460,#461);
#463=CIRCLE('',#462,80.);
#464=EDGE_CURVE('',#458,#449,#463,.T.);
#465=ORIENTED_EDGE('',*,*,#464,.F.);
#466=CARTESIAN_POINT('',(-33.036160788,-6.,0.));
#467=DIRECTION('',(0.,0.,1.));
#468=DIRECTION('',(1.,0.,-0.));
#469=AXIS2_PLACEMENT_3D('',#466,#467,#468);
#470=CIRCLE('',#469,3.);
#471=EDGE_CURVE('',#458,#286,#470,.T.);
#472=ORIENTED_EDGE('',*,*,#471,.T.);
#473=EDGE_LOOP('',(#404,#413,#422,#429,#430,#437,#438,#439,#446,#447,#456,#465,#472));
#474=FACE_BOUND('',#473,.T.);
#475=CARTESIAN_POINT('',(-25.,-1.5,0.));
#476=DIRECTION('',(0.,0.,1.));
#477=DIRECTION('',(1.,0.,-0.));
#478=AXIS2_PLACEMENT_3D('',#475,#476,#477);
#479=CIRCLE('',#478,3.25);
#480=EDGE_CURVE('',#52,#44,#479,.T.);
#481=ORIENTED_EDGE('',*,*,#480,.F.);
#482=ORIENTED_EDGE('',*,*,#58,.F.);
#483=EDGE_LOOP('',(#481,#482));
#484=FACE_BOUND('',#483,.T.);
#485=CARTESIAN_POINT('',(25.,-1.5,0.));
#486=DIRECTION('',(0.,0.,1.));
#487=DIRECTION('',(1.,0.,-0.));
#488=AXIS2_PLACEMENT_3D('',#485,#486,#487);
#489=CIRCLE('',#488,3.25);
#490=EDGE_CURVE('',#94,#86,#489,.T.);
#491=ORIENTED_EDGE('',*,*,#490,.F.);
#492=ORIENTED_EDGE('',*,*,#100,.F.);
#493=EDGE_LOOP('',(#491,#492));
#494=FACE_BOUND('',#493,.T.);
#495=ADVANCED_FACE('NONE',(#474,#484,#494),#403,.T.);
#496=CARTESIAN_POINT('',(25.,-1.5,-3.));
#497=DIRECTION('',(0.,-0.,1.));
#498=DIRECTION('',(1.,0.,0.));
#499=AXIS2_PLACEMENT_3D('',#496,#497,#498);
#500=CYLINDRICAL_SURFACE('',#499,3.25);
#501=ORIENTED_EDGE('',*,*,#91,.F.);
#502=ORIENTED_EDGE('',*,*,#322,.F.);
#503=ORIENTED_EDGE('',*,*,#106,.T.);
#504=ORIENTED_EDGE('',*,*,#490,.T.);
#505=EDGE_LOOP('',(#501,#502,#503,#504));
#506=FACE_BOUND('',#505,.T.);
#507=ADVANCED_FACE('NONE',(#506),#500,.F.);
#508=CARTESIAN_POINT('',(-25.,-1.5,-3.));
#509=DIRECTION('',(0.,-0.,1.));
#510=DIRECTION('',(1.,0.,0.));
#511=AXIS2_PLACEMENT_3D('',#508,#509,#510);
#512=CYLINDRICAL_SURFACE('',#511,3.25);
#513=ORIENTED_EDGE('',*,*,#49,.F.);
#514=ORIENTED_EDGE('',*,*,#312,.F.);
#515=ORIENTED_EDGE('',*,*,#64,.T.);
#516=ORIENTED_EDGE('',*,*,#480,.T.);
#517=EDGE_LOOP('',(#513,#514,#515,#516));
#518=FACE_BOUND('',#517,.T.);
#519=ADVANCED_FACE('NONE',(#518),#512,.F.);
#520=CARTESIAN_POINT('',(12.198828343,56.312083566,-3.));
#521=DIRECTION('',(0.,-0.,1.));
#522=DIRECTION('',(1.,0.,0.));
#523=AXIS2_PLACEMENT_3D('',#520,#521,#522);
#524=CYLINDRICAL_SURFACE('',#523,80.);
#525=ORIENTED_EDGE('',*,*,#362,.F.);
#526=CARTESIAN_POINT('',(-34.798562962,-8.427743516,-3.));
#527=DIRECTION('',(0.,0.,1.));
#528=VECTOR('',#527,3.);
#529=LINE('',#526,#528);
#530=EDGE_CURVE('',#347,#458,#529,.T.);
#531=ORIENTED_EDGE('',*,*,#530,.T.);
#532=ORIENTED_EDGE('',*,*,#464,.T.);
#533=CARTESIAN_POINT('',(-50.787326941,6.989226364,0.));
#534=DIRECTION('',(0.,0.,-1.));
#535=VECTOR('',#534,3.);
#536=LINE('',#533,#535);
#537=EDGE_CURVE('',#449,#356,#536,.T.);
#538=ORIENTED_EDGE('',*,*,#537,.T.);
#539=EDGE_LOOP('',(#525,#531,#532,#538));
#540=FACE_BOUND('',#539,.T.);
#541=ADVANCED_FACE('NONE',(#540),#524,.T.);
#542=CARTESIAN_POINT('',(-12.198828343,56.312083566,-3.));
#543=DIRECTION('',(0.,-0.,1.));
#544=DIRECTION('',(1.,0.,0.));
#545=AXIS2_PLACEMENT_3D('',#542,#543,#544);
#546=CYLINDRICAL_SURFACE('',#545,80.);
#547=ORIENTED_EDGE('',*,*,#421,.T.);
#548=CARTESIAN_POINT('',(34.798562962,-8.427743516,0.));
#549=DIRECTION('',(0.,0.,-1.));
#550=VECTOR('',#549,3.);
#551=LINE('',#548,#550);
#552=EDGE_CURVE('',#406,#330,#551,.T.);
#553=ORIENTED_EDGE('',*,*,#552,.T.);
#554=ORIENTED_EDGE('',*,*,#336,.F.);
#555=CARTESIAN_POINT('',(50.787326941,6.989226364,-3.));
#556=DIRECTION('',(0.,0.,1.));
#557=VECTOR('',#556,3.);
#558=LINE('',#555,#557);
#559=EDGE_CURVE('',#328,#415,#558,.T.);
#560=ORIENTED_EDGE('',*,*,#559,.T.);
#561=EDGE_LOOP('',(#547,#553,#554,#560));
#562=FACE_BOUND('',#561,.T.);
#563=ADVANCED_FACE('NONE',(#562),#546,.T.);
#564=CARTESIAN_POINT('',(50.,8.,-3.));
#565=DIRECTION('',(0.,-0.,1.));
#566=DIRECTION('',(1.,0.,0.));
#567=AXIS2_PLACEMENT_3D('',#564,#565,#566);
#568=CYLINDRICAL_SURFACE('',#567,1.);
#569=ORIENTED_EDGE('',*,*,#386,.F.);
#570=ORIENTED_EDGE('',*,*,#132,.F.);
#571=ORIENTED_EDGE('',*,*,#436,.F.);
#572=ORIENTED_EDGE('',*,*,#243,.F.);
#573=EDGE_LOOP('',(#569,#570,#571,#572));
#574=FACE_BOUND('',#573,.T.);
#575=ADVANCED_FACE('NONE',(#574),#568,.T.);
#576=CARTESIAN_POINT('',(-50.,8.,-3.));
#577=DIRECTION('',(0.,0.,1.));
#578=DIRECTION('',(1.,0.,-0.));
#579=AXIS2_PLACEMENT_3D('',#576,#577,#578);
#580=CYLINDRICAL_SURFACE('',#579,1.);
#581=ORIENTED_EDGE('',*,*,#377,.F.);
#582=ORIENTED_EDGE('',*,*,#172,.F.);
#583=ORIENTED_EDGE('',*,*,#445,.F.);
#584=ORIENTED_EDGE('',*,*,#210,.F.);
#585=EDGE_LOOP('',(#581,#582,#583,#584));
#586=FACE_BOUND('',#585,.T.);
#587=ADVANCED_FACE('NONE',(#586),#580,.T.);
#588=CARTESIAN_POINT('',(50.,7.605762079,-3.));
#589=DIRECTION('',(0.,-0.,1.));
#590=DIRECTION('',(1.,0.,0.));
#591=AXIS2_PLACEMENT_3D('',#588,#589,#590);
#592=CYLINDRICAL_SURFACE('',#591,1.);
#593=ORIENTED_EDGE('',*,*,#394,.F.);
#594=ORIENTED_EDGE('',*,*,#257,.F.);
#595=ORIENTED_EDGE('',*,*,#428,.F.);
#596=ORIENTED_EDGE('',*,*,#559,.F.);
#597=EDGE_LOOP('',(#593,#594,#595,#596));
#598=FACE_BOUND('',#597,.T.);
#599=ADVANCED_FACE('NONE',(#598),#592,.T.);
#600=CARTESIAN_POINT('',(-50.,7.605762079,-3.));
#601=DIRECTION('',(0.,-0.,1.));
#602=DIRECTION('',(1.,0.,0.));
#603=AXIS2_PLACEMENT_3D('',#600,#601,#602);
#604=CYLINDRICAL_SURFACE('',#603,1.);
#605=ORIENTED_EDGE('',*,*,#369,.F.);
#606=ORIENTED_EDGE('',*,*,#537,.F.);
#607=ORIENTED_EDGE('',*,*,#455,.F.);
#608=ORIENTED_EDGE('',*,*,#186,.F.);
#609=EDGE_LOOP('',(#605,#606,#607,#608));
#610=FACE_BOUND('',#609,.T.);
#611=ADVANCED_FACE('NONE',(#610),#604,.T.);
#612=CARTESIAN_POINT('',(33.036160788,-6.,-3.));
#613=DIRECTION('',(0.,-0.,1.));
#614=DIRECTION('',(1.,0.,0.));
#615=AXIS2_PLACEMENT_3D('',#612,#613,#614);
#616=CYLINDRICAL_SURFACE('',#615,3.);
#617=ORIENTED_EDGE('',*,*,#343,.F.);
#618=ORIENTED_EDGE('',*,*,#552,.F.);
#619=ORIENTED_EDGE('',*,*,#412,.F.);
#620=ORIENTED_EDGE('',*,*,#283,.F.);
#621=EDGE_LOOP('',(#617,#618,#619,#620));
#622=FACE_BOUND('',#621,.T.);
#623=ADVANCED_FACE('NONE',(#622),#616,.T.);
#624=CARTESIAN_POINT('',(-33.036160788,-6.,-3.));
#625=DIRECTION('',(0.,-0.,1.));
#626=DIRECTION('',(1.,0.,0.));
#627=AXIS2_PLACEMENT_3D('',#624,#625,#626);
#628=CYLINDRICAL_SURFACE('',#627,3.);
#629=ORIENTED_EDGE('',*,*,#353,.F.);
#630=ORIENTED_EDGE('',*,*,#297,.F.);
#631=ORIENTED_EDGE('',*,*,#471,.F.);
#632=ORIENTED_EDGE('',*,*,#530,.F.);
#633=EDGE_LOOP('',(#629,#630,#631,#632));
#634=FACE_BOUND('',#633,.T.);
#635=ADVANCED_FACE('NONE',(#634),#628,.T.);
#636=CLOSED_SHELL('',(#68,#110,#150,#190,#221,#261,#301,#398,#495,#507,#519,#541,#563,#575,#587,#599,#611,#623,#635));
#637=MANIFOLD_SOLID_BREP('Fillet 3mm',#636);
#638=COLOUR_RGB('',0.529411793,0.549019635,0.549019635);
#639=FILL_AREA_STYLE_COLOUR('',#638);
#640=FILL_AREA_STYLE('',(#639));
#641=SURFACE_STYLE_FILL_AREA(#640);
#642=SURFACE_SIDE_STYLE('',(#641));
#643=SURFACE_STYLE_USAGE(.BOTH.,#642);
#644=PRESENTATION_STYLE_ASSIGNMENT((#643));
#26=STYLED_ITEM('',(#644),#637);
#645=INTEGER_REPRESENTATION_ITEM('ATTRIB_BOUNDING_BOX_ALGORITHM',3);
#646=ID_ATTRIBUTE('SA #647',#647);
#647=SHAPE_ASPECT('properties','',#23,.F.);
#648=GEOMETRIC_ITEM_SPECIFIC_USAGE('','properties',#647,#17,#637);
#649=PROPERTY_DEFINITION('ATTRIB_BOUNDING_BOX_ALGORITHM','',#647);
#650=REPRESENTATION('',(#645),#10);
#651=PROPERTY_DEFINITION_REPRESENTATION(#649,#650);
#652=GENERAL_PROPERTY('','ATTRIB_BOUNDING_BOX_ALGORITHM','');
#653=GENERAL_PROPERTY_ASSOCIATION('','',#652,#649);
#16=SHAPE_REPRESENTATION('6042 ATC & QTC flange end stop, 18x102x3mm',(#15),#10);
#17=ADVANCED_BREP_SHAPE_REPRESENTATION('6042 ATC & QTC flange end stop, 18x102x3mm',(#637),#10);
#661=SHAPE_REPRESENTATION_RELATIONSHIP('','',#16,#17);
#662=CARTESIAN_POINT('',(0.,0.,0.));
#663=DIRECTION('',(0.,0.,1.));
#664=DIRECTION('',(1.,0.,0.));
#665=AXIS2_PLACEMENT_3D('',#662,#663,#664);
#667=MAPPED_ITEM('',#666,#665);
#666=REPRESENTATION_MAP(#665,#16);
#668=APPLICATION_CONTEXT('Managed model based 3d engineering');
#669=APPLICATION_PROTOCOL_DEFINITION('international standard','ap242_managed_model_based_3d_engineering',2013,#668);
#670=PRODUCT_CONTEXT('',#668,'mechanical');
#671=PRODUCT_DEFINITION_CONTEXT('part definition',#668,'design');
#24=PRODUCT('6042 ATC & QTC flange end stop, 18x102x3mm','6042 ATC & QTC flange end stop, 18x102x3mm','',(#670));
#672=PRODUCT_RELATED_PRODUCT_CATEGORY('part','',(#24));
#673=PRODUCT_DEFINITION_FORMATION_WITH_SPECIFIED_SOURCE('','',#24,.NOT_KNOWN.);
#25=PRODUCT_DEFINITION('design','',#673,#671);
#23=PRODUCT_DEFINITION_SHAPE('','',#25);
#674=SHAPE_DEFINITION_REPRESENTATION(#23,#16);
#11=DRAUGHTING_MODEL('',(#667),#10);
#1=MECHANICAL_DESIGN_GEOMETRIC_PRESENTATION_REPRESENTATION('',(#26),#10);
ENDSEC;
END-ISO-10303-21;
