ISO-10303-21;
HEADER;
/* Generated by software containing ST-Developer
 * from STEP Tools, Inc. (www.steptools.com) 
 */

FILE_DESCRIPTION(
/* description */ ('Alibre Inc.'),
/* implementation_level */ '2;1');

FILE_NAME(
/* name */ 'export-5729EDAB-8C8A-476A-91AF-C5689B26FEEB',
/* time_stamp */ '2022-09-21T10:40:56+02:00',
/* author */ (''),
/* organization */ (''),
/* preprocessor_version */ 'ST-DEVELOPER v17',
/* originating_system */ 'Alibre',
/* authorisation */ '');

FILE_SCHEMA (('AUTOMOTIVE_DESIGN'));
ENDSEC;

DATA;
#10=STYLED_ITEM('NAME_0',(#18),#573);
#11=MECHANICAL_DESIGN_GEOMETRIC_PRESENTATION_REPRESENTATION('NAME_0',(#10),
#33);
#12=COLOUR_RGB('',0.647058823529412,0.619607843137255,0.588235294117647);
#13=FILL_AREA_STYLE_COLOUR('NAME_0',#12);
#14=FILL_AREA_STYLE('NAME_0',(#13));
#15=SURFACE_STYLE_FILL_AREA(#14);
#16=SURFACE_SIDE_STYLE('NAME_0',(#15));
#17=SURFACE_STYLE_USAGE(.POSITIVE.,#16);
#18=PRESENTATION_STYLE_ASSIGNMENT((#17));
#19=PRODUCT_DEFINITION_CONTEXT('part definition',#26,'design');
#20=SHAPE_DEFINITION_REPRESENTATION(#21,#574);
#21=PRODUCT_DEFINITION_SHAPE('PRODUCT_VERSION_ID',
'PRODUCT_VERSION_DESCR',#22);
#22=PRODUCT_DEFINITION('PRODUCT_VERSION_ID','PRODUCT_VERSION_DESCR',#23,
#19);
#23=PRODUCT_DEFINITION_FORMATION_WITH_SPECIFIED_SOURCE(
'PRODUCT_VERSION_ID','PRODUCT_VERSION_DESCR',#28,.MADE.);
#24=PRODUCT_RELATED_PRODUCT_CATEGORY('part','part',(#28));
#25=APPLICATION_PROTOCOL_DEFINITION('Draft International Standard',
'automotive_design',1994,#26);
#26=APPLICATION_CONTEXT('automotive_Design');
#27=PRODUCT_CONTEXT('3D Mechanical Parts',#26,'mechanical');
#28=PRODUCT('6046 TCP Calibration Tool, Long Point, \X\D8=30mm L=450mm',
'6046 TCP Calibration Tool, Long Point, \X\D8=30mm L=450mm','',(#27));
#29=(
LENGTH_UNIT()
NAMED_UNIT(*)
SI_UNIT(.MILLI.,.METRE.)
);
#30=(
NAMED_UNIT(*)
PLANE_ANGLE_UNIT()
SI_UNIT($,.RADIAN.)
);
#31=(
NAMED_UNIT(*)
SI_UNIT($,.STERADIAN.)
SOLID_ANGLE_UNIT()
);
#32=UNCERTAINTY_MEASURE_WITH_UNIT(LENGTH_MEASURE(1.E-6),#29,
'DISTANCE_ACCURACY_VALUE',
'Maximum model space distance between geometric entities at asserted c
onnectivities');
#33=(
GEOMETRIC_REPRESENTATION_CONTEXT(3)
GLOBAL_UNCERTAINTY_ASSIGNED_CONTEXT((#32))
GLOBAL_UNIT_ASSIGNED_CONTEXT((#31,#30,#29))
REPRESENTATION_CONTEXT('ID1','3D')
);
#34=PLANE('',#350);
#35=PLANE('',#355);
#36=CYLINDRICAL_SURFACE('',#343,7.49999999999999);
#37=CYLINDRICAL_SURFACE('',#347,14.987);
#38=CYLINDRICAL_SURFACE('',#348,9.9935);
#39=CYLINDRICAL_SURFACE('',#352,9.9935);
#40=CYLINDRICAL_SURFACE('',#357,14.987);
#41=CYLINDRICAL_SURFACE('',#362,7.49999999999999);
#42=TOROIDAL_SURFACE('',#327,11.987,3.);
#43=TOROIDAL_SURFACE('',#332,10.5,3.);
#44=TOROIDAL_SURFACE('',#337,4.49999999999999,3.);
#45=TOROIDAL_SURFACE('',#366,4.49999999999999,3.);
#46=TOROIDAL_SURFACE('',#367,10.5,3.);
#47=TOROIDAL_SURFACE('',#368,11.987,3.);
#48=VECTOR('',#462,1.);
#49=VECTOR('',#465,1.);
#50=VECTOR('',#470,1.);
#51=VECTOR('',#473,1.);
#52=VECTOR('',#503,1.);
#53=VECTOR('',#504,1.);
#54=VECTOR('',#509,1.);
#55=VECTOR('',#510,1.);
#56=VECTOR('',#515,1.);
#57=VECTOR('',#516,1.);
#58=VECTOR('',#519,1.);
#59=VECTOR('',#520,1.);
#60=VECTOR('',#523,1.);
#61=VECTOR('',#526,1.);
#62=LINE('',#375,#48);
#63=LINE('',#379,#49);
#64=LINE('',#384,#50);
#65=LINE('',#388,#51);
#66=LINE('',#417,#52);
#67=LINE('',#419,#53);
#68=LINE('',#422,#54);
#69=LINE('',#423,#55);
#70=LINE('',#426,#56);
#71=LINE('',#427,#57);
#72=LINE('',#429,#58);
#73=LINE('',#430,#59);
#74=LINE('',#432,#60);
#75=LINE('',#436,#61);
#76=VERTEX_POINT('',#373);
#77=VERTEX_POINT('',#374);
#78=VERTEX_POINT('',#376);
#79=VERTEX_POINT('',#378);
#80=VERTEX_POINT('',#382);
#81=VERTEX_POINT('',#383);
#82=VERTEX_POINT('',#385);
#83=VERTEX_POINT('',#387);
#84=VERTEX_POINT('',#391);
#85=VERTEX_POINT('',#392);
#86=VERTEX_POINT('',#394);
#87=VERTEX_POINT('',#396);
#88=VERTEX_POINT('',#400);
#89=VERTEX_POINT('',#401);
#90=VERTEX_POINT('',#403);
#91=VERTEX_POINT('',#405);
#92=VERTEX_POINT('',#409);
#93=VERTEX_POINT('',#410);
#94=VERTEX_POINT('',#412);
#95=VERTEX_POINT('',#414);
#96=VERTEX_POINT('',#418);
#97=VERTEX_POINT('',#433);
#98=VERTEX_POINT('',#435);
#99=CIRCLE('',#322,14.4869999999999);
#100=CIRCLE('',#323,14.987);
#101=CIRCLE('',#325,9.49349999999999);
#102=CIRCLE('',#326,9.9935);
#103=CIRCLE('',#328,14.5850762113533);
#104=CIRCLE('',#329,3.);
#105=CIRCLE('',#330,14.987);
#106=CIRCLE('',#331,3.);
#107=CIRCLE('',#333,7.49999999999999);
#108=CIRCLE('',#334,3.);
#109=CIRCLE('',#335,7.90192378864663);
#110=CIRCLE('',#336,3.);
#111=CIRCLE('',#338,7.09807621135331);
#112=CIRCLE('',#339,3.);
#113=CIRCLE('',#340,7.49999999999999);
#114=CIRCLE('',#341,3.);
#115=CIRCLE('',#344,7.49999999999999);
#116=CIRCLE('',#346,7.90192378864663);
#117=CIRCLE('',#349,9.9935);
#118=CIRCLE('',#351,9.49349999999999);
#119=CIRCLE('',#353,9.9935);
#120=CIRCLE('',#354,9.9935);
#121=CIRCLE('',#356,14.4869999999999);
#122=CIRCLE('',#358,14.987);
#123=CIRCLE('',#359,14.987);
#124=CIRCLE('',#361,14.5850762113533);
#125=CIRCLE('',#363,7.49999999999999);
#126=CIRCLE('',#365,7.09807621135331);
#127=EDGE_CURVE('',#76,#77,#99,.T.);
#128=EDGE_CURVE('',#76,#78,#62,.T.);
#129=EDGE_CURVE('',#79,#78,#100,.T.);
#130=EDGE_CURVE('',#77,#79,#63,.T.);
#131=EDGE_CURVE('',#80,#81,#101,.T.);
#132=EDGE_CURVE('',#80,#82,#64,.T.);
#133=EDGE_CURVE('',#83,#82,#102,.T.);
#134=EDGE_CURVE('',#81,#83,#65,.T.);
#135=EDGE_CURVE('',#84,#85,#103,.T.);
#136=EDGE_CURVE('',#84,#86,#104,.T.);
#137=EDGE_CURVE('',#87,#86,#105,.T.);
#138=EDGE_CURVE('',#85,#87,#106,.T.);
#139=EDGE_CURVE('',#88,#89,#107,.T.);
#140=EDGE_CURVE('',#88,#90,#108,.T.);
#141=EDGE_CURVE('',#91,#90,#109,.T.);
#142=EDGE_CURVE('',#89,#91,#110,.T.);
#143=EDGE_CURVE('',#92,#93,#111,.T.);
#144=EDGE_CURVE('',#92,#94,#112,.T.);
#145=EDGE_CURVE('',#95,#94,#113,.T.);
#146=EDGE_CURVE('',#93,#95,#114,.T.);
#147=EDGE_CURVE('',#96,#93,#66,.T.);
#148=EDGE_CURVE('',#96,#92,#67,.T.);
#149=EDGE_CURVE('',#89,#88,#115,.T.);
#150=EDGE_CURVE('',#88,#95,#68,.T.);
#151=EDGE_CURVE('',#89,#94,#69,.T.);
#152=EDGE_CURVE('',#90,#91,#116,.T.);
#153=EDGE_CURVE('',#91,#84,#70,.T.);
#154=EDGE_CURVE('',#90,#85,#71,.T.);
#155=EDGE_CURVE('',#78,#87,#72,.T.);
#156=EDGE_CURVE('',#79,#86,#73,.T.);
#157=EDGE_CURVE('',#82,#97,#74,.T.);
#158=EDGE_CURVE('',#98,#97,#117,.T.);
#159=EDGE_CURVE('',#83,#98,#75,.T.);
#160=EDGE_CURVE('',#81,#80,#118,.T.);
#161=EDGE_CURVE('',#82,#83,#119,.T.);
#162=EDGE_CURVE('',#97,#98,#120,.T.);
#163=EDGE_CURVE('',#77,#76,#121,.T.);
#164=EDGE_CURVE('',#78,#79,#122,.T.);
#165=EDGE_CURVE('',#86,#87,#123,.T.);
#166=EDGE_CURVE('',#85,#84,#124,.T.);
#167=EDGE_CURVE('',#94,#95,#125,.T.);
#168=EDGE_CURVE('',#93,#92,#126,.T.);
#169=ORIENTED_EDGE('',*,*,#127,.F.);
#170=ORIENTED_EDGE('',*,*,#128,.T.);
#171=ORIENTED_EDGE('',*,*,#129,.F.);
#172=ORIENTED_EDGE('',*,*,#130,.F.);
#173=ORIENTED_EDGE('',*,*,#131,.F.);
#174=ORIENTED_EDGE('',*,*,#132,.T.);
#175=ORIENTED_EDGE('',*,*,#133,.F.);
#176=ORIENTED_EDGE('',*,*,#134,.F.);
#177=ORIENTED_EDGE('',*,*,#135,.F.);
#178=ORIENTED_EDGE('',*,*,#136,.T.);
#179=ORIENTED_EDGE('',*,*,#137,.F.);
#180=ORIENTED_EDGE('',*,*,#138,.F.);
#181=ORIENTED_EDGE('',*,*,#139,.F.);
#182=ORIENTED_EDGE('',*,*,#140,.T.);
#183=ORIENTED_EDGE('',*,*,#141,.F.);
#184=ORIENTED_EDGE('',*,*,#142,.F.);
#185=ORIENTED_EDGE('',*,*,#143,.F.);
#186=ORIENTED_EDGE('',*,*,#144,.T.);
#187=ORIENTED_EDGE('',*,*,#145,.F.);
#188=ORIENTED_EDGE('',*,*,#146,.F.);
#189=ORIENTED_EDGE('',*,*,#147,.F.);
#190=ORIENTED_EDGE('',*,*,#148,.T.);
#191=ORIENTED_EDGE('',*,*,#143,.T.);
#192=ORIENTED_EDGE('',*,*,#149,.T.);
#193=ORIENTED_EDGE('',*,*,#150,.T.);
#194=ORIENTED_EDGE('',*,*,#145,.T.);
#195=ORIENTED_EDGE('',*,*,#151,.F.);
#196=ORIENTED_EDGE('',*,*,#152,.T.);
#197=ORIENTED_EDGE('',*,*,#153,.T.);
#198=ORIENTED_EDGE('',*,*,#135,.T.);
#199=ORIENTED_EDGE('',*,*,#154,.F.);
#200=ORIENTED_EDGE('',*,*,#129,.T.);
#201=ORIENTED_EDGE('',*,*,#155,.T.);
#202=ORIENTED_EDGE('',*,*,#137,.T.);
#203=ORIENTED_EDGE('',*,*,#156,.F.);
#204=ORIENTED_EDGE('',*,*,#133,.T.);
#205=ORIENTED_EDGE('',*,*,#157,.T.);
#206=ORIENTED_EDGE('',*,*,#158,.F.);
#207=ORIENTED_EDGE('',*,*,#159,.F.);
#208=ORIENTED_EDGE('',*,*,#160,.T.);
#209=ORIENTED_EDGE('',*,*,#131,.T.);
#210=ORIENTED_EDGE('',*,*,#157,.F.);
#211=ORIENTED_EDGE('',*,*,#161,.T.);
#212=ORIENTED_EDGE('',*,*,#159,.T.);
#213=ORIENTED_EDGE('',*,*,#162,.F.);
#214=ORIENTED_EDGE('',*,*,#163,.T.);
#215=ORIENTED_EDGE('',*,*,#127,.T.);
#216=ORIENTED_EDGE('',*,*,#158,.T.);
#217=ORIENTED_EDGE('',*,*,#162,.T.);
#218=ORIENTED_EDGE('',*,*,#155,.F.);
#219=ORIENTED_EDGE('',*,*,#164,.T.);
#220=ORIENTED_EDGE('',*,*,#156,.T.);
#221=ORIENTED_EDGE('',*,*,#165,.T.);
#222=ORIENTED_EDGE('',*,*,#153,.F.);
#223=ORIENTED_EDGE('',*,*,#141,.T.);
#224=ORIENTED_EDGE('',*,*,#154,.T.);
#225=ORIENTED_EDGE('',*,*,#166,.T.);
#226=ORIENTED_EDGE('',*,*,#150,.F.);
#227=ORIENTED_EDGE('',*,*,#139,.T.);
#228=ORIENTED_EDGE('',*,*,#151,.T.);
#229=ORIENTED_EDGE('',*,*,#167,.T.);
#230=ORIENTED_EDGE('',*,*,#148,.F.);
#231=ORIENTED_EDGE('',*,*,#147,.T.);
#232=ORIENTED_EDGE('',*,*,#168,.T.);
#233=ORIENTED_EDGE('',*,*,#144,.F.);
#234=ORIENTED_EDGE('',*,*,#168,.F.);
#235=ORIENTED_EDGE('',*,*,#146,.T.);
#236=ORIENTED_EDGE('',*,*,#167,.F.);
#237=ORIENTED_EDGE('',*,*,#140,.F.);
#238=ORIENTED_EDGE('',*,*,#149,.F.);
#239=ORIENTED_EDGE('',*,*,#142,.T.);
#240=ORIENTED_EDGE('',*,*,#152,.F.);
#241=ORIENTED_EDGE('',*,*,#136,.F.);
#242=ORIENTED_EDGE('',*,*,#166,.F.);
#243=ORIENTED_EDGE('',*,*,#138,.T.);
#244=ORIENTED_EDGE('',*,*,#165,.F.);
#245=ORIENTED_EDGE('',*,*,#132,.F.);
#246=ORIENTED_EDGE('',*,*,#160,.F.);
#247=ORIENTED_EDGE('',*,*,#134,.T.);
#248=ORIENTED_EDGE('',*,*,#161,.F.);
#249=ORIENTED_EDGE('',*,*,#128,.F.);
#250=ORIENTED_EDGE('',*,*,#163,.F.);
#251=ORIENTED_EDGE('',*,*,#130,.T.);
#252=ORIENTED_EDGE('',*,*,#164,.F.);
#253=EDGE_LOOP('',(#169,#170,#171,#172));
#254=EDGE_LOOP('',(#173,#174,#175,#176));
#255=EDGE_LOOP('',(#177,#178,#179,#180));
#256=EDGE_LOOP('',(#181,#182,#183,#184));
#257=EDGE_LOOP('',(#185,#186,#187,#188));
#258=EDGE_LOOP('',(#189,#190,#191));
#259=EDGE_LOOP('',(#192,#193,#194,#195));
#260=EDGE_LOOP('',(#196,#197,#198,#199));
#261=EDGE_LOOP('',(#200,#201,#202,#203));
#262=EDGE_LOOP('',(#204,#205,#206,#207));
#263=EDGE_LOOP('',(#208,#209));
#264=EDGE_LOOP('',(#210,#211,#212,#213));
#265=EDGE_LOOP('',(#214,#215));
#266=EDGE_LOOP('',(#216,#217));
#267=EDGE_LOOP('',(#218,#219,#220,#221));
#268=EDGE_LOOP('',(#222,#223,#224,#225));
#269=EDGE_LOOP('',(#226,#227,#228,#229));
#270=EDGE_LOOP('',(#230,#231,#232));
#271=EDGE_LOOP('',(#233,#234,#235,#236));
#272=EDGE_LOOP('',(#237,#238,#239,#240));
#273=EDGE_LOOP('',(#241,#242,#243,#244));
#274=EDGE_LOOP('',(#245,#246,#247,#248));
#275=EDGE_LOOP('',(#249,#250,#251,#252));
#276=FACE_BOUND('',#253,.T.);
#277=FACE_BOUND('',#254,.T.);
#278=FACE_BOUND('',#255,.T.);
#279=FACE_BOUND('',#256,.T.);
#280=FACE_BOUND('',#257,.T.);
#281=FACE_BOUND('',#258,.T.);
#282=FACE_BOUND('',#259,.T.);
#283=FACE_BOUND('',#260,.T.);
#284=FACE_BOUND('',#261,.T.);
#285=FACE_BOUND('',#262,.T.);
#286=FACE_BOUND('',#263,.T.);
#287=FACE_BOUND('',#264,.T.);
#288=FACE_BOUND('',#265,.T.);
#289=FACE_BOUND('',#266,.T.);
#290=FACE_BOUND('',#267,.T.);
#291=FACE_BOUND('',#268,.T.);
#292=FACE_BOUND('',#269,.T.);
#293=FACE_BOUND('',#270,.T.);
#294=FACE_BOUND('',#271,.T.);
#295=FACE_BOUND('',#272,.T.);
#296=FACE_BOUND('',#273,.T.);
#297=FACE_BOUND('',#274,.T.);
#298=FACE_BOUND('',#275,.T.);
#299=ADVANCED_FACE('',(#276),#564,.T.);
#300=ADVANCED_FACE('',(#277),#565,.T.);
#301=ADVANCED_FACE('',(#278),#42,.T.);
#302=ADVANCED_FACE('',(#279),#43,.F.);
#303=ADVANCED_FACE('',(#280),#44,.T.);
#304=ADVANCED_FACE('',(#281),#566,.T.);
#305=ADVANCED_FACE('',(#282),#36,.T.);
#306=ADVANCED_FACE('',(#283),#567,.T.);
#307=ADVANCED_FACE('',(#284),#37,.T.);
#308=ADVANCED_FACE('',(#285),#38,.T.);
#309=ADVANCED_FACE('',(#286),#34,.T.);
#310=ADVANCED_FACE('',(#287),#39,.T.);
#311=ADVANCED_FACE('',(#288,#289),#35,.T.);
#312=ADVANCED_FACE('',(#290),#40,.T.);
#313=ADVANCED_FACE('',(#291),#568,.T.);
#314=ADVANCED_FACE('',(#292),#41,.T.);
#315=ADVANCED_FACE('',(#293),#569,.T.);
#316=ADVANCED_FACE('',(#294),#45,.T.);
#317=ADVANCED_FACE('',(#295),#46,.F.);
#318=ADVANCED_FACE('',(#296),#47,.T.);
#319=ADVANCED_FACE('',(#297),#570,.T.);
#320=ADVANCED_FACE('',(#298),#571,.T.);
#321=AXIS2_PLACEMENT_3D('',#371,#458,#459);
#322=AXIS2_PLACEMENT_3D('',#372,#460,#461);
#323=AXIS2_PLACEMENT_3D('',#377,#463,#464);
#324=AXIS2_PLACEMENT_3D('',#380,#466,#467);
#325=AXIS2_PLACEMENT_3D('',#381,#468,#469);
#326=AXIS2_PLACEMENT_3D('',#386,#471,#472);
#327=AXIS2_PLACEMENT_3D('',#389,#474,$);
#328=AXIS2_PLACEMENT_3D('',#390,#475,#476);
#329=AXIS2_PLACEMENT_3D('',#393,#477,#478);
#330=AXIS2_PLACEMENT_3D('',#395,#479,#480);
#331=AXIS2_PLACEMENT_3D('',#397,#481,#482);
#332=AXIS2_PLACEMENT_3D('',#398,#483,$);
#333=AXIS2_PLACEMENT_3D('',#399,#484,#485);
#334=AXIS2_PLACEMENT_3D('',#402,#486,#487);
#335=AXIS2_PLACEMENT_3D('',#404,#488,#489);
#336=AXIS2_PLACEMENT_3D('',#406,#490,#491);
#337=AXIS2_PLACEMENT_3D('',#407,#492,$);
#338=AXIS2_PLACEMENT_3D('',#408,#493,#494);
#339=AXIS2_PLACEMENT_3D('',#411,#495,#496);
#340=AXIS2_PLACEMENT_3D('',#413,#497,#498);
#341=AXIS2_PLACEMENT_3D('',#415,#499,#500);
#342=AXIS2_PLACEMENT_3D('',#416,#501,#502);
#343=AXIS2_PLACEMENT_3D('',#420,#505,#506);
#344=AXIS2_PLACEMENT_3D('',#421,#507,#508);
#345=AXIS2_PLACEMENT_3D('',#424,#511,#512);
#346=AXIS2_PLACEMENT_3D('',#425,#513,#514);
#347=AXIS2_PLACEMENT_3D('',#428,#517,#518);
#348=AXIS2_PLACEMENT_3D('',#431,#521,#522);
#349=AXIS2_PLACEMENT_3D('',#434,#524,#525);
#350=AXIS2_PLACEMENT_3D('',#437,#527,$);
#351=AXIS2_PLACEMENT_3D('',#438,#528,#529);
#352=AXIS2_PLACEMENT_3D('',#439,#530,#531);
#353=AXIS2_PLACEMENT_3D('',#440,#532,#533);
#354=AXIS2_PLACEMENT_3D('',#441,#534,#535);
#355=AXIS2_PLACEMENT_3D('',#442,#536,$);
#356=AXIS2_PLACEMENT_3D('',#443,#537,#538);
#357=AXIS2_PLACEMENT_3D('',#444,#539,#540);
#358=AXIS2_PLACEMENT_3D('',#445,#541,#542);
#359=AXIS2_PLACEMENT_3D('',#446,#543,#544);
#360=AXIS2_PLACEMENT_3D('',#447,#545,#546);
#361=AXIS2_PLACEMENT_3D('',#448,#547,#548);
#362=AXIS2_PLACEMENT_3D('',#449,#549,#550);
#363=AXIS2_PLACEMENT_3D('',#450,#551,#552);
#364=AXIS2_PLACEMENT_3D('',#451,#553,#554);
#365=AXIS2_PLACEMENT_3D('',#452,#555,#556);
#366=AXIS2_PLACEMENT_3D('',#453,#557,$);
#367=AXIS2_PLACEMENT_3D('',#454,#558,$);
#368=AXIS2_PLACEMENT_3D('',#455,#559,$);
#369=AXIS2_PLACEMENT_3D('',#456,#560,#561);
#370=AXIS2_PLACEMENT_3D('',#457,#562,#563);
#371=CARTESIAN_POINT('',(0.,50.5,0.));
#372=CARTESIAN_POINT('',(0.,50.,0.));
#373=CARTESIAN_POINT('',(-8.71764823973038E-16,50.,-14.4869999999999));
#374=CARTESIAN_POINT('',(8.88178419700125E-16,50.,14.4869999999999));
#375=CARTESIAN_POINT('',(1.80476198790345E-15,50.,-14.4869999999999));
#376=CARTESIAN_POINT('',(1.83537815788213E-15,50.5,-14.987));
#377=CARTESIAN_POINT('',(0.,50.5000000000001,0.));
#378=CARTESIAN_POINT('',(-8.490943145905E-15,50.5,14.987));
#379=CARTESIAN_POINT('',(0.,50.,14.4869999999999));
#380=CARTESIAN_POINT('',(0.,0.500000000000056,0.));
#381=CARTESIAN_POINT('',(0.,0.,0.));
#382=CARTESIAN_POINT('',(-9.30053933095902E-16,4.44089209850063E-16,-9.49349999999999));
#383=CARTESIAN_POINT('',(2.10798045685578E-15,4.44089209850063E-16,9.49349999999999));
#384=CARTESIAN_POINT('',(1.19323460874922E-15,0.,-9.49349999999999));
#385=CARTESIAN_POINT('',(1.22385077872791E-15,0.500000000000056,-9.9935));
#386=CARTESIAN_POINT('',(0.,0.500000000000057,0.));
#387=CARTESIAN_POINT('',(-6.11925389363954E-16,0.500000000000056,9.9935));
#388=CARTESIAN_POINT('',(0.,0.,9.49349999999999));
#389=CARTESIAN_POINT('',(0.,386.228288026438,0.));
#390=CARTESIAN_POINT('',(0.,387.728288026438,0.));
#391=CARTESIAN_POINT('',(1.79788441155124E-14,387.728288026438,14.5850762113533));
#392=CARTESIAN_POINT('',(9.71561245545425E-15,387.728288026438,-14.5850762113533));
#393=CARTESIAN_POINT('',(1.46798411813793E-15,386.228288026438,11.987));
#394=CARTESIAN_POINT('',(9.17689078941066E-16,386.228288026438,14.987));
#395=CARTESIAN_POINT('',(0.,386.228288026438,0.));
#396=CARTESIAN_POINT('',(-9.17689078941066E-16,386.228288026438,-14.987));
#397=CARTESIAN_POINT('',(0.,386.228288026438,-11.987));
#398=CARTESIAN_POINT('',(0.,400.803847577293,0.));
#399=CARTESIAN_POINT('',(0.,400.803847577293,0.));
#400=CARTESIAN_POINT('',(-2.41218397451495E-15,400.803847577293,-7.49999999999999));
#401=CARTESIAN_POINT('',(-9.18485099360514E-16,400.803847577293,7.49999999999999));
#402=CARTESIAN_POINT('',(1.28587913910472E-15,400.803847577293,-10.5));
#403=CARTESIAN_POINT('',(-2.53509866194791E-14,399.303847577293,-7.90192378864664));
#404=CARTESIAN_POINT('',(0.,399.303847577293,0.));
#405=CARTESIAN_POINT('',(2.63186931869663E-14,399.303847577293,7.90192378864664));
#406=CARTESIAN_POINT('',(0.,400.803847577293,10.5));
#407=CARTESIAN_POINT('',(0.,436.20577136594,0.));
#408=CARTESIAN_POINT('',(0.,437.70577136594,0.));
#409=CARTESIAN_POINT('',(-4.64134222110979E-14,437.70577136594,7.09807621135332));
#410=CARTESIAN_POINT('',(4.72826858423317E-14,437.70577136594,-7.09807621135332));
#411=CARTESIAN_POINT('',(5.51091059616308E-16,436.20577136594,4.49999999999999));
#412=CARTESIAN_POINT('',(4.59242549680257E-16,436.20577136594,7.49999999999999));
#413=CARTESIAN_POINT('',(0.,436.20577136594,0.));
#414=CARTESIAN_POINT('',(-4.59242549680257E-16,436.20577136594,-7.49999999999999));
#415=CARTESIAN_POINT('',(0.,436.20577136594,-4.49999999999999));
#416=CARTESIAN_POINT('',(0.,-550.,0.));
#417=CARTESIAN_POINT('',(0.,450.,0.));
#418=CARTESIAN_POINT('',(0.,450.,0.));
#419=CARTESIAN_POINT('',(0.,450.,0.));
#420=CARTESIAN_POINT('',(0.,450.,0.));
#421=CARTESIAN_POINT('',(0.,400.803847577293,0.));
#422=CARTESIAN_POINT('',(9.18485099360514E-16,400.803847577293,-7.49999999999999));
#423=CARTESIAN_POINT('',(0.,400.803847577293,7.49999999999999));
#424=CARTESIAN_POINT('',(0.,400.,0.));
#425=CARTESIAN_POINT('',(0.,399.303847577293,0.));
#426=CARTESIAN_POINT('',(1.37693162862132E-15,399.303847577293,7.90192378864663));
#427=CARTESIAN_POINT('',(0.,399.303847577293,-7.90192378864663));
#428=CARTESIAN_POINT('',(0.,450.,0.));
#429=CARTESIAN_POINT('',(1.83537815788213E-15,50.5000000000001,-14.987));
#430=CARTESIAN_POINT('',(0.,50.5000000000001,14.987));
#431=CARTESIAN_POINT('',(0.,450.,0.));
#432=CARTESIAN_POINT('',(1.22385077872791E-15,0.500000000000057,-9.9935));
#433=CARTESIAN_POINT('',(1.50010380906408E-15,50.,-9.9935));
#434=CARTESIAN_POINT('',(0.,50.,0.));
#435=CARTESIAN_POINT('',(-1.22385077872791E-15,50.,9.9935));
#436=CARTESIAN_POINT('',(0.,0.500000000000057,9.9935));
#437=CARTESIAN_POINT('',(0.,0.,0.));
#438=CARTESIAN_POINT('',(0.,0.,0.));
#439=CARTESIAN_POINT('',(0.,450.,0.));
#440=CARTESIAN_POINT('',(0.,0.500000000000057,0.));
#441=CARTESIAN_POINT('',(0.,50.,0.));
#442=CARTESIAN_POINT('',(-9.9935,50.,0.));
#443=CARTESIAN_POINT('',(0.,50.,0.));
#444=CARTESIAN_POINT('',(0.,450.,0.));
#445=CARTESIAN_POINT('',(0.,50.5000000000001,0.));
#446=CARTESIAN_POINT('',(0.,386.228288026438,0.));
#447=CARTESIAN_POINT('',(0.,400.,0.));
#448=CARTESIAN_POINT('',(0.,387.728288026438,0.));
#449=CARTESIAN_POINT('',(0.,450.,0.));
#450=CARTESIAN_POINT('',(0.,436.20577136594,0.));
#451=CARTESIAN_POINT('',(0.,-550.,0.));
#452=CARTESIAN_POINT('',(0.,437.70577136594,0.));
#453=CARTESIAN_POINT('',(0.,436.20577136594,0.));
#454=CARTESIAN_POINT('',(0.,400.803847577293,0.));
#455=CARTESIAN_POINT('',(0.,386.228288026438,0.));
#456=CARTESIAN_POINT('',(0.,0.500000000000056,0.));
#457=CARTESIAN_POINT('',(0.,50.5,0.));
#458=DIRECTION('',(0.,1.,0.));
#459=DIRECTION('',(0.,0.,14.987));
#460=DIRECTION('',(0.,-1.,0.));
#461=DIRECTION('',(0.,0.,-14.4869999999999));
#462=DIRECTION('',(4.32978028117735E-17,0.707106781186563,-0.707106781186532));
#463=DIRECTION('',(0.,1.,0.));
#464=DIRECTION('',(0.,0.,-14.987));
#465=DIRECTION('',(0.,0.707106781186563,0.707106781186532));
#466=DIRECTION('',(0.,1.,0.));
#467=DIRECTION('',(0.,0.,9.9935));
#468=DIRECTION('',(0.,-1.,0.));
#469=DIRECTION('',(0.,0.,-9.49349999999999));
#470=DIRECTION('',(4.32978028117726E-17,0.70710678118658,-0.707106781186515));
#471=DIRECTION('',(0.,1.,0.));
#472=DIRECTION('',(0.,0.,-9.9935));
#473=DIRECTION('',(0.,0.70710678118658,0.707106781186515));
#474=DIRECTION('',(0.,-1.,0.));
#475=DIRECTION('',(0.,1.,0.));
#476=DIRECTION('',(0.,0.,14.5850762113533));
#477=DIRECTION('',(1.,0.,-1.22464679914735E-16));
#478=DIRECTION('',(-3.67394039744206E-16,0.,-3.));
#479=DIRECTION('',(0.,-1.,0.));
#480=DIRECTION('',(0.,0.,-14.987));
#481=DIRECTION('',(-1.,0.,0.));
#482=DIRECTION('',(0.,0.,3.));
#483=DIRECTION('',(0.,1.,0.));
#484=DIRECTION('',(0.,1.,0.));
#485=DIRECTION('',(0.,0.,7.49999999999999));
#486=DIRECTION('',(1.,0.,1.22464679914735E-16));
#487=DIRECTION('',(3.67394039744206E-16,0.,-3.));
#488=DIRECTION('',(0.,-1.,0.));
#489=DIRECTION('',(0.,0.,-7.90192378864663));
#490=DIRECTION('',(-1.,0.,0.));
#491=DIRECTION('',(0.,0.,3.));
#492=DIRECTION('',(0.,-1.,0.));
#493=DIRECTION('',(0.,1.,0.));
#494=DIRECTION('',(0.,0.,7.09807621135331));
#495=DIRECTION('',(1.,0.,-1.22464679914735E-16));
#496=DIRECTION('',(-3.67394039744206E-16,0.,-3.));
#497=DIRECTION('',(0.,-1.,0.));
#498=DIRECTION('',(0.,0.,-7.49999999999999));
#499=DIRECTION('',(-1.,0.,0.));
#500=DIRECTION('',(0.,0.,3.));
#501=DIRECTION('',(0.,-1.,0.));
#502=DIRECTION('',(0.,0.,-577.350269189618));
#503=DIRECTION('',(0.,-0.866025403784441,-0.499999999999996));
#504=DIRECTION('',(6.12323399573672E-17,-0.866025403784441,0.499999999999996));
#505=DIRECTION('',(0.,1.,0.));
#506=DIRECTION('',(0.,0.,7.49999999999999));
#507=DIRECTION('',(0.,1.,0.));
#508=DIRECTION('',(0.,0.,7.49999999999999));
#509=DIRECTION('',(0.,1.,0.));
#510=DIRECTION('',(0.,1.,0.));
#511=DIRECTION('',(0.,-1.,0.));
#512=DIRECTION('',(0.,0.,-7.49999999999999));
#513=DIRECTION('',(0.,-1.,0.));
#514=DIRECTION('',(0.,0.,-7.90192378864663));
#515=DIRECTION('',(3.06161699786835E-17,-0.866025403784442,0.499999999999995));
#516=DIRECTION('',(0.,-0.866025403784442,-0.499999999999995));
#517=DIRECTION('',(0.,1.,0.));
#518=DIRECTION('',(0.,0.,14.987));
#519=DIRECTION('',(0.,1.,0.));
#520=DIRECTION('',(0.,1.,0.));
#521=DIRECTION('',(0.,1.,0.));
#522=DIRECTION('',(0.,0.,9.9935));
#523=DIRECTION('',(0.,1.,0.));
#524=DIRECTION('',(0.,1.,0.));
#525=DIRECTION('',(0.,0.,9.9935));
#526=DIRECTION('',(0.,1.,0.));
#527=DIRECTION('',(0.,-1.,0.));
#528=DIRECTION('',(0.,-1.,0.));
#529=DIRECTION('',(0.,0.,-9.49349999999999));
#530=DIRECTION('',(0.,1.,0.));
#531=DIRECTION('',(0.,0.,9.9935));
#532=DIRECTION('',(0.,1.,0.));
#533=DIRECTION('',(0.,0.,-9.9935));
#534=DIRECTION('',(0.,1.,0.));
#535=DIRECTION('',(0.,0.,9.9935));
#536=DIRECTION('',(0.,-1.,0.));
#537=DIRECTION('',(0.,-1.,0.));
#538=DIRECTION('',(0.,0.,-14.4869999999999));
#539=DIRECTION('',(0.,1.,0.));
#540=DIRECTION('',(0.,0.,14.987));
#541=DIRECTION('',(0.,1.,0.));
#542=DIRECTION('',(0.,0.,-14.987));
#543=DIRECTION('',(0.,-1.,0.));
#544=DIRECTION('',(0.,0.,-14.987));
#545=DIRECTION('',(0.,-1.,0.));
#546=DIRECTION('',(0.,0.,-7.49999999999999));
#547=DIRECTION('',(0.,1.,0.));
#548=DIRECTION('',(0.,0.,14.5850762113533));
#549=DIRECTION('',(0.,1.,0.));
#550=DIRECTION('',(0.,0.,7.49999999999999));
#551=DIRECTION('',(0.,-1.,0.));
#552=DIRECTION('',(0.,0.,-7.49999999999999));
#553=DIRECTION('',(0.,-1.,0.));
#554=DIRECTION('',(0.,0.,-577.350269189618));
#555=DIRECTION('',(0.,1.,0.));
#556=DIRECTION('',(0.,0.,7.09807621135331));
#557=DIRECTION('',(0.,-1.,0.));
#558=DIRECTION('',(0.,1.,0.));
#559=DIRECTION('',(0.,-1.,0.));
#560=DIRECTION('',(0.,1.,0.));
#561=DIRECTION('',(0.,0.,9.9935));
#562=DIRECTION('',(0.,1.,0.));
#563=DIRECTION('',(0.,0.,14.987));
#564=CONICAL_SURFACE('',#321,14.987,0.785398163397427);
#565=CONICAL_SURFACE('',#324,9.9935,0.785398163397403);
#566=CONICAL_SURFACE('',#342,577.350269189618,0.523598775598292);
#567=CONICAL_SURFACE('',#345,7.49999999999999,0.523598775598293);
#568=CONICAL_SURFACE('',#360,7.49999999999999,0.523598775598293);
#569=CONICAL_SURFACE('',#364,577.350269189618,0.523598775598292);
#570=CONICAL_SURFACE('',#369,9.9935,0.785398163397403);
#571=CONICAL_SURFACE('',#370,14.987,0.785398163397427);
#572=CLOSED_SHELL('',(#299,#300,#301,#302,#303,#304,#305,#306,#307,#308,
#309,#310,#311,#312,#313,#314,#315,#316,#317,#318,#319,#320));
#573=MANIFOLD_SOLID_BREP('',#572);
#574=ADVANCED_BREP_SHAPE_REPRESENTATION('',(#573),#33);
ENDSEC;
END-ISO-10303-21;
