ISO-10303-21;
HEADER;

/* File generated by Alibre Version V23 */

FILE_DESCRIPTION(('HOOPS Exchange Step'),'2;1');

FILE_NAME('C:\\Users\\User\\AppData\\Local\\Temp\\Alibre Design\\export-901BAA6B-CEB7-43DF-A1C8-DBD5DBF0E585.stp',
'2022-09-21T10:41:03+02:00',
('User'),
('Alibre'),
'HOOPS Exchange 2021.0',
'Alibre',
'Unknown authorisation');

FILE_SCHEMA( ('AP242_MANAGED_MODEL_BASED_3D_ENGINEERING_MIM_LF {1 0 10303 442 1 1 4 }') );

ENDSEC;

DATA;
#3=(NAMED_UNIT(*)PLANE_ANGLE_UNIT()SI_UNIT($,.RADIAN.));
#4=PLANE_ANGLE_MEASURE_WITH_UNIT(PLANE_ANGLE_MEASURE(0.0174532925),#3);
#5=(CONVERSION_BASED_UNIT('DEGREE',#4)NAMED_UNIT(#6)PLANE_ANGLE_UNIT());
#6=DIMENSIONAL_EXPONENTS(0.,0.,0.,0.,0.,0.,0.);
#7=(NAMED_UNIT(*)SI_UNIT($,.STERADIAN.)SOLID_ANGLE_UNIT());
#8=(LENGTH_UNIT()NAMED_UNIT(*)SI_UNIT(.MILLI.,.METRE.));
#9=UNCERTAINTY_MEASURE_WITH_UNIT(LENGTH_MEASURE(1.000000E-06),#8,'DISTANCE_ACCURACY_VALUE','Maximum Tolerance applied to model');
#10=(GEOMETRIC_REPRESENTATION_CONTEXT(3)GLOBAL_UNCERTAINTY_ASSIGNED_CONTEXT((#9))GLOBAL_UNIT_ASSIGNED_CONTEXT((#8,#5,#7))REPRESENTATION_CONTEXT('','6046 TCP Calibration Tool, Long Point, \S\X=30mm L=450mm'));
#12=CARTESIAN_POINT('',(0.,0.,0.));
#13=DIRECTION('',(0.,0.,1.));
#14=DIRECTION('',(1.,0.,0.));
#15=AXIS2_PLACEMENT_3D('',#12,#13,#14);
#27=CARTESIAN_POINT('',(0.,50.5,0.));
#28=DIRECTION('',(-0.,1.,0.));
#29=DIRECTION('',(0.,0.,1.));
#30=AXIS2_PLACEMENT_3D('',#27,#28,#29);
#31=CONICAL_SURFACE('',#30,14.987,45.);
#32=CARTESIAN_POINT('',(-0.,50.,-14.487));
#33=VERTEX_POINT('',#32);
#34=CARTESIAN_POINT('',(0.,50.,14.487));
#35=VERTEX_POINT('',#34);
#36=CARTESIAN_POINT('',(0.,50.,0.));
#37=DIRECTION('',(0.,-1.,0.));
#38=DIRECTION('',(0.,0.,-1.));
#39=AXIS2_PLACEMENT_3D('',#36,#37,#38);
#40=CIRCLE('',#39,14.487);
#41=EDGE_CURVE('',#33,#35,#40,.T.);
#42=ORIENTED_EDGE('',*,*,#41,.F.);
#43=CARTESIAN_POINT('',(0.,50.5,-14.987));
#44=VERTEX_POINT('',#43);
#45=CARTESIAN_POINT('',(0.,50.,-14.487));
#46=DIRECTION('',(0.,0.707106781,-0.707106781));
#47=VECTOR('',#46,0.707106781);
#48=LINE('',#45,#47);
#49=EDGE_CURVE('',#33,#44,#48,.T.);
#50=ORIENTED_EDGE('',*,*,#49,.T.);
#51=CARTESIAN_POINT('',(-0.,50.5,14.987));
#52=VERTEX_POINT('',#51);
#53=CARTESIAN_POINT('',(0.,50.5,0.));
#54=DIRECTION('',(0.,1.,0.));
#55=DIRECTION('',(0.,0.,-1.));
#56=AXIS2_PLACEMENT_3D('',#53,#54,#55);
#57=CIRCLE('',#56,14.987);
#58=EDGE_CURVE('',#52,#44,#57,.T.);
#59=ORIENTED_EDGE('',*,*,#58,.F.);
#60=CARTESIAN_POINT('',(0.,50.,14.487));
#61=DIRECTION('',(0.,0.707106781,0.707106781));
#62=VECTOR('',#61,0.707106781);
#63=LINE('',#60,#62);
#64=EDGE_CURVE('',#35,#52,#63,.T.);
#65=ORIENTED_EDGE('',*,*,#64,.F.);
#66=EDGE_LOOP('',(#42,#50,#59,#65));
#67=FACE_BOUND('',#66,.T.);
#68=ADVANCED_FACE('NONE',(#67),#31,.T.);
#69=CARTESIAN_POINT('',(0.,0.5,0.));
#70=DIRECTION('',(-0.,1.,0.));
#71=DIRECTION('',(0.,0.,1.));
#72=AXIS2_PLACEMENT_3D('',#69,#70,#71);
#73=CONICAL_SURFACE('',#72,9.9935,45.);
#74=CARTESIAN_POINT('',(-0.,0.,-9.4935));
#75=VERTEX_POINT('',#74);
#76=CARTESIAN_POINT('',(0.,0.,9.4935));
#77=VERTEX_POINT('',#76);
#78=CARTESIAN_POINT('',(0.,0.,0.));
#79=DIRECTION('',(0.,-1.,0.));
#80=DIRECTION('',(0.,0.,-1.));
#81=AXIS2_PLACEMENT_3D('',#78,#79,#80);
#82=CIRCLE('',#81,9.4935);
#83=EDGE_CURVE('',#75,#77,#82,.T.);
#84=ORIENTED_EDGE('',*,*,#83,.F.);
#85=CARTESIAN_POINT('',(0.,0.5,-9.9935));
#86=VERTEX_POINT('',#85);
#87=CARTESIAN_POINT('',(0.,0.,-9.4935));
#88=DIRECTION('',(0.,0.707106781,-0.707106781));
#89=VECTOR('',#88,0.707106781);
#90=LINE('',#87,#89);
#91=EDGE_CURVE('',#75,#86,#90,.T.);
#92=ORIENTED_EDGE('',*,*,#91,.T.);
#93=CARTESIAN_POINT('',(-0.,0.5,9.9935));
#94=VERTEX_POINT('',#93);
#95=CARTESIAN_POINT('',(0.,0.5,0.));
#96=DIRECTION('',(0.,1.,0.));
#97=DIRECTION('',(0.,0.,-1.));
#98=AXIS2_PLACEMENT_3D('',#95,#96,#97);
#99=CIRCLE('',#98,9.9935);
#100=EDGE_CURVE('',#94,#86,#99,.T.);
#101=ORIENTED_EDGE('',*,*,#100,.F.);
#102=CARTESIAN_POINT('',(0.,0.,9.4935));
#103=DIRECTION('',(0.,0.707106781,0.707106781));
#104=VECTOR('',#103,0.707106781);
#105=LINE('',#102,#104);
#106=EDGE_CURVE('',#77,#94,#105,.T.);
#107=ORIENTED_EDGE('',*,*,#106,.F.);
#108=EDGE_LOOP('',(#84,#92,#101,#107));
#109=FACE_BOUND('',#108,.T.);
#110=ADVANCED_FACE('NONE',(#109),#73,.T.);
#111=CARTESIAN_POINT('',(0.,386.228288026,0.));
#112=DIRECTION('',(0.,-1.,0.));
#113=DIRECTION('',(0.,0.,-1.));
#114=AXIS2_PLACEMENT_3D('',#111,#112,#113);
#115=TOROIDAL_SURFACE('',#114,11.987,3.);
#116=CARTESIAN_POINT('',(0.,387.728288026,14.585076211));
#117=VERTEX_POINT('',#116);
#118=CARTESIAN_POINT('',(0.,387.728288026,-14.585076211));
#119=VERTEX_POINT('',#118);
#120=CARTESIAN_POINT('',(0.,387.728288026,0.));
#121=DIRECTION('',(0.,1.,0.));
#122=DIRECTION('',(0.,-0.,1.));
#123=AXIS2_PLACEMENT_3D('',#120,#121,#122);
#124=CIRCLE('',#123,14.585076211);
#125=EDGE_CURVE('',#117,#119,#124,.T.);
#126=ORIENTED_EDGE('',*,*,#125,.F.);
#127=CARTESIAN_POINT('',(0.,386.228288026,14.987));
#128=VERTEX_POINT('',#127);
#129=CARTESIAN_POINT('',(0.,386.228288026,11.987));
#130=DIRECTION('',(1.,0.,-0.));
#131=DIRECTION('',(-0.,0.,-1.));
#132=AXIS2_PLACEMENT_3D('',#129,#130,#131);
#133=CIRCLE('',#132,3.);
#134=EDGE_CURVE('',#117,#128,#133,.T.);
#135=ORIENTED_EDGE('',*,*,#134,.T.);
#136=CARTESIAN_POINT('',(-0.,386.228288026,-14.987));
#137=VERTEX_POINT('',#136);
#138=CARTESIAN_POINT('',(0.,386.228288026,0.));
#139=DIRECTION('',(0.,-1.,0.));
#140=DIRECTION('',(0.,0.,-1.));
#141=AXIS2_PLACEMENT_3D('',#138,#139,#140);
#142=CIRCLE('',#141,14.987);
#143=EDGE_CURVE('',#137,#128,#142,.T.);
#144=ORIENTED_EDGE('',*,*,#143,.F.);
#145=CARTESIAN_POINT('',(0.,386.228288026,-11.987));
#146=DIRECTION('',(-1.,0.,0.));
#147=DIRECTION('',(0.,0.,1.));
#148=AXIS2_PLACEMENT_3D('',#145,#146,#147);
#149=CIRCLE('',#148,3.);
#150=EDGE_CURVE('',#119,#137,#149,.T.);
#151=ORIENTED_EDGE('',*,*,#150,.F.);
#152=EDGE_LOOP('',(#126,#135,#144,#151));
#153=FACE_BOUND('',#152,.T.);
#154=ADVANCED_FACE('NONE',(#153),#115,.T.);
#155=CARTESIAN_POINT('',(0.,400.803847577,0.));
#156=DIRECTION('',(-0.,1.,0.));
#157=DIRECTION('',(0.,0.,1.));
#158=AXIS2_PLACEMENT_3D('',#155,#156,#157);
#159=TOROIDAL_SURFACE('',#158,10.5,3.);
#160=CARTESIAN_POINT('',(-0.,400.803847577,-7.5));
#161=VERTEX_POINT('',#160);
#162=CARTESIAN_POINT('',(-0.,400.803847577,7.5));
#163=VERTEX_POINT('',#162);
#164=CARTESIAN_POINT('',(0.,400.803847577,0.));
#165=DIRECTION('',(0.,1.,0.));
#166=DIRECTION('',(0.,-0.,1.));
#167=AXIS2_PLACEMENT_3D('',#164,#165,#166);
#168=CIRCLE('',#167,7.5);
#169=EDGE_CURVE('',#161,#163,#168,.T.);
#170=ORIENTED_EDGE('',*,*,#169,.F.);
#171=CARTESIAN_POINT('',(-0.,399.303847577,-7.901923789));
#172=VERTEX_POINT('',#171);
#173=CARTESIAN_POINT('',(0.,400.803847577,-10.5));
#174=DIRECTION('',(1.,0.,0.));
#175=DIRECTION('',(0.,0.,-1.));
#176=AXIS2_PLACEMENT_3D('',#173,#174,#175);
#177=CIRCLE('',#176,3.);
#178=EDGE_CURVE('',#161,#172,#177,.T.);
#179=ORIENTED_EDGE('',*,*,#178,.T.);
#180=CARTESIAN_POINT('',(0.,399.303847577,7.901923789));
#181=VERTEX_POINT('',#180);
#182=CARTESIAN_POINT('',(0.,399.303847577,0.));
#183=DIRECTION('',(0.,-1.,0.));
#184=DIRECTION('',(0.,0.,-1.));
#185=AXIS2_PLACEMENT_3D('',#182,#183,#184);
#186=CIRCLE('',#185,7.901923789);
#187=EDGE_CURVE('',#181,#172,#186,.T.);
#188=ORIENTED_EDGE('',*,*,#187,.F.);
#189=CARTESIAN_POINT('',(0.,400.803847577,10.5));
#190=DIRECTION('',(-1.,0.,0.));
#191=DIRECTION('',(0.,0.,1.));
#192=AXIS2_PLACEMENT_3D('',#189,#190,#191);
#193=CIRCLE('',#192,3.);
#194=EDGE_CURVE('',#163,#181,#193,.T.);
#195=ORIENTED_EDGE('',*,*,#194,.F.);
#196=EDGE_LOOP('',(#170,#179,#188,#195));
#197=FACE_BOUND('',#196,.T.);
#198=ADVANCED_FACE('NONE',(#197),#159,.F.);
#199=CARTESIAN_POINT('',(0.,436.205771366,0.));
#200=DIRECTION('',(0.,-1.,0.));
#201=DIRECTION('',(0.,0.,-1.));
#202=AXIS2_PLACEMENT_3D('',#199,#200,#201);
#203=TOROIDAL_SURFACE('',#202,4.5,3.);
#204=CARTESIAN_POINT('',(-0.,437.705771366,7.098076211));
#205=VERTEX_POINT('',#204);
#206=CARTESIAN_POINT('',(0.,437.705771366,-7.098076211));
#207=VERTEX_POINT('',#206);
#208=CARTESIAN_POINT('',(0.,437.705771366,0.));
#209=DIRECTION('',(0.,1.,0.));
#210=DIRECTION('',(0.,-0.,1.));
#211=AXIS2_PLACEMENT_3D('',#208,#209,#210);
#212=CIRCLE('',#211,7.098076211);
#213=EDGE_CURVE('',#205,#207,#212,.T.);
#214=ORIENTED_EDGE('',*,*,#213,.F.);
#215=CARTESIAN_POINT('',(0.,436.205771366,7.5));
#216=VERTEX_POINT('',#215);
#217=CARTESIAN_POINT('',(0.,436.205771366,4.5));
#218=DIRECTION('',(1.,0.,-0.));
#219=DIRECTION('',(-0.,0.,-1.));
#220=AXIS2_PLACEMENT_3D('',#217,#218,#219);
#221=CIRCLE('',#220,3.);
#222=EDGE_CURVE('',#205,#216,#221,.T.);
#223=ORIENTED_EDGE('',*,*,#222,.T.);
#224=CARTESIAN_POINT('',(-0.,436.205771366,-7.5));
#225=VERTEX_POINT('',#224);
#226=CARTESIAN_POINT('',(0.,436.205771366,0.));
#227=DIRECTION('',(0.,-1.,0.));
#228=DIRECTION('',(0.,0.,-1.));
#229=AXIS2_PLACEMENT_3D('',#226,#227,#228);
#230=CIRCLE('',#229,7.5);
#231=EDGE_CURVE('',#225,#216,#230,.T.);
#232=ORIENTED_EDGE('',*,*,#231,.F.);
#233=CARTESIAN_POINT('',(0.,436.205771366,-4.5));
#234=DIRECTION('',(-1.,0.,0.));
#235=DIRECTION('',(0.,0.,1.));
#236=AXIS2_PLACEMENT_3D('',#233,#234,#235);
#237=CIRCLE('',#236,3.);
#238=EDGE_CURVE('',#207,#225,#237,.T.);
#239=ORIENTED_EDGE('',*,*,#238,.F.);
#240=EDGE_LOOP('',(#214,#223,#232,#239));
#241=FACE_BOUND('',#240,.T.);
#242=ADVANCED_FACE('NONE',(#241),#203,.T.);
#243=CARTESIAN_POINT('',(0.,-550.,0.));
#244=DIRECTION('',(0.,-1.,0.));
#245=DIRECTION('',(0.,0.,-1.));
#246=AXIS2_PLACEMENT_3D('',#243,#244,#245);
#247=CONICAL_SURFACE('',#246,577.35026919,30.);
#248=CARTESIAN_POINT('',(0.,450.,0.));
#249=VERTEX_POINT('',#248);
#250=CARTESIAN_POINT('',(0.,450.,0.));
#251=DIRECTION('',(0.,-0.866025404,-0.5));
#252=VECTOR('',#251,14.196152423);
#253=LINE('',#250,#252);
#254=EDGE_CURVE('',#249,#207,#253,.T.);
#255=ORIENTED_EDGE('',*,*,#254,.F.);
#256=CARTESIAN_POINT('',(-0.,450.,-0.));
#257=DIRECTION('',(0.,-0.866025404,0.5));
#258=VECTOR('',#257,14.196152423);
#259=LINE('',#256,#258);
#260=EDGE_CURVE('',#249,#205,#259,.T.);
#261=ORIENTED_EDGE('',*,*,#260,.T.);
#262=ORIENTED_EDGE('',*,*,#213,.T.);
#263=EDGE_LOOP('',(#255,#261,#262));
#264=FACE_BOUND('',#263,.T.);
#265=ADVANCED_FACE('NONE',(#264),#247,.T.);
#266=CARTESIAN_POINT('',(0.,450.,0.));
#267=DIRECTION('',(-0.,1.,0.));
#268=DIRECTION('',(0.,0.,1.));
#269=AXIS2_PLACEMENT_3D('',#266,#267,#268);
#270=CYLINDRICAL_SURFACE('',#269,7.5);
#271=CARTESIAN_POINT('',(0.,400.803847577,0.));
#272=DIRECTION('',(0.,1.,0.));
#273=DIRECTION('',(0.,-0.,1.));
#274=AXIS2_PLACEMENT_3D('',#271,#272,#273);
#275=CIRCLE('',#274,7.5);
#276=EDGE_CURVE('',#163,#161,#275,.T.);
#277=ORIENTED_EDGE('',*,*,#276,.T.);
#278=CARTESIAN_POINT('',(0.,400.803847577,-7.5));
#279=DIRECTION('',(0.,1.,0.));
#280=VECTOR('',#279,35.401923789);
#281=LINE('',#278,#280);
#282=EDGE_CURVE('',#161,#225,#281,.T.);
#283=ORIENTED_EDGE('',*,*,#282,.T.);
#284=ORIENTED_EDGE('',*,*,#231,.T.);
#285=CARTESIAN_POINT('',(0.,400.803847577,7.5));
#286=DIRECTION('',(0.,1.,0.));
#287=VECTOR('',#286,35.401923789);
#288=LINE('',#285,#287);
#289=EDGE_CURVE('',#163,#216,#288,.T.);
#290=ORIENTED_EDGE('',*,*,#289,.F.);
#291=EDGE_LOOP('',(#277,#283,#284,#290));
#292=FACE_BOUND('',#291,.T.);
#293=ADVANCED_FACE('NONE',(#292),#270,.T.);
#294=CARTESIAN_POINT('',(0.,400.,0.));
#295=DIRECTION('',(0.,-1.,0.));
#296=DIRECTION('',(0.,0.,-1.));
#297=AXIS2_PLACEMENT_3D('',#294,#295,#296);
#298=CONICAL_SURFACE('',#297,7.5,30.);
#299=CARTESIAN_POINT('',(0.,399.303847577,0.));
#300=DIRECTION('',(0.,-1.,0.));
#301=DIRECTION('',(0.,0.,-1.));
#302=AXIS2_PLACEMENT_3D('',#299,#300,#301);
#303=CIRCLE('',#302,7.901923789);
#304=EDGE_CURVE('',#172,#181,#303,.T.);
#305=ORIENTED_EDGE('',*,*,#304,.T.);
#306=CARTESIAN_POINT('',(0.,399.303847577,7.901923789));
#307=DIRECTION('',(0.,-0.866025404,0.5));
#308=VECTOR('',#307,13.366304845);
#309=LINE('',#306,#308);
#310=EDGE_CURVE('',#181,#117,#309,.T.);
#311=ORIENTED_EDGE('',*,*,#310,.T.);
#312=ORIENTED_EDGE('',*,*,#125,.T.);
#313=CARTESIAN_POINT('',(0.,399.303847577,-7.901923789));
#314=DIRECTION('',(0.,-0.866025404,-0.5));
#315=VECTOR('',#314,13.366304845);
#316=LINE('',#313,#315);
#317=EDGE_CURVE('',#172,#119,#316,.T.);
#318=ORIENTED_EDGE('',*,*,#317,.F.);
#319=EDGE_LOOP('',(#305,#311,#312,#318));
#320=FACE_BOUND('',#319,.T.);
#321=ADVANCED_FACE('NONE',(#320),#298,.T.);
#322=CARTESIAN_POINT('',(0.,450.,0.));
#323=DIRECTION('',(-0.,1.,0.));
#324=DIRECTION('',(0.,0.,1.));
#325=AXIS2_PLACEMENT_3D('',#322,#323,#324);
#326=CYLINDRICAL_SURFACE('',#325,14.987);
#327=ORIENTED_EDGE('',*,*,#58,.T.);
#328=CARTESIAN_POINT('',(0.,50.5,-14.987));
#329=DIRECTION('',(0.,1.,0.));
#330=VECTOR('',#329,335.728288026);
#331=LINE('',#328,#330);
#332=EDGE_CURVE('',#44,#137,#331,.T.);
#333=ORIENTED_EDGE('',*,*,#332,.T.);
#334=ORIENTED_EDGE('',*,*,#143,.T.);
#335=CARTESIAN_POINT('',(0.,50.5,14.987));
#336=DIRECTION('',(0.,1.,0.));
#337=VECTOR('',#336,335.728288026);
#338=LINE('',#335,#337);
#339=EDGE_CURVE('',#52,#128,#338,.T.);
#340=ORIENTED_EDGE('',*,*,#339,.F.);
#341=EDGE_LOOP('',(#327,#333,#334,#340));
#342=FACE_BOUND('',#341,.T.);
#343=ADVANCED_FACE('NONE',(#342),#326,.T.);
#344=CARTESIAN_POINT('',(0.,450.,0.));
#345=DIRECTION('',(-0.,1.,0.));
#346=DIRECTION('',(0.,0.,1.));
#347=AXIS2_PLACEMENT_3D('',#344,#345,#346);
#348=CYLINDRICAL_SURFACE('',#347,9.9935);
#349=ORIENTED_EDGE('',*,*,#100,.T.);
#350=CARTESIAN_POINT('',(0.,50.,-9.9935));
#351=VERTEX_POINT('',#350);
#352=CARTESIAN_POINT('',(0.,0.5,-9.9935));
#353=DIRECTION('',(0.,1.,0.));
#354=VECTOR('',#353,49.5);
#355=LINE('',#352,#354);
#356=EDGE_CURVE('',#86,#351,#355,.T.);
#357=ORIENTED_EDGE('',*,*,#356,.T.);
#358=CARTESIAN_POINT('',(-0.,50.,9.9935));
#359=VERTEX_POINT('',#358);
#360=CARTESIAN_POINT('',(0.,50.,0.));
#361=DIRECTION('',(0.,1.,0.));
#362=DIRECTION('',(0.,-0.,1.));
#363=AXIS2_PLACEMENT_3D('',#360,#361,#362);
#364=CIRCLE('',#363,9.9935);
#365=EDGE_CURVE('',#359,#351,#364,.T.);
#366=ORIENTED_EDGE('',*,*,#365,.F.);
#367=CARTESIAN_POINT('',(0.,0.5,9.9935));
#368=DIRECTION('',(0.,1.,0.));
#369=VECTOR('',#368,49.5);
#370=LINE('',#367,#369);
#371=EDGE_CURVE('',#94,#359,#370,.T.);
#372=ORIENTED_EDGE('',*,*,#371,.F.);
#373=EDGE_LOOP('',(#349,#357,#366,#372));
#374=FACE_BOUND('',#373,.T.);
#375=ADVANCED_FACE('NONE',(#374),#348,.T.);
#376=CARTESIAN_POINT('',(0.,0.,0.));
#377=DIRECTION('',(0.,-1.,0.));
#378=DIRECTION('',(0.,0.,-1.));
#379=AXIS2_PLACEMENT_3D('',#376,#377,#378);
#380=PLANE('',#379);
#381=CARTESIAN_POINT('',(0.,0.,0.));
#382=DIRECTION('',(0.,-1.,0.));
#383=DIRECTION('',(0.,0.,-1.));
#384=AXIS2_PLACEMENT_3D('',#381,#382,#383);
#385=CIRCLE('',#384,9.4935);
#386=EDGE_CURVE('',#77,#75,#385,.T.);
#387=ORIENTED_EDGE('',*,*,#386,.T.);
#388=ORIENTED_EDGE('',*,*,#83,.T.);
#389=EDGE_LOOP('',(#387,#388));
#390=FACE_BOUND('',#389,.T.);
#391=ADVANCED_FACE('NONE',(#390),#380,.T.);
#392=CARTESIAN_POINT('',(0.,450.,0.));
#393=DIRECTION('',(-0.,1.,0.));
#394=DIRECTION('',(0.,0.,1.));
#395=AXIS2_PLACEMENT_3D('',#392,#393,#394);
#396=CYLINDRICAL_SURFACE('',#395,9.9935);
#397=ORIENTED_EDGE('',*,*,#356,.F.);
#398=CARTESIAN_POINT('',(0.,0.5,0.));
#399=DIRECTION('',(0.,1.,0.));
#400=DIRECTION('',(0.,0.,-1.));
#401=AXIS2_PLACEMENT_3D('',#398,#399,#400);
#402=CIRCLE('',#401,9.9935);
#403=EDGE_CURVE('',#86,#94,#402,.T.);
#404=ORIENTED_EDGE('',*,*,#403,.T.);
#405=ORIENTED_EDGE('',*,*,#371,.T.);
#406=CARTESIAN_POINT('',(0.,50.,0.));
#407=DIRECTION('',(0.,1.,0.));
#408=DIRECTION('',(0.,-0.,1.));
#409=AXIS2_PLACEMENT_3D('',#406,#407,#408);
#410=CIRCLE('',#409,9.9935);
#411=EDGE_CURVE('',#351,#359,#410,.T.);
#412=ORIENTED_EDGE('',*,*,#411,.F.);
#413=EDGE_LOOP('',(#397,#404,#405,#412));
#414=FACE_BOUND('',#413,.T.);
#415=ADVANCED_FACE('NONE',(#414),#396,.T.);
#416=CARTESIAN_POINT('',(-9.9935,50.,0.));
#417=DIRECTION('',(0.,-1.,0.));
#418=DIRECTION('',(0.,0.,-1.));
#419=AXIS2_PLACEMENT_3D('',#416,#417,#418);
#420=PLANE('',#419);
#421=CARTESIAN_POINT('',(0.,50.,0.));
#422=DIRECTION('',(0.,-1.,0.));
#423=DIRECTION('',(0.,0.,-1.));
#424=AXIS2_PLACEMENT_3D('',#421,#422,#423);
#425=CIRCLE('',#424,14.487);
#426=EDGE_CURVE('',#35,#33,#425,.T.);
#427=ORIENTED_EDGE('',*,*,#426,.T.);
#428=ORIENTED_EDGE('',*,*,#41,.T.);
#429=EDGE_LOOP('',(#427,#428));
#430=FACE_BOUND('',#429,.T.);
#431=ORIENTED_EDGE('',*,*,#365,.T.);
#432=ORIENTED_EDGE('',*,*,#411,.T.);
#433=EDGE_LOOP('',(#431,#432));
#434=FACE_BOUND('',#433,.T.);
#435=ADVANCED_FACE('NONE',(#430,#434),#420,.T.);
#436=CARTESIAN_POINT('',(0.,450.,0.));
#437=DIRECTION('',(-0.,1.,0.));
#438=DIRECTION('',(0.,0.,1.));
#439=AXIS2_PLACEMENT_3D('',#436,#437,#438);
#440=CYLINDRICAL_SURFACE('',#439,14.987);
#441=ORIENTED_EDGE('',*,*,#332,.F.);
#442=CARTESIAN_POINT('',(0.,50.5,0.));
#443=DIRECTION('',(0.,1.,0.));
#444=DIRECTION('',(0.,0.,-1.));
#445=AXIS2_PLACEMENT_3D('',#442,#443,#444);
#446=CIRCLE('',#445,14.987);
#447=EDGE_CURVE('',#44,#52,#446,.T.);
#448=ORIENTED_EDGE('',*,*,#447,.T.);
#449=ORIENTED_EDGE('',*,*,#339,.T.);
#450=CARTESIAN_POINT('',(0.,386.228288026,0.));
#451=DIRECTION('',(0.,-1.,0.));
#452=DIRECTION('',(0.,0.,-1.));
#453=AXIS2_PLACEMENT_3D('',#450,#451,#452);
#454=CIRCLE('',#453,14.987);
#455=EDGE_CURVE('',#128,#137,#454,.T.);
#456=ORIENTED_EDGE('',*,*,#455,.T.);
#457=EDGE_LOOP('',(#441,#448,#449,#456));
#458=FACE_BOUND('',#457,.T.);
#459=ADVANCED_FACE('NONE',(#458),#440,.T.);
#460=CARTESIAN_POINT('',(0.,400.,0.));
#461=DIRECTION('',(0.,-1.,0.));
#462=DIRECTION('',(0.,0.,-1.));
#463=AXIS2_PLACEMENT_3D('',#460,#461,#462);
#464=CONICAL_SURFACE('',#463,7.5,30.);
#465=ORIENTED_EDGE('',*,*,#310,.F.);
#466=ORIENTED_EDGE('',*,*,#187,.T.);
#467=ORIENTED_EDGE('',*,*,#317,.T.);
#468=CARTESIAN_POINT('',(0.,387.728288026,0.));
#469=DIRECTION('',(0.,1.,0.));
#470=DIRECTION('',(0.,-0.,1.));
#471=AXIS2_PLACEMENT_3D('',#468,#469,#470);
#472=CIRCLE('',#471,14.585076211);
#473=EDGE_CURVE('',#119,#117,#472,.T.);
#474=ORIENTED_EDGE('',*,*,#473,.T.);
#475=EDGE_LOOP('',(#465,#466,#467,#474));
#476=FACE_BOUND('',#475,.T.);
#477=ADVANCED_FACE('NONE',(#476),#464,.T.);
#478=CARTESIAN_POINT('',(0.,450.,0.));
#479=DIRECTION('',(-0.,1.,0.));
#480=DIRECTION('',(0.,0.,1.));
#481=AXIS2_PLACEMENT_3D('',#478,#479,#480);
#482=CYLINDRICAL_SURFACE('',#481,7.5);
#483=ORIENTED_EDGE('',*,*,#282,.F.);
#484=ORIENTED_EDGE('',*,*,#169,.T.);
#485=ORIENTED_EDGE('',*,*,#289,.T.);
#486=CARTESIAN_POINT('',(0.,436.205771366,0.));
#487=DIRECTION('',(0.,-1.,0.));
#488=DIRECTION('',(0.,0.,-1.));
#489=AXIS2_PLACEMENT_3D('',#486,#487,#488);
#490=CIRCLE('',#489,7.5);
#491=EDGE_CURVE('',#216,#225,#490,.T.);
#492=ORIENTED_EDGE('',*,*,#491,.T.);
#493=EDGE_LOOP('',(#483,#484,#485,#492));
#494=FACE_BOUND('',#493,.T.);
#495=ADVANCED_FACE('NONE',(#494),#482,.T.);
#496=CARTESIAN_POINT('',(0.,-550.,0.));
#497=DIRECTION('',(0.,-1.,0.));
#498=DIRECTION('',(0.,0.,-1.));
#499=AXIS2_PLACEMENT_3D('',#496,#497,#498);
#500=CONICAL_SURFACE('',#499,577.35026919,30.);
#501=ORIENTED_EDGE('',*,*,#260,.F.);
#502=ORIENTED_EDGE('',*,*,#254,.T.);
#503=CARTESIAN_POINT('',(0.,437.705771366,0.));
#504=DIRECTION('',(0.,1.,0.));
#505=DIRECTION('',(0.,-0.,1.));
#506=AXIS2_PLACEMENT_3D('',#503,#504,#505);
#507=CIRCLE('',#506,7.098076211);
#508=EDGE_CURVE('',#207,#205,#507,.T.);
#509=ORIENTED_EDGE('',*,*,#508,.T.);
#510=EDGE_LOOP('',(#501,#502,#509));
#511=FACE_BOUND('',#510,.T.);
#512=ADVANCED_FACE('NONE',(#511),#500,.T.);
#513=CARTESIAN_POINT('',(0.,436.205771366,0.));
#514=DIRECTION('',(0.,-1.,0.));
#515=DIRECTION('',(0.,0.,-1.));
#516=AXIS2_PLACEMENT_3D('',#513,#514,#515);
#517=TOROIDAL_SURFACE('',#516,4.5,3.);
#518=ORIENTED_EDGE('',*,*,#222,.F.);
#519=ORIENTED_EDGE('',*,*,#508,.F.);
#520=ORIENTED_EDGE('',*,*,#238,.T.);
#521=ORIENTED_EDGE('',*,*,#491,.F.);
#522=EDGE_LOOP('',(#518,#519,#520,#521));
#523=FACE_BOUND('',#522,.T.);
#524=ADVANCED_FACE('NONE',(#523),#517,.T.);
#525=CARTESIAN_POINT('',(0.,400.803847577,0.));
#526=DIRECTION('',(-0.,1.,0.));
#527=DIRECTION('',(0.,0.,1.));
#528=AXIS2_PLACEMENT_3D('',#525,#526,#527);
#529=TOROIDAL_SURFACE('',#528,10.5,3.);
#530=ORIENTED_EDGE('',*,*,#178,.F.);
#531=ORIENTED_EDGE('',*,*,#276,.F.);
#532=ORIENTED_EDGE('',*,*,#194,.T.);
#533=ORIENTED_EDGE('',*,*,#304,.F.);
#534=EDGE_LOOP('',(#530,#531,#532,#533));
#535=FACE_BOUND('',#534,.T.);
#536=ADVANCED_FACE('NONE',(#535),#529,.F.);
#537=CARTESIAN_POINT('',(0.,386.228288026,0.));
#538=DIRECTION('',(0.,-1.,0.));
#539=DIRECTION('',(0.,0.,-1.));
#540=AXIS2_PLACEMENT_3D('',#537,#538,#539);
#541=TOROIDAL_SURFACE('',#540,11.987,3.);
#542=ORIENTED_EDGE('',*,*,#134,.F.);
#543=ORIENTED_EDGE('',*,*,#473,.F.);
#544=ORIENTED_EDGE('',*,*,#150,.T.);
#545=ORIENTED_EDGE('',*,*,#455,.F.);
#546=EDGE_LOOP('',(#542,#543,#544,#545));
#547=FACE_BOUND('',#546,.T.);
#548=ADVANCED_FACE('NONE',(#547),#541,.T.);
#549=CARTESIAN_POINT('',(0.,0.5,0.));
#550=DIRECTION('',(-0.,1.,0.));
#551=DIRECTION('',(0.,0.,1.));
#552=AXIS2_PLACEMENT_3D('',#549,#550,#551);
#553=CONICAL_SURFACE('',#552,9.9935,45.);
#554=ORIENTED_EDGE('',*,*,#91,.F.);
#555=ORIENTED_EDGE('',*,*,#386,.F.);
#556=ORIENTED_EDGE('',*,*,#106,.T.);
#557=ORIENTED_EDGE('',*,*,#403,.F.);
#558=EDGE_LOOP('',(#554,#555,#556,#557));
#559=FACE_BOUND('',#558,.T.);
#560=ADVANCED_FACE('NONE',(#559),#553,.T.);
#561=CARTESIAN_POINT('',(0.,50.5,0.));
#562=DIRECTION('',(-0.,1.,0.));
#563=DIRECTION('',(0.,0.,1.));
#564=AXIS2_PLACEMENT_3D('',#561,#562,#563);
#565=CONICAL_SURFACE('',#564,14.987,45.);
#566=ORIENTED_EDGE('',*,*,#49,.F.);
#567=ORIENTED_EDGE('',*,*,#426,.F.);
#568=ORIENTED_EDGE('',*,*,#64,.T.);
#569=ORIENTED_EDGE('',*,*,#447,.F.);
#570=EDGE_LOOP('',(#566,#567,#568,#569));
#571=FACE_BOUND('',#570,.T.);
#572=ADVANCED_FACE('NONE',(#571),#565,.T.);
#573=CLOSED_SHELL('',(#68,#110,#154,#198,#242,#265,#293,#321,#343,#375,#391,#415,#435,#459,#477,#495,#512,#524,#536,#548,#560,#572));
#574=MANIFOLD_SOLID_BREP('Chamfer 0.5mm',#573);
#575=COLOUR_RGB('',0.647058845,0.619607866,0.588235319);
#576=FILL_AREA_STYLE_COLOUR('',#575);
#577=FILL_AREA_STYLE('',(#576));
#578=SURFACE_STYLE_FILL_AREA(#577);
#579=SURFACE_SIDE_STYLE('',(#578));
#580=SURFACE_STYLE_USAGE(.BOTH.,#579);
#581=PRESENTATION_STYLE_ASSIGNMENT((#580));
#26=STYLED_ITEM('',(#581),#574);
#582=INTEGER_REPRESENTATION_ITEM('ATTRIB_BOUNDING_BOX_ALGORITHM',3);
#583=ID_ATTRIBUTE('SA #584',#584);
#584=SHAPE_ASPECT('properties','',#23,.F.);
#585=GEOMETRIC_ITEM_SPECIFIC_USAGE('','properties',#584,#17,#574);
#586=PROPERTY_DEFINITION('ATTRIB_BOUNDING_BOX_ALGORITHM','',#584);
#587=REPRESENTATION('',(#582),#10);
#588=PROPERTY_DEFINITION_REPRESENTATION(#586,#587);
#589=GENERAL_PROPERTY('','ATTRIB_BOUNDING_BOX_ALGORITHM','');
#590=GENERAL_PROPERTY_ASSOCIATION('','',#589,#586);
#16=SHAPE_REPRESENTATION('6046 TCP Calibration Tool, Long Point, \S\X=30mm L=450mm',(#15),#10);
#17=ADVANCED_BREP_SHAPE_REPRESENTATION('6046 TCP Calibration Tool, Long Point, \S\X=30mm L=450mm',(#574),#10);
#598=SHAPE_REPRESENTATION_RELATIONSHIP('','',#16,#17);
#599=CARTESIAN_POINT('',(0.,0.,0.));
#600=DIRECTION('',(0.,0.,1.));
#601=DIRECTION('',(1.,0.,0.));
#602=AXIS2_PLACEMENT_3D('',#599,#600,#601);
#604=MAPPED_ITEM('',#603,#602);
#603=REPRESENTATION_MAP(#602,#16);
#605=APPLICATION_CONTEXT('Managed model based 3d engineering');
#606=APPLICATION_PROTOCOL_DEFINITION('international standard','ap242_managed_model_based_3d_engineering',2013,#605);
#607=PRODUCT_CONTEXT('',#605,'mechanical');
#608=PRODUCT_DEFINITION_CONTEXT('part definition',#605,'design');
#24=PRODUCT('6046 TCP Calibration Tool, Long Point, \S\X=30mm L=450mm','6046 TCP Calibration Tool, Long Point, \S\X=30mm L=450mm','',(#607));
#609=PRODUCT_RELATED_PRODUCT_CATEGORY('part','',(#24));
#610=PRODUCT_DEFINITION_FORMATION_WITH_SPECIFIED_SOURCE('','',#24,.NOT_KNOWN.);
#25=PRODUCT_DEFINITION('design','',#610,#608);
#23=PRODUCT_DEFINITION_SHAPE('','',#25);
#611=SHAPE_DEFINITION_REPRESENTATION(#23,#16);
#11=DRAUGHTING_MODEL('',(#604),#10);
#1=MECHANICAL_DESIGN_GEOMETRIC_PRESENTATION_REPRESENTATION('',(#26),#10);
ENDSEC;
END-ISO-10303-21;
