ISO-10303-21;
HEADER;

/* File generated by Alibre Version V23 */

FILE_DESCRIPTION(('HOOPS Exchange Step'),'2;1');

FILE_NAME('C:\\Users\\Gebruiker\\AppData\\Local\\Temp\\Alibre Design\\export-DF603E92-7D85-4674-BD0D-8D01490BA185.stp',
'2022-09-13T17:08:41+02:00',
('Engineering'),
('Alibre'),
'HOOPS Exchange 2021.0',
'Alibre',
'Unknown authorisation');

FILE_SCHEMA( ('AP242_MANAGED_MODEL_BASED_3D_ENGINEERING_MIM_LF {1 0 10303 442 1 1 4 }') );

ENDSEC;

DATA;
#3=(NAMED_UNIT(*)PLANE_ANGLE_UNIT()SI_UNIT($,.RADIAN.));
#4=PLANE_ANGLE_MEASURE_WITH_UNIT(PLANE_ANGLE_MEASURE(0.0174532925),#3);
#5=(CONVERSION_BASED_UNIT('DEGREE',#4)NAMED_UNIT(#6)PLANE_ANGLE_UNIT());
#6=DIMENSIONAL_EXPONENTS(0.,0.,0.,0.,0.,0.,0.);
#7=(NAMED_UNIT(*)SI_UNIT($,.STERADIAN.)SOLID_ANGLE_UNIT());
#8=(LENGTH_UNIT()NAMED_UNIT(*)SI_UNIT(.MILLI.,.METRE.));
#9=UNCERTAINTY_MEASURE_WITH_UNIT(LENGTH_MEASURE(1.000000E-06),#8,'DISTANCE_ACCURACY_VALUE','Maximum Tolerance applied to model');
#10=(GEOMETRIC_REPRESENTATION_CONTEXT(3)GLOBAL_UNCERTAINTY_ASSIGNED_CONTEXT((#9))GLOBAL_UNIT_ASSIGNED_CONTEXT((#8,#5,#7))REPRESENTATION_CONTEXT('','6048 8x7x90mm DIN 6885 A Parallel key, Steel C45'));
#12=CARTESIAN_POINT('',(0.,0.,0.));
#13=DIRECTION('',(0.,0.,1.));
#14=DIRECTION('',(1.,0.,0.));
#15=AXIS2_PLACEMENT_3D('',#12,#13,#14);
#27=CARTESIAN_POINT('',(0.,0.,7.));
#28=DIRECTION('',(0.,0.,1.));
#29=DIRECTION('',(1.,0.,0.));
#30=AXIS2_PLACEMENT_3D('',#27,#28,#29);
#31=PLANE('',#30);
#32=CARTESIAN_POINT('',(-44.6,-0.,7.));
#33=VERTEX_POINT('',#32);
#34=CARTESIAN_POINT('',(-41.,3.6,7.));
#35=VERTEX_POINT('',#34);
#36=CARTESIAN_POINT('',(-41.,0.,7.));
#37=DIRECTION('',(0.,0.,-1.));
#38=DIRECTION('',(-1.,0.,0.));
#39=AXIS2_PLACEMENT_3D('',#36,#37,#38);
#40=CIRCLE('',#39,3.6);
#41=EDGE_CURVE('',#33,#35,#40,.T.);
#42=ORIENTED_EDGE('',*,*,#41,.F.);
#43=CARTESIAN_POINT('',(-41.,-3.6,7.));
#44=VERTEX_POINT('',#43);
#45=CARTESIAN_POINT('',(-41.,0.,7.));
#46=DIRECTION('',(0.,0.,-1.));
#47=DIRECTION('',(-1.,0.,0.));
#48=AXIS2_PLACEMENT_3D('',#45,#46,#47);
#49=CIRCLE('',#48,3.6);
#50=EDGE_CURVE('',#44,#33,#49,.T.);
#51=ORIENTED_EDGE('',*,*,#50,.F.);
#52=CARTESIAN_POINT('',(41.,-3.6,7.));
#53=VERTEX_POINT('',#52);
#54=CARTESIAN_POINT('',(41.,-3.6,7.));
#55=DIRECTION('',(-1.,0.,0.));
#56=VECTOR('',#55,82.);
#57=LINE('',#54,#56);
#58=EDGE_CURVE('',#53,#44,#57,.T.);
#59=ORIENTED_EDGE('',*,*,#58,.F.);
#60=CARTESIAN_POINT('',(44.6,0.,7.));
#61=VERTEX_POINT('',#60);
#62=CARTESIAN_POINT('',(41.,0.,7.));
#63=DIRECTION('',(0.,0.,-1.));
#64=DIRECTION('',(-1.,0.,0.));
#65=AXIS2_PLACEMENT_3D('',#62,#63,#64);
#66=CIRCLE('',#65,3.6);
#67=EDGE_CURVE('',#61,#53,#66,.T.);
#68=ORIENTED_EDGE('',*,*,#67,.F.);
#69=CARTESIAN_POINT('',(41.,3.6,7.));
#70=VERTEX_POINT('',#69);
#71=CARTESIAN_POINT('',(41.,0.,7.));
#72=DIRECTION('',(0.,0.,-1.));
#73=DIRECTION('',(-1.,0.,0.));
#74=AXIS2_PLACEMENT_3D('',#71,#72,#73);
#75=CIRCLE('',#74,3.6);
#76=EDGE_CURVE('',#70,#61,#75,.T.);
#77=ORIENTED_EDGE('',*,*,#76,.F.);
#78=CARTESIAN_POINT('',(41.,3.6,7.));
#79=DIRECTION('',(-1.,0.,0.));
#80=VECTOR('',#79,82.);
#81=LINE('',#78,#80);
#82=EDGE_CURVE('',#70,#35,#81,.T.);
#83=ORIENTED_EDGE('',*,*,#82,.T.);
#84=EDGE_LOOP('',(#42,#51,#59,#68,#77,#83));
#85=FACE_BOUND('',#84,.T.);
#86=ADVANCED_FACE('',(#85),#31,.T.);
#87=CARTESIAN_POINT('',(-41.,0.,-3.5));
#88=DIRECTION('',(0.,0.,-1.));
#89=DIRECTION('',(-1.,0.,0.));
#90=AXIS2_PLACEMENT_3D('',#87,#88,#89);
#91=CYLINDRICAL_SURFACE('',#90,4.);
#92=CARTESIAN_POINT('',(-45.,-0.,0.4));
#93=VERTEX_POINT('',#92);
#94=CARTESIAN_POINT('',(-45.,-0.,6.6));
#95=VERTEX_POINT('',#94);
#96=CARTESIAN_POINT('',(-45.,0.,0.4));
#97=DIRECTION('',(0.,-0.,1.));
#98=VECTOR('',#97,6.2);
#99=LINE('',#96,#98);
#100=EDGE_CURVE('',#93,#95,#99,.T.);
#101=ORIENTED_EDGE('',*,*,#100,.T.);
#102=CARTESIAN_POINT('',(-41.,4.,6.6));
#103=VERTEX_POINT('',#102);
#104=CARTESIAN_POINT('',(-41.,0.,6.6));
#105=DIRECTION('',(0.,0.,-1.));
#106=DIRECTION('',(-1.,0.,0.));
#107=AXIS2_PLACEMENT_3D('',#104,#105,#106);
#108=CIRCLE('',#107,4.);
#109=EDGE_CURVE('',#95,#103,#108,.T.);
#110=ORIENTED_EDGE('',*,*,#109,.T.);
#111=CARTESIAN_POINT('',(-41.,4.,0.4));
#112=VERTEX_POINT('',#111);
#113=CARTESIAN_POINT('',(-41.,4.,0.4));
#114=DIRECTION('',(0.,0.,1.));
#115=VECTOR('',#114,6.2);
#116=LINE('',#113,#115);
#117=EDGE_CURVE('',#112,#103,#116,.T.);
#118=ORIENTED_EDGE('',*,*,#117,.F.);
#119=CARTESIAN_POINT('',(-41.,0.,0.4));
#120=DIRECTION('',(0.,0.,-1.));
#121=DIRECTION('',(-1.,0.,0.));
#122=AXIS2_PLACEMENT_3D('',#119,#120,#121);
#123=CIRCLE('',#122,4.);
#124=EDGE_CURVE('',#93,#112,#123,.T.);
#125=ORIENTED_EDGE('',*,*,#124,.F.);
#126=EDGE_LOOP('',(#101,#110,#118,#125));
#127=FACE_BOUND('',#126,.T.);
#128=ADVANCED_FACE('',(#127),#91,.T.);
#129=CARTESIAN_POINT('',(45.,3.6,0.));
#130=DIRECTION('',(0.,-0.707106781,0.707106781));
#131=DIRECTION('',(0.,-0.707106781,-0.707106781));
#132=AXIS2_PLACEMENT_3D('',#129,#130,#131);
#133=PLANE('',#132);
#134=CARTESIAN_POINT('',(-41.,3.6,0.));
#135=VERTEX_POINT('',#134);
#136=CARTESIAN_POINT('',(-41.,3.6,0.));
#137=DIRECTION('',(0.,0.707106781,0.707106781));
#138=VECTOR('',#137,0.565685425);
#139=LINE('',#136,#138);
#140=EDGE_CURVE('',#135,#112,#139,.T.);
#141=ORIENTED_EDGE('',*,*,#140,.T.);
#142=CARTESIAN_POINT('',(41.,4.,0.4));
#143=VERTEX_POINT('',#142);
#144=CARTESIAN_POINT('',(41.,4.,0.4));
#145=DIRECTION('',(-1.,0.,0.));
#146=VECTOR('',#145,82.);
#147=LINE('',#144,#146);
#148=EDGE_CURVE('',#143,#112,#147,.T.);
#149=ORIENTED_EDGE('',*,*,#148,.F.);
#150=CARTESIAN_POINT('',(41.,3.6,0.));
#151=VERTEX_POINT('',#150);
#152=CARTESIAN_POINT('',(41.,3.6,0.));
#153=DIRECTION('',(0.,0.707106781,0.707106781));
#154=VECTOR('',#153,0.565685425);
#155=LINE('',#152,#154);
#156=EDGE_CURVE('',#151,#143,#155,.T.);
#157=ORIENTED_EDGE('',*,*,#156,.F.);
#158=CARTESIAN_POINT('',(41.,3.6,0.));
#159=DIRECTION('',(-1.,0.,0.));
#160=VECTOR('',#159,82.);
#161=LINE('',#158,#160);
#162=EDGE_CURVE('',#151,#135,#161,.T.);
#163=ORIENTED_EDGE('',*,*,#162,.T.);
#164=EDGE_LOOP('',(#141,#149,#157,#163));
#165=FACE_BOUND('',#164,.T.);
#166=ADVANCED_FACE('',(#165),#133,.F.);
#167=CARTESIAN_POINT('',(45.,4.,6.6));
#168=DIRECTION('',(0.,-0.707106781,-0.707106781));
#169=DIRECTION('',(0.,0.707106781,-0.707106781));
#170=AXIS2_PLACEMENT_3D('',#167,#168,#169);
#171=PLANE('',#170);
#172=CARTESIAN_POINT('',(-41.,4.,6.6));
#173=DIRECTION('',(0.,-0.707106781,0.707106781));
#174=VECTOR('',#173,0.565685425);
#175=LINE('',#172,#174);
#176=EDGE_CURVE('',#103,#35,#175,.T.);
#177=ORIENTED_EDGE('',*,*,#176,.T.);
#178=ORIENTED_EDGE('',*,*,#82,.F.);
#179=CARTESIAN_POINT('',(41.,4.,6.6));
#180=VERTEX_POINT('',#179);
#181=CARTESIAN_POINT('',(41.,4.,6.6));
#182=DIRECTION('',(0.,-0.707106781,0.707106781));
#183=VECTOR('',#182,0.565685425);
#184=LINE('',#181,#183);
#185=EDGE_CURVE('',#180,#70,#184,.T.);
#186=ORIENTED_EDGE('',*,*,#185,.F.);
#187=CARTESIAN_POINT('',(41.,4.,6.6));
#188=DIRECTION('',(-1.,0.,0.));
#189=VECTOR('',#188,82.);
#190=LINE('',#187,#189);
#191=EDGE_CURVE('',#180,#103,#190,.T.);
#192=ORIENTED_EDGE('',*,*,#191,.T.);
#193=EDGE_LOOP('',(#177,#178,#186,#192));
#194=FACE_BOUND('',#193,.T.);
#195=ADVANCED_FACE('',(#194),#171,.F.);
#196=CARTESIAN_POINT('',(41.,0.,-3.5));
#197=DIRECTION('',(0.,0.,-1.));
#198=DIRECTION('',(-1.,0.,0.));
#199=AXIS2_PLACEMENT_3D('',#196,#197,#198);
#200=CYLINDRICAL_SURFACE('',#199,4.);
#201=CARTESIAN_POINT('',(45.,0.,0.4));
#202=VERTEX_POINT('',#201);
#203=CARTESIAN_POINT('',(45.,0.,6.6));
#204=VERTEX_POINT('',#203);
#205=CARTESIAN_POINT('',(45.,0.,0.4));
#206=DIRECTION('',(-0.,-0.,1.));
#207=VECTOR('',#206,6.2);
#208=LINE('',#205,#207);
#209=EDGE_CURVE('',#202,#204,#208,.T.);
#210=ORIENTED_EDGE('',*,*,#209,.T.);
#211=CARTESIAN_POINT('',(41.,-4.,6.6));
#212=VERTEX_POINT('',#211);
#213=CARTESIAN_POINT('',(41.,0.,6.6));
#214=DIRECTION('',(0.,0.,-1.));
#215=DIRECTION('',(-1.,0.,0.));
#216=AXIS2_PLACEMENT_3D('',#213,#214,#215);
#217=CIRCLE('',#216,4.);
#218=EDGE_CURVE('',#204,#212,#217,.T.);
#219=ORIENTED_EDGE('',*,*,#218,.T.);
#220=CARTESIAN_POINT('',(41.,-4.,0.4));
#221=VERTEX_POINT('',#220);
#222=CARTESIAN_POINT('',(41.,-4.,0.4));
#223=DIRECTION('',(0.,0.,1.));
#224=VECTOR('',#223,6.2);
#225=LINE('',#222,#224);
#226=EDGE_CURVE('',#221,#212,#225,.T.);
#227=ORIENTED_EDGE('',*,*,#226,.F.);
#228=CARTESIAN_POINT('',(41.,0.,0.4));
#229=DIRECTION('',(0.,0.,-1.));
#230=DIRECTION('',(-1.,0.,0.));
#231=AXIS2_PLACEMENT_3D('',#228,#229,#230);
#232=CIRCLE('',#231,4.);
#233=EDGE_CURVE('',#202,#221,#232,.T.);
#234=ORIENTED_EDGE('',*,*,#233,.F.);
#235=EDGE_LOOP('',(#210,#219,#227,#234));
#236=FACE_BOUND('',#235,.T.);
#237=ADVANCED_FACE('',(#236),#200,.T.);
#238=CARTESIAN_POINT('',(45.,-3.6,7.));
#239=DIRECTION('',(0.,0.707106781,-0.707106781));
#240=DIRECTION('',(0.,0.707106781,0.707106781));
#241=AXIS2_PLACEMENT_3D('',#238,#239,#240);
#242=PLANE('',#241);
#243=ORIENTED_EDGE('',*,*,#58,.T.);
#244=CARTESIAN_POINT('',(-41.,-4.,6.6));
#245=VERTEX_POINT('',#244);
#246=CARTESIAN_POINT('',(-41.,-4.,6.6));
#247=DIRECTION('',(0.,0.707106781,0.707106781));
#248=VECTOR('',#247,0.565685425);
#249=LINE('',#246,#248);
#250=EDGE_CURVE('',#245,#44,#249,.T.);
#251=ORIENTED_EDGE('',*,*,#250,.F.);
#252=CARTESIAN_POINT('',(41.,-4.,6.6));
#253=DIRECTION('',(-1.,0.,0.));
#254=VECTOR('',#253,82.);
#255=LINE('',#252,#254);
#256=EDGE_CURVE('',#212,#245,#255,.T.);
#257=ORIENTED_EDGE('',*,*,#256,.F.);
#258=CARTESIAN_POINT('',(41.,-4.,6.6));
#259=DIRECTION('',(0.,0.707106781,0.707106781));
#260=VECTOR('',#259,0.565685425);
#261=LINE('',#258,#260);
#262=EDGE_CURVE('',#212,#53,#261,.T.);
#263=ORIENTED_EDGE('',*,*,#262,.T.);
#264=EDGE_LOOP('',(#243,#251,#257,#263));
#265=FACE_BOUND('',#264,.T.);
#266=ADVANCED_FACE('',(#265),#242,.F.);
#267=CARTESIAN_POINT('',(45.,-4.,0.4));
#268=DIRECTION('',(0.,0.707106781,0.707106781));
#269=DIRECTION('',(0.,-0.707106781,0.707106781));
#270=AXIS2_PLACEMENT_3D('',#267,#268,#269);
#271=PLANE('',#270);
#272=CARTESIAN_POINT('',(-41.,-4.,0.4));
#273=VERTEX_POINT('',#272);
#274=CARTESIAN_POINT('',(41.,-4.,0.4));
#275=DIRECTION('',(-1.,0.,0.));
#276=VECTOR('',#275,82.);
#277=LINE('',#274,#276);
#278=EDGE_CURVE('',#221,#273,#277,.T.);
#279=ORIENTED_EDGE('',*,*,#278,.T.);
#280=CARTESIAN_POINT('',(-41.,-3.6,-0.));
#281=VERTEX_POINT('',#280);
#282=CARTESIAN_POINT('',(-41.,-3.6,0.));
#283=DIRECTION('',(0.,-0.707106781,0.707106781));
#284=VECTOR('',#283,0.565685425);
#285=LINE('',#282,#284);
#286=EDGE_CURVE('',#281,#273,#285,.T.);
#287=ORIENTED_EDGE('',*,*,#286,.F.);
#288=CARTESIAN_POINT('',(41.,-3.6,0.));
#289=VERTEX_POINT('',#288);
#290=CARTESIAN_POINT('',(41.,-3.6,0.));
#291=DIRECTION('',(-1.,0.,0.));
#292=VECTOR('',#291,82.);
#293=LINE('',#290,#292);
#294=EDGE_CURVE('',#289,#281,#293,.T.);
#295=ORIENTED_EDGE('',*,*,#294,.F.);
#296=CARTESIAN_POINT('',(41.,-3.6,0.));
#297=DIRECTION('',(0.,-0.707106781,0.707106781));
#298=VECTOR('',#297,0.565685425);
#299=LINE('',#296,#298);
#300=EDGE_CURVE('',#289,#221,#299,.T.);
#301=ORIENTED_EDGE('',*,*,#300,.T.);
#302=EDGE_LOOP('',(#279,#287,#295,#301));
#303=FACE_BOUND('',#302,.T.);
#304=ADVANCED_FACE('',(#303),#271,.F.);
#305=CARTESIAN_POINT('',(45.,4.,7.));
#306=DIRECTION('',(0.,-1.,0.));
#307=DIRECTION('',(0.,0.,-1.));
#308=AXIS2_PLACEMENT_3D('',#305,#306,#307);
#309=PLANE('',#308);
#310=ORIENTED_EDGE('',*,*,#117,.T.);
#311=ORIENTED_EDGE('',*,*,#191,.F.);
#312=CARTESIAN_POINT('',(41.,4.,0.4));
#313=DIRECTION('',(0.,0.,1.));
#314=VECTOR('',#313,6.2);
#315=LINE('',#312,#314);
#316=EDGE_CURVE('',#143,#180,#315,.T.);
#317=ORIENTED_EDGE('',*,*,#316,.F.);
#318=ORIENTED_EDGE('',*,*,#148,.T.);
#319=EDGE_LOOP('',(#310,#311,#317,#318));
#320=FACE_BOUND('',#319,.T.);
#321=ADVANCED_FACE('',(#320),#309,.F.);
#322=CARTESIAN_POINT('',(-45.,-4.,7.));
#323=DIRECTION('',(0.,1.,0.));
#324=DIRECTION('',(0.,0.,1.));
#325=AXIS2_PLACEMENT_3D('',#322,#323,#324);
#326=PLANE('',#325);
#327=CARTESIAN_POINT('',(-41.,-4.,0.4));
#328=DIRECTION('',(0.,0.,1.));
#329=VECTOR('',#328,6.2);
#330=LINE('',#327,#329);
#331=EDGE_CURVE('',#273,#245,#330,.T.);
#332=ORIENTED_EDGE('',*,*,#331,.F.);
#333=ORIENTED_EDGE('',*,*,#278,.F.);
#334=ORIENTED_EDGE('',*,*,#226,.T.);
#335=ORIENTED_EDGE('',*,*,#256,.T.);
#336=EDGE_LOOP('',(#332,#333,#334,#335));
#337=FACE_BOUND('',#336,.T.);
#338=ADVANCED_FACE('',(#337),#326,.F.);
#339=CARTESIAN_POINT('',(0.,0.,0.));
#340=DIRECTION('',(0.,0.,1.));
#341=DIRECTION('',(1.,0.,0.));
#342=AXIS2_PLACEMENT_3D('',#339,#340,#341);
#343=PLANE('',#342);
#344=ORIENTED_EDGE('',*,*,#294,.T.);
#345=CARTESIAN_POINT('',(-44.6,-0.,0.));
#346=VERTEX_POINT('',#345);
#347=CARTESIAN_POINT('',(-41.,0.,0.));
#348=DIRECTION('',(0.,0.,-1.));
#349=DIRECTION('',(-1.,0.,0.));
#350=AXIS2_PLACEMENT_3D('',#347,#348,#349);
#351=CIRCLE('',#350,3.6);
#352=EDGE_CURVE('',#281,#346,#351,.T.);
#353=ORIENTED_EDGE('',*,*,#352,.T.);
#354=CARTESIAN_POINT('',(-41.,0.,0.));
#355=DIRECTION('',(0.,0.,-1.));
#356=DIRECTION('',(-1.,0.,0.));
#357=AXIS2_PLACEMENT_3D('',#354,#355,#356);
#358=CIRCLE('',#357,3.6);
#359=EDGE_CURVE('',#346,#135,#358,.T.);
#360=ORIENTED_EDGE('',*,*,#359,.T.);
#361=ORIENTED_EDGE('',*,*,#162,.F.);
#362=CARTESIAN_POINT('',(44.6,0.,0.));
#363=VERTEX_POINT('',#362);
#364=CARTESIAN_POINT('',(41.,0.,0.));
#365=DIRECTION('',(0.,0.,-1.));
#366=DIRECTION('',(-1.,0.,0.));
#367=AXIS2_PLACEMENT_3D('',#364,#365,#366);
#368=CIRCLE('',#367,3.6);
#369=EDGE_CURVE('',#151,#363,#368,.T.);
#370=ORIENTED_EDGE('',*,*,#369,.T.);
#371=CARTESIAN_POINT('',(41.,0.,0.));
#372=DIRECTION('',(0.,0.,-1.));
#373=DIRECTION('',(-1.,0.,0.));
#374=AXIS2_PLACEMENT_3D('',#371,#372,#373);
#375=CIRCLE('',#374,3.6);
#376=EDGE_CURVE('',#363,#289,#375,.T.);
#377=ORIENTED_EDGE('',*,*,#376,.T.);
#378=EDGE_LOOP('',(#344,#353,#360,#361,#370,#377));
#379=FACE_BOUND('',#378,.T.);
#380=ADVANCED_FACE('',(#379),#343,.F.);
#381=CARTESIAN_POINT('',(41.,0.,6.6));
#382=DIRECTION('',(0.,0.,-1.));
#383=DIRECTION('',(-1.,0.,0.));
#384=AXIS2_PLACEMENT_3D('',#381,#382,#383);
#385=CONICAL_SURFACE('',#384,4.,45.);
#386=CARTESIAN_POINT('',(45.,0.,6.6));
#387=DIRECTION('',(-0.707106781,-0.,0.707106781));
#388=VECTOR('',#387,0.565685425);
#389=LINE('',#386,#388);
#390=EDGE_CURVE('',#204,#61,#389,.T.);
#391=ORIENTED_EDGE('',*,*,#390,.T.);
#392=ORIENTED_EDGE('',*,*,#67,.T.);
#393=ORIENTED_EDGE('',*,*,#262,.F.);
#394=ORIENTED_EDGE('',*,*,#218,.F.);
#395=EDGE_LOOP('',(#391,#392,#393,#394));
#396=FACE_BOUND('',#395,.T.);
#397=ADVANCED_FACE('',(#396),#385,.T.);
#398=CARTESIAN_POINT('',(41.,0.,0.));
#399=DIRECTION('',(0.,0.,1.));
#400=DIRECTION('',(1.,0.,-0.));
#401=AXIS2_PLACEMENT_3D('',#398,#399,#400);
#402=CONICAL_SURFACE('',#401,3.6,45.);
#403=CARTESIAN_POINT('',(45.,0.,0.4));
#404=DIRECTION('',(-0.707106781,0.,-0.707106781));
#405=VECTOR('',#404,0.565685425);
#406=LINE('',#403,#405);
#407=EDGE_CURVE('',#202,#363,#406,.T.);
#408=ORIENTED_EDGE('',*,*,#407,.T.);
#409=ORIENTED_EDGE('',*,*,#369,.F.);
#410=ORIENTED_EDGE('',*,*,#156,.T.);
#411=CARTESIAN_POINT('',(41.,0.,0.4));
#412=DIRECTION('',(0.,0.,-1.));
#413=DIRECTION('',(-1.,0.,0.));
#414=AXIS2_PLACEMENT_3D('',#411,#412,#413);
#415=CIRCLE('',#414,4.);
#416=EDGE_CURVE('',#143,#202,#415,.T.);
#417=ORIENTED_EDGE('',*,*,#416,.T.);
#418=EDGE_LOOP('',(#408,#409,#410,#417));
#419=FACE_BOUND('',#418,.T.);
#420=ADVANCED_FACE('',(#419),#402,.T.);
#421=CARTESIAN_POINT('',(-41.,0.,6.6));
#422=DIRECTION('',(0.,0.,-1.));
#423=DIRECTION('',(-1.,0.,0.));
#424=AXIS2_PLACEMENT_3D('',#421,#422,#423);
#425=CONICAL_SURFACE('',#424,4.,45.);
#426=CARTESIAN_POINT('',(-45.,0.,6.6));
#427=DIRECTION('',(0.707106781,0.,0.707106781));
#428=VECTOR('',#427,0.565685425);
#429=LINE('',#426,#428);
#430=EDGE_CURVE('',#95,#33,#429,.T.);
#431=ORIENTED_EDGE('',*,*,#430,.T.);
#432=ORIENTED_EDGE('',*,*,#41,.T.);
#433=ORIENTED_EDGE('',*,*,#176,.F.);
#434=ORIENTED_EDGE('',*,*,#109,.F.);
#435=EDGE_LOOP('',(#431,#432,#433,#434));
#436=FACE_BOUND('',#435,.T.);
#437=ADVANCED_FACE('',(#436),#425,.T.);
#438=CARTESIAN_POINT('',(-41.,0.,0.));
#439=DIRECTION('',(0.,0.,1.));
#440=DIRECTION('',(1.,0.,-0.));
#441=AXIS2_PLACEMENT_3D('',#438,#439,#440);
#442=CONICAL_SURFACE('',#441,3.6,45.);
#443=CARTESIAN_POINT('',(-45.,0.,0.4));
#444=DIRECTION('',(0.707106781,-0.,-0.707106781));
#445=VECTOR('',#444,0.565685425);
#446=LINE('',#443,#445);
#447=EDGE_CURVE('',#93,#346,#446,.T.);
#448=ORIENTED_EDGE('',*,*,#447,.T.);
#449=ORIENTED_EDGE('',*,*,#352,.F.);
#450=ORIENTED_EDGE('',*,*,#286,.T.);
#451=CARTESIAN_POINT('',(-41.,0.,0.4));
#452=DIRECTION('',(0.,0.,-1.));
#453=DIRECTION('',(-1.,0.,0.));
#454=AXIS2_PLACEMENT_3D('',#451,#452,#453);
#455=CIRCLE('',#454,4.);
#456=EDGE_CURVE('',#273,#93,#455,.T.);
#457=ORIENTED_EDGE('',*,*,#456,.T.);
#458=EDGE_LOOP('',(#448,#449,#450,#457));
#459=FACE_BOUND('',#458,.T.);
#460=ADVANCED_FACE('',(#459),#442,.T.);
#461=CARTESIAN_POINT('',(-41.,0.,-3.5));
#462=DIRECTION('',(0.,0.,-1.));
#463=DIRECTION('',(-1.,0.,0.));
#464=AXIS2_PLACEMENT_3D('',#461,#462,#463);
#465=CYLINDRICAL_SURFACE('',#464,4.);
#466=ORIENTED_EDGE('',*,*,#100,.F.);
#467=ORIENTED_EDGE('',*,*,#456,.F.);
#468=ORIENTED_EDGE('',*,*,#331,.T.);
#469=CARTESIAN_POINT('',(-41.,0.,6.6));
#470=DIRECTION('',(0.,0.,-1.));
#471=DIRECTION('',(-1.,0.,0.));
#472=AXIS2_PLACEMENT_3D('',#469,#470,#471);
#473=CIRCLE('',#472,4.);
#474=EDGE_CURVE('',#245,#95,#473,.T.);
#475=ORIENTED_EDGE('',*,*,#474,.T.);
#476=EDGE_LOOP('',(#466,#467,#468,#475));
#477=FACE_BOUND('',#476,.T.);
#478=ADVANCED_FACE('',(#477),#465,.T.);
#479=CARTESIAN_POINT('',(41.,0.,0.));
#480=DIRECTION('',(0.,0.,1.));
#481=DIRECTION('',(1.,0.,-0.));
#482=AXIS2_PLACEMENT_3D('',#479,#480,#481);
#483=CONICAL_SURFACE('',#482,3.6,45.);
#484=ORIENTED_EDGE('',*,*,#407,.F.);
#485=ORIENTED_EDGE('',*,*,#233,.T.);
#486=ORIENTED_EDGE('',*,*,#300,.F.);
#487=ORIENTED_EDGE('',*,*,#376,.F.);
#488=EDGE_LOOP('',(#484,#485,#486,#487));
#489=FACE_BOUND('',#488,.T.);
#490=ADVANCED_FACE('',(#489),#483,.T.);
#491=CARTESIAN_POINT('',(-41.,0.,6.6));
#492=DIRECTION('',(0.,0.,-1.));
#493=DIRECTION('',(-1.,0.,0.));
#494=AXIS2_PLACEMENT_3D('',#491,#492,#493);
#495=CONICAL_SURFACE('',#494,4.,45.);
#496=ORIENTED_EDGE('',*,*,#430,.F.);
#497=ORIENTED_EDGE('',*,*,#474,.F.);
#498=ORIENTED_EDGE('',*,*,#250,.T.);
#499=ORIENTED_EDGE('',*,*,#50,.T.);
#500=EDGE_LOOP('',(#496,#497,#498,#499));
#501=FACE_BOUND('',#500,.T.);
#502=ADVANCED_FACE('',(#501),#495,.T.);
#503=CARTESIAN_POINT('',(41.,0.,-3.5));
#504=DIRECTION('',(0.,0.,-1.));
#505=DIRECTION('',(-1.,0.,0.));
#506=AXIS2_PLACEMENT_3D('',#503,#504,#505);
#507=CYLINDRICAL_SURFACE('',#506,4.);
#508=ORIENTED_EDGE('',*,*,#209,.F.);
#509=ORIENTED_EDGE('',*,*,#416,.F.);
#510=ORIENTED_EDGE('',*,*,#316,.T.);
#511=CARTESIAN_POINT('',(41.,0.,6.6));
#512=DIRECTION('',(0.,0.,-1.));
#513=DIRECTION('',(-1.,0.,0.));
#514=AXIS2_PLACEMENT_3D('',#511,#512,#513);
#515=CIRCLE('',#514,4.);
#516=EDGE_CURVE('',#180,#204,#515,.T.);
#517=ORIENTED_EDGE('',*,*,#516,.T.);
#518=EDGE_LOOP('',(#508,#509,#510,#517));
#519=FACE_BOUND('',#518,.T.);
#520=ADVANCED_FACE('',(#519),#507,.T.);
#521=CARTESIAN_POINT('',(41.,0.,6.6));
#522=DIRECTION('',(0.,0.,-1.));
#523=DIRECTION('',(-1.,0.,0.));
#524=AXIS2_PLACEMENT_3D('',#521,#522,#523);
#525=CONICAL_SURFACE('',#524,4.,45.);
#526=ORIENTED_EDGE('',*,*,#390,.F.);
#527=ORIENTED_EDGE('',*,*,#516,.F.);
#528=ORIENTED_EDGE('',*,*,#185,.T.);
#529=ORIENTED_EDGE('',*,*,#76,.T.);
#530=EDGE_LOOP('',(#526,#527,#528,#529));
#531=FACE_BOUND('',#530,.T.);
#532=ADVANCED_FACE('',(#531),#525,.T.);
#533=CARTESIAN_POINT('',(-41.,0.,0.));
#534=DIRECTION('',(0.,0.,1.));
#535=DIRECTION('',(1.,0.,-0.));
#536=AXIS2_PLACEMENT_3D('',#533,#534,#535);
#537=CONICAL_SURFACE('',#536,3.6,45.);
#538=ORIENTED_EDGE('',*,*,#447,.F.);
#539=ORIENTED_EDGE('',*,*,#124,.T.);
#540=ORIENTED_EDGE('',*,*,#140,.F.);
#541=ORIENTED_EDGE('',*,*,#359,.F.);
#542=EDGE_LOOP('',(#538,#539,#540,#541));
#543=FACE_BOUND('',#542,.T.);
#544=ADVANCED_FACE('',(#543),#537,.T.);
#545=CLOSED_SHELL('',(#86,#128,#166,#195,#237,#266,#304,#321,#338,#380,#397,#420,#437,#460,#478,#490,#502,#520,#532,#544));
#546=MANIFOLD_SOLID_BREP('Parallel key DIN 6885-1 A 8x7x90 (1)39250.087.090(High)',#545);
#547=COLOUR_RGB('',0.686274529,0.686274529,0.686274529);
#548=FILL_AREA_STYLE_COLOUR('',#547);
#549=FILL_AREA_STYLE('',(#548));
#550=SURFACE_STYLE_FILL_AREA(#549);
#551=SURFACE_SIDE_STYLE('',(#550));
#552=SURFACE_STYLE_USAGE(.BOTH.,#551);
#553=PRESENTATION_STYLE_ASSIGNMENT((#552));
#26=STYLED_ITEM('',(#553),#546);
#554=INTEGER_REPRESENTATION_ITEM('ATTRIB_BOUNDING_BOX_ALGORITHM',3);
#555=ID_ATTRIBUTE('SA #556',#556);
#556=SHAPE_ASPECT('properties','',#23,.F.);
#557=GEOMETRIC_ITEM_SPECIFIC_USAGE('','properties',#556,#17,#546);
#558=PROPERTY_DEFINITION('ATTRIB_BOUNDING_BOX_ALGORITHM','',#556);
#559=REPRESENTATION('',(#554),#10);
#560=PROPERTY_DEFINITION_REPRESENTATION(#558,#559);
#561=GENERAL_PROPERTY('','ATTRIB_BOUNDING_BOX_ALGORITHM','');
#562=GENERAL_PROPERTY_ASSOCIATION('','',#561,#558);
#16=SHAPE_REPRESENTATION('6048 8x7x90mm DIN 6885 A Parallel key, Steel C45',(#15),#10);
#17=ADVANCED_BREP_SHAPE_REPRESENTATION('6048 8x7x90mm DIN 6885 A Parallel key, Steel C45',(#546),#10);
#570=SHAPE_REPRESENTATION_RELATIONSHIP('','',#16,#17);
#571=CARTESIAN_POINT('',(0.,0.,0.));
#572=DIRECTION('',(0.,0.,1.));
#573=DIRECTION('',(1.,0.,0.));
#574=AXIS2_PLACEMENT_3D('',#571,#572,#573);
#576=MAPPED_ITEM('',#575,#574);
#575=REPRESENTATION_MAP(#574,#16);
#577=APPLICATION_CONTEXT('Managed model based 3d engineering');
#578=APPLICATION_PROTOCOL_DEFINITION('international standard','ap242_managed_model_based_3d_engineering',2013,#577);
#579=PRODUCT_CONTEXT('',#577,'mechanical');
#580=PRODUCT_DEFINITION_CONTEXT('part definition',#577,'design');
#24=PRODUCT('6048 8x7x90mm DIN 6885 A Parallel key, Steel C45','6048 8x7x90mm DIN 6885 A Parallel key, Steel C45','',(#579));
#581=PRODUCT_RELATED_PRODUCT_CATEGORY('part','',(#24));
#582=PRODUCT_DEFINITION_FORMATION_WITH_SPECIFIED_SOURCE('','',#24,.NOT_KNOWN.);
#25=PRODUCT_DEFINITION('design','',#582,#580);
#23=PRODUCT_DEFINITION_SHAPE('','',#25);
#583=SHAPE_DEFINITION_REPRESENTATION(#23,#16);
#11=DRAUGHTING_MODEL('',(#576),#10);
#1=MECHANICAL_DESIGN_GEOMETRIC_PRESENTATION_REPRESENTATION('',(#26),#10);
ENDSEC;
END-ISO-10303-21;
