ISO-10303-21;
HEADER;
/* Generated by software containing ST-Developer
 * from STEP Tools, Inc. (www.steptools.com) 
 */

FILE_DESCRIPTION(
/* description */ ('Alibre Inc.'),
/* implementation_level */ '2;1');

FILE_NAME(
/* name */ 'export-3A39E1CF-F79A-4C02-8EB0-E92EF2A9CFA7',
/* time_stamp */ '2022-09-15T11:21:39+02:00',
/* author */ (''),
/* organization */ (''),
/* preprocessor_version */ 'ST-DEVELOPER v17',
/* originating_system */ 'Alibre',
/* authorisation */ '');

FILE_SCHEMA (('AUTOMOTIVE_DESIGN'));
ENDSEC;

DATA;
#10=STYLED_ITEM('NAME_0',(#18),#445);
#11=MECHANICAL_DESIGN_GEOMETRIC_PRESENTATION_REPRESENTATION('NAME_0',(#10),
#33);
#12=COLOUR_RGB('',0.686274509803922,0.686274509803922,0.686274509803922);
#13=FILL_AREA_STYLE_COLOUR('NAME_0',#12);
#14=FILL_AREA_STYLE('NAME_0',(#13));
#15=SURFACE_STYLE_FILL_AREA(#14);
#16=SURFACE_SIDE_STYLE('NAME_0',(#15));
#17=SURFACE_STYLE_USAGE(.POSITIVE.,#16);
#18=PRESENTATION_STYLE_ASSIGNMENT((#17));
#19=PRODUCT_DEFINITION_CONTEXT('part definition',#26,'design');
#20=SHAPE_DEFINITION_REPRESENTATION(#21,#446);
#21=PRODUCT_DEFINITION_SHAPE('PRODUCT_VERSION_ID',
'PRODUCT_VERSION_DESCR',#22);
#22=PRODUCT_DEFINITION('PRODUCT_VERSION_ID','PRODUCT_VERSION_DESCR',#23,
#19);
#23=PRODUCT_DEFINITION_FORMATION_WITH_SPECIFIED_SOURCE(
'PRODUCT_VERSION_ID','PRODUCT_VERSION_DESCR',#28,.MADE.);
#24=PRODUCT_RELATED_PRODUCT_CATEGORY('part','part',(#28));
#25=APPLICATION_PROTOCOL_DEFINITION('Draft International Standard',
'automotive_design',1994,#26);
#26=APPLICATION_CONTEXT('automotive_Design');
#27=PRODUCT_CONTEXT('3D Mechanical Parts',#26,'mechanical');
#28=PRODUCT('Parallel key DIN 6885-1 A 5x5x40 (1)39250.055.040(High)',
'6049 5x5x40mm DIN 6885 A Parallel key, Steel C45','',(#27));
#29=(
LENGTH_UNIT()
NAMED_UNIT(*)
SI_UNIT(.MILLI.,.METRE.)
);
#30=(
NAMED_UNIT(*)
PLANE_ANGLE_UNIT()
SI_UNIT($,.RADIAN.)
);
#31=(
NAMED_UNIT(*)
SI_UNIT($,.STERADIAN.)
SOLID_ANGLE_UNIT()
);
#32=UNCERTAINTY_MEASURE_WITH_UNIT(LENGTH_MEASURE(1.E-6),#29,
'DISTANCE_ACCURACY_VALUE',
'Maximum model space distance between geometric entities at asserted c
onnectivities');
#33=(
GEOMETRIC_REPRESENTATION_CONTEXT(3)
GLOBAL_UNCERTAINTY_ASSIGNED_CONTEXT((#32))
GLOBAL_UNIT_ASSIGNED_CONTEXT((#31,#30,#29))
REPRESENTATION_CONTEXT('ID1','3D')
);
#34=CONICAL_SURFACE('',#295,2.5,0.785398163397449);
#35=CONICAL_SURFACE('',#296,2.1,0.785398163397448);
#36=CONICAL_SURFACE('',#297,2.5,0.785398163397449);
#37=CONICAL_SURFACE('',#298,2.1,0.785398163397448);
#38=CONICAL_SURFACE('',#300,2.1,0.785398163397448);
#39=CONICAL_SURFACE('',#301,2.5,0.785398163397449);
#40=CYLINDRICAL_SURFACE('',#280,2.5);
#41=CYLINDRICAL_SURFACE('',#285,2.5);
#42=CYLINDRICAL_SURFACE('',#299,2.5);
#43=VECTOR('',#305,1.);
#44=VECTOR('',#308,1.);
#45=VECTOR('',#311,1.);
#46=VECTOR('',#314,1.);
#47=VECTOR('',#318,1.);
#48=VECTOR('',#319,1.);
#49=VECTOR('',#320,1.);
#50=VECTOR('',#321,1.);
#51=VECTOR('',#323,1.);
#52=VECTOR('',#324,1.);
#53=VECTOR('',#325,1.);
#54=VECTOR('',#328,1.);
#55=VECTOR('',#331,1.);
#56=VECTOR('',#335,1.);
#57=VECTOR('',#336,1.);
#58=VECTOR('',#337,1.);
#59=VECTOR('',#339,1.);
#60=VECTOR('',#340,1.);
#61=VECTOR('',#341,1.);
#62=VECTOR('',#342,1.);
#63=VECTOR('',#345,1.);
#64=VECTOR('',#355,1.);
#65=VECTOR('',#358,1.);
#66=LINE('',#372,#43);
#67=LINE('',#376,#44);
#68=LINE('',#378,#45);
#69=LINE('',#383,#46);
#70=LINE('',#387,#47);
#71=LINE('',#389,#48);
#72=LINE('',#391,#49);
#73=LINE('',#393,#50);
#74=LINE('',#395,#51);
#75=LINE('',#396,#52);
#76=LINE('',#398,#53);
#77=LINE('',#400,#54);
#78=LINE('',#405,#55);
#79=LINE('',#408,#56);
#80=LINE('',#410,#57);
#81=LINE('',#411,#58);
#82=LINE('',#413,#59);
#83=LINE('',#415,#60);
#84=LINE('',#417,#61);
#85=LINE('',#419,#62);
#86=LINE('',#422,#63);
#87=LINE('',#429,#64);
#88=LINE('',#431,#65);
#89=VERTEX_POINT('',#369);
#90=VERTEX_POINT('',#370);
#91=VERTEX_POINT('',#371);
#92=VERTEX_POINT('',#373);
#93=VERTEX_POINT('',#375);
#94=VERTEX_POINT('',#379);
#95=VERTEX_POINT('',#380);
#96=VERTEX_POINT('',#382);
#97=VERTEX_POINT('',#384);
#98=VERTEX_POINT('',#388);
#99=VERTEX_POINT('',#390);
#100=VERTEX_POINT('',#392);
#101=VERTEX_POINT('',#397);
#102=VERTEX_POINT('',#401);
#103=VERTEX_POINT('',#402);
#104=VERTEX_POINT('',#404);
#105=VERTEX_POINT('',#409);
#106=VERTEX_POINT('',#414);
#107=VERTEX_POINT('',#416);
#108=VERTEX_POINT('',#418);
#109=VERTEX_POINT('',#426);
#110=CIRCLE('',#278,2.1);
#111=CIRCLE('',#279,2.1);
#112=CIRCLE('',#281,2.5);
#113=CIRCLE('',#282,2.5);
#114=CIRCLE('',#286,2.5);
#115=CIRCLE('',#287,2.5);
#116=CIRCLE('',#293,2.1);
#117=CIRCLE('',#294,2.1);
#118=EDGE_CURVE('',#89,#90,#110,.T.);
#119=EDGE_CURVE('',#91,#89,#110,.T.);
#120=EDGE_CURVE('',#92,#91,#66,.T.);
#121=EDGE_CURVE('',#93,#92,#111,.T.);
#122=EDGE_CURVE('',#93,#90,#67,.T.);
#123=EDGE_CURVE('',#94,#95,#68,.T.);
#124=EDGE_CURVE('',#95,#96,#112,.T.);
#125=EDGE_CURVE('',#97,#96,#69,.T.);
#126=EDGE_CURVE('',#94,#97,#113,.T.);
#127=EDGE_CURVE('',#98,#97,#70,.T.);
#128=EDGE_CURVE('',#99,#97,#71,.T.);
#129=EDGE_CURVE('',#100,#99,#72,.T.);
#130=EDGE_CURVE('',#100,#98,#73,.T.);
#131=EDGE_CURVE('',#96,#90,#74,.T.);
#132=EDGE_CURVE('',#101,#93,#75,.T.);
#133=EDGE_CURVE('',#101,#96,#76,.T.);
#134=EDGE_CURVE('',#102,#103,#77,.T.);
#135=EDGE_CURVE('',#104,#102,#114,.T.);
#136=EDGE_CURVE('',#99,#104,#114,.T.);
#137=EDGE_CURVE('',#99,#101,#78,.T.);
#138=EDGE_CURVE('',#101,#103,#115,.T.);
#139=EDGE_CURVE('',#105,#91,#79,.T.);
#140=EDGE_CURVE('',#103,#105,#80,.T.);
#141=EDGE_CURVE('',#103,#92,#81,.T.);
#142=EDGE_CURVE('',#102,#106,#82,.T.);
#143=EDGE_CURVE('',#107,#106,#83,.T.);
#144=EDGE_CURVE('',#108,#107,#84,.T.);
#145=EDGE_CURVE('',#108,#102,#85,.T.);
#146=EDGE_CURVE('',#106,#105,#86,.T.);
#147=EDGE_CURVE('',#107,#98,#116,.T.);
#148=EDGE_CURVE('',#100,#109,#117,.T.);
#149=EDGE_CURVE('',#109,#108,#117,.T.);
#150=EDGE_CURVE('',#104,#109,#87,.T.);
#151=EDGE_CURVE('',#95,#89,#88,.T.);
#152=EDGE_CURVE('',#106,#94,#113,.T.);
#153=EDGE_CURVE('',#105,#95,#112,.T.);
#154=ORIENTED_EDGE('',*,*,#118,.F.);
#155=ORIENTED_EDGE('',*,*,#119,.F.);
#156=ORIENTED_EDGE('',*,*,#120,.F.);
#157=ORIENTED_EDGE('',*,*,#121,.F.);
#158=ORIENTED_EDGE('',*,*,#122,.T.);
#159=ORIENTED_EDGE('',*,*,#123,.T.);
#160=ORIENTED_EDGE('',*,*,#124,.T.);
#161=ORIENTED_EDGE('',*,*,#125,.F.);
#162=ORIENTED_EDGE('',*,*,#126,.F.);
#163=ORIENTED_EDGE('',*,*,#127,.T.);
#164=ORIENTED_EDGE('',*,*,#128,.F.);
#165=ORIENTED_EDGE('',*,*,#129,.F.);
#166=ORIENTED_EDGE('',*,*,#130,.T.);
#167=ORIENTED_EDGE('',*,*,#131,.T.);
#168=ORIENTED_EDGE('',*,*,#122,.F.);
#169=ORIENTED_EDGE('',*,*,#132,.F.);
#170=ORIENTED_EDGE('',*,*,#133,.T.);
#171=ORIENTED_EDGE('',*,*,#134,.F.);
#172=ORIENTED_EDGE('',*,*,#135,.F.);
#173=ORIENTED_EDGE('',*,*,#136,.F.);
#174=ORIENTED_EDGE('',*,*,#137,.T.);
#175=ORIENTED_EDGE('',*,*,#138,.T.);
#176=ORIENTED_EDGE('',*,*,#120,.T.);
#177=ORIENTED_EDGE('',*,*,#139,.F.);
#178=ORIENTED_EDGE('',*,*,#140,.F.);
#179=ORIENTED_EDGE('',*,*,#141,.T.);
#180=ORIENTED_EDGE('',*,*,#142,.T.);
#181=ORIENTED_EDGE('',*,*,#143,.F.);
#182=ORIENTED_EDGE('',*,*,#144,.F.);
#183=ORIENTED_EDGE('',*,*,#145,.T.);
#184=ORIENTED_EDGE('',*,*,#125,.T.);
#185=ORIENTED_EDGE('',*,*,#133,.F.);
#186=ORIENTED_EDGE('',*,*,#137,.F.);
#187=ORIENTED_EDGE('',*,*,#128,.T.);
#188=ORIENTED_EDGE('',*,*,#146,.F.);
#189=ORIENTED_EDGE('',*,*,#142,.F.);
#190=ORIENTED_EDGE('',*,*,#134,.T.);
#191=ORIENTED_EDGE('',*,*,#140,.T.);
#192=ORIENTED_EDGE('',*,*,#144,.T.);
#193=ORIENTED_EDGE('',*,*,#147,.T.);
#194=ORIENTED_EDGE('',*,*,#130,.F.);
#195=ORIENTED_EDGE('',*,*,#148,.T.);
#196=ORIENTED_EDGE('',*,*,#149,.T.);
#197=ORIENTED_EDGE('',*,*,#121,.T.);
#198=ORIENTED_EDGE('',*,*,#141,.F.);
#199=ORIENTED_EDGE('',*,*,#138,.F.);
#200=ORIENTED_EDGE('',*,*,#132,.T.);
#201=ORIENTED_EDGE('',*,*,#150,.T.);
#202=ORIENTED_EDGE('',*,*,#148,.F.);
#203=ORIENTED_EDGE('',*,*,#129,.T.);
#204=ORIENTED_EDGE('',*,*,#136,.T.);
#205=ORIENTED_EDGE('',*,*,#151,.T.);
#206=ORIENTED_EDGE('',*,*,#118,.T.);
#207=ORIENTED_EDGE('',*,*,#131,.F.);
#208=ORIENTED_EDGE('',*,*,#124,.F.);
#209=ORIENTED_EDGE('',*,*,#152,.T.);
#210=ORIENTED_EDGE('',*,*,#126,.T.);
#211=ORIENTED_EDGE('',*,*,#127,.F.);
#212=ORIENTED_EDGE('',*,*,#147,.F.);
#213=ORIENTED_EDGE('',*,*,#143,.T.);
#214=ORIENTED_EDGE('',*,*,#123,.F.);
#215=ORIENTED_EDGE('',*,*,#152,.F.);
#216=ORIENTED_EDGE('',*,*,#146,.T.);
#217=ORIENTED_EDGE('',*,*,#153,.T.);
#218=ORIENTED_EDGE('',*,*,#150,.F.);
#219=ORIENTED_EDGE('',*,*,#135,.T.);
#220=ORIENTED_EDGE('',*,*,#145,.F.);
#221=ORIENTED_EDGE('',*,*,#149,.F.);
#222=ORIENTED_EDGE('',*,*,#151,.F.);
#223=ORIENTED_EDGE('',*,*,#153,.F.);
#224=ORIENTED_EDGE('',*,*,#139,.T.);
#225=ORIENTED_EDGE('',*,*,#119,.T.);
#226=EDGE_LOOP('',(#154,#155,#156,#157,#158));
#227=EDGE_LOOP('',(#159,#160,#161,#162));
#228=EDGE_LOOP('',(#163,#164,#165,#166));
#229=EDGE_LOOP('',(#167,#168,#169,#170));
#230=EDGE_LOOP('',(#171,#172,#173,#174,#175));
#231=EDGE_LOOP('',(#176,#177,#178,#179));
#232=EDGE_LOOP('',(#180,#181,#182,#183));
#233=EDGE_LOOP('',(#184,#185,#186,#187));
#234=EDGE_LOOP('',(#188,#189,#190,#191));
#235=EDGE_LOOP('',(#192,#193,#194,#195,#196));
#236=EDGE_LOOP('',(#197,#198,#199,#200));
#237=EDGE_LOOP('',(#201,#202,#203,#204));
#238=EDGE_LOOP('',(#205,#206,#207,#208));
#239=EDGE_LOOP('',(#209,#210,#211,#212,#213));
#240=EDGE_LOOP('',(#214,#215,#216,#217));
#241=EDGE_LOOP('',(#218,#219,#220,#221));
#242=EDGE_LOOP('',(#222,#223,#224,#225));
#243=FACE_BOUND('',#226,.T.);
#244=FACE_BOUND('',#227,.T.);
#245=FACE_BOUND('',#228,.T.);
#246=FACE_BOUND('',#229,.T.);
#247=FACE_BOUND('',#230,.T.);
#248=FACE_BOUND('',#231,.T.);
#249=FACE_BOUND('',#232,.T.);
#250=FACE_BOUND('',#233,.T.);
#251=FACE_BOUND('',#234,.T.);
#252=FACE_BOUND('',#235,.T.);
#253=FACE_BOUND('',#236,.T.);
#254=FACE_BOUND('',#237,.T.);
#255=FACE_BOUND('',#238,.T.);
#256=FACE_BOUND('',#239,.T.);
#257=FACE_BOUND('',#240,.T.);
#258=FACE_BOUND('',#241,.T.);
#259=FACE_BOUND('',#242,.T.);
#260=ADVANCED_FACE('',(#243),#436,.T.);
#261=ADVANCED_FACE('',(#244),#40,.T.);
#262=ADVANCED_FACE('',(#245),#437,.F.);
#263=ADVANCED_FACE('',(#246),#438,.F.);
#264=ADVANCED_FACE('',(#247),#41,.T.);
#265=ADVANCED_FACE('',(#248),#439,.F.);
#266=ADVANCED_FACE('',(#249),#440,.F.);
#267=ADVANCED_FACE('',(#250),#441,.F.);
#268=ADVANCED_FACE('',(#251),#442,.F.);
#269=ADVANCED_FACE('',(#252),#443,.F.);
#270=ADVANCED_FACE('',(#253),#34,.T.);
#271=ADVANCED_FACE('',(#254),#35,.T.);
#272=ADVANCED_FACE('',(#255),#36,.T.);
#273=ADVANCED_FACE('',(#256),#37,.T.);
#274=ADVANCED_FACE('',(#257),#42,.T.);
#275=ADVANCED_FACE('',(#258),#38,.T.);
#276=ADVANCED_FACE('',(#259),#39,.T.);
#277=AXIS2_PLACEMENT_3D('',#367,#302,$);
#278=AXIS2_PLACEMENT_3D('',#368,#303,#304);
#279=AXIS2_PLACEMENT_3D('',#374,#306,#307);
#280=AXIS2_PLACEMENT_3D('',#377,#309,#310);
#281=AXIS2_PLACEMENT_3D('',#381,#312,#313);
#282=AXIS2_PLACEMENT_3D('',#385,#315,#316);
#283=AXIS2_PLACEMENT_3D('',#386,#317,$);
#284=AXIS2_PLACEMENT_3D('',#394,#322,$);
#285=AXIS2_PLACEMENT_3D('',#399,#326,#327);
#286=AXIS2_PLACEMENT_3D('',#403,#329,#330);
#287=AXIS2_PLACEMENT_3D('',#406,#332,#333);
#288=AXIS2_PLACEMENT_3D('',#407,#334,$);
#289=AXIS2_PLACEMENT_3D('',#412,#338,$);
#290=AXIS2_PLACEMENT_3D('',#420,#343,$);
#291=AXIS2_PLACEMENT_3D('',#421,#344,$);
#292=AXIS2_PLACEMENT_3D('',#423,#346,$);
#293=AXIS2_PLACEMENT_3D('',#424,#347,#348);
#294=AXIS2_PLACEMENT_3D('',#425,#349,#350);
#295=AXIS2_PLACEMENT_3D('',#427,#351,#352);
#296=AXIS2_PLACEMENT_3D('',#428,#353,#354);
#297=AXIS2_PLACEMENT_3D('',#430,#356,#357);
#298=AXIS2_PLACEMENT_3D('',#432,#359,#360);
#299=AXIS2_PLACEMENT_3D('',#433,#361,#362);
#300=AXIS2_PLACEMENT_3D('',#434,#363,#364);
#301=AXIS2_PLACEMENT_3D('',#435,#365,#366);
#302=DIRECTION('',(0.,0.,1.));
#303=DIRECTION('',(0.,0.,-1.));
#304=DIRECTION('',(-2.1,0.,0.));
#305=DIRECTION('',(-1.,0.,0.));
#306=DIRECTION('',(0.,0.,-1.));
#307=DIRECTION('',(-2.1,0.,0.));
#308=DIRECTION('',(-1.,0.,0.));
#309=DIRECTION('',(0.,0.,-1.));
#310=DIRECTION('',(-2.5,0.,0.));
#311=DIRECTION('',(0.,0.,1.));
#312=DIRECTION('',(0.,0.,-1.));
#313=DIRECTION('',(-2.5,0.,0.));
#314=DIRECTION('',(0.,0.,1.));
#315=DIRECTION('',(0.,0.,-1.));
#316=DIRECTION('',(-2.5,0.,0.));
#317=DIRECTION('',(0.,-0.707106781186548,0.707106781186547));
#318=DIRECTION('',(0.,0.707106781186547,0.707106781186548));
#319=DIRECTION('',(-1.,0.,0.));
#320=DIRECTION('',(0.,0.707106781186547,0.707106781186548));
#321=DIRECTION('',(-1.,0.,0.));
#322=DIRECTION('',(0.,-0.707106781186548,-0.707106781186547));
#323=DIRECTION('',(0.,-0.707106781186547,0.707106781186548));
#324=DIRECTION('',(0.,-0.707106781186547,0.707106781186548));
#325=DIRECTION('',(-1.,0.,0.));
#326=DIRECTION('',(0.,0.,-1.));
#327=DIRECTION('',(-2.5,0.,0.));
#328=DIRECTION('',(0.,0.,1.));
#329=DIRECTION('',(0.,0.,-1.));
#330=DIRECTION('',(-2.5,0.,0.));
#331=DIRECTION('',(0.,0.,1.));
#332=DIRECTION('',(0.,0.,-1.));
#333=DIRECTION('',(-2.5,0.,0.));
#334=DIRECTION('',(0.,0.707106781186548,-0.707106781186548));
#335=DIRECTION('',(0.,0.707106781186547,0.707106781186548));
#336=DIRECTION('',(-1.,0.,0.));
#337=DIRECTION('',(0.,0.707106781186547,0.707106781186548));
#338=DIRECTION('',(0.,0.707106781186548,0.707106781186547));
#339=DIRECTION('',(-1.,0.,0.));
#340=DIRECTION('',(0.,-0.707106781186547,0.707106781186548));
#341=DIRECTION('',(-1.,0.,0.));
#342=DIRECTION('',(0.,-0.707106781186547,0.707106781186548));
#343=DIRECTION('',(0.,-1.,0.));
#344=DIRECTION('',(0.,1.,0.));
#345=DIRECTION('',(0.,0.,1.));
#346=DIRECTION('',(0.,0.,1.));
#347=DIRECTION('',(0.,0.,-1.));
#348=DIRECTION('',(-2.1,0.,0.));
#349=DIRECTION('',(0.,0.,-1.));
#350=DIRECTION('',(-2.1,0.,0.));
#351=DIRECTION('',(0.,0.,-1.));
#352=DIRECTION('',(-2.5,0.,0.));
#353=DIRECTION('',(0.,0.,1.));
#354=DIRECTION('',(2.1,0.,0.));
#355=DIRECTION('',(-0.707106781186547,0.,-0.707106781186548));
#356=DIRECTION('',(0.,0.,-1.));
#357=DIRECTION('',(-2.5,0.,0.));
#358=DIRECTION('',(0.707106781186548,0.,0.707106781186547));
#359=DIRECTION('',(0.,0.,1.));
#360=DIRECTION('',(2.1,0.,0.));
#361=DIRECTION('',(0.,0.,-1.));
#362=DIRECTION('',(-2.5,0.,0.));
#363=DIRECTION('',(0.,0.,1.));
#364=DIRECTION('',(2.1,0.,0.));
#365=DIRECTION('',(0.,0.,-1.));
#366=DIRECTION('',(-2.5,0.,0.));
#367=CARTESIAN_POINT('',(0.,0.,5.));
#368=CARTESIAN_POINT('',(-17.5,0.,5.));
#369=CARTESIAN_POINT('',(-19.6,-2.97440792126519E-16,5.));
#370=CARTESIAN_POINT('',(-17.5,2.1,5.));
#371=CARTESIAN_POINT('',(-17.5,-2.1,5.));
#372=CARTESIAN_POINT('',(17.5,-2.1,5.));
#373=CARTESIAN_POINT('',(17.5,-2.1,5.));
#374=CARTESIAN_POINT('',(17.5,0.,5.));
#375=CARTESIAN_POINT('',(17.5,2.1,5.));
#376=CARTESIAN_POINT('',(17.5,2.1,5.));
#377=CARTESIAN_POINT('',(-17.5,0.,-2.5));
#378=CARTESIAN_POINT('',(-20.,0.,7.5));
#379=CARTESIAN_POINT('',(-20.,-1.53080849893419E-16,0.4));
#380=CARTESIAN_POINT('',(-20.,-3.06161699786838E-16,4.6));
#381=CARTESIAN_POINT('',(-17.5,0.,4.6));
#382=CARTESIAN_POINT('',(-17.5,2.5,4.6));
#383=CARTESIAN_POINT('',(-17.5,2.5,0.4));
#384=CARTESIAN_POINT('',(-17.5,2.5,0.4));
#385=CARTESIAN_POINT('',(-17.5,0.,0.4));
#386=CARTESIAN_POINT('',(20.,2.1,0.));
#387=CARTESIAN_POINT('',(-17.5,2.1,0.));
#388=CARTESIAN_POINT('',(-17.5,2.1,0.));
#389=CARTESIAN_POINT('',(17.5,2.5,0.4));
#390=CARTESIAN_POINT('',(17.5,2.5,0.4));
#391=CARTESIAN_POINT('',(17.5,2.1,0.));
#392=CARTESIAN_POINT('',(17.5,2.1,0.));
#393=CARTESIAN_POINT('',(17.5,2.1,0.));
#394=CARTESIAN_POINT('',(20.,2.5,4.6));
#395=CARTESIAN_POINT('',(-17.5,2.5,4.6));
#396=CARTESIAN_POINT('',(17.5,2.5,4.6));
#397=CARTESIAN_POINT('',(17.5,2.5,4.6));
#398=CARTESIAN_POINT('',(17.5,2.5,4.6));
#399=CARTESIAN_POINT('',(17.5,0.,-2.5));
#400=CARTESIAN_POINT('',(17.5,-2.5,0.4));
#401=CARTESIAN_POINT('',(17.5,-2.5,0.4));
#402=CARTESIAN_POINT('',(17.5,-2.5,4.6));
#403=CARTESIAN_POINT('',(17.5,0.,0.4));
#404=CARTESIAN_POINT('',(20.,1.53080849893419E-16,0.4));
#405=CARTESIAN_POINT('',(17.5,2.5,0.4));
#406=CARTESIAN_POINT('',(17.5,0.,4.6));
#407=CARTESIAN_POINT('',(20.,-2.1,5.));
#408=CARTESIAN_POINT('',(-17.5,-2.5,4.6));
#409=CARTESIAN_POINT('',(-17.5,-2.5,4.6));
#410=CARTESIAN_POINT('',(17.5,-2.5,4.6));
#411=CARTESIAN_POINT('',(17.5,-2.5,4.6));
#412=CARTESIAN_POINT('',(20.,-2.5,0.4));
#413=CARTESIAN_POINT('',(17.5,-2.5,0.4));
#414=CARTESIAN_POINT('',(-17.5,-2.5,0.4));
#415=CARTESIAN_POINT('',(-17.5,-2.1,0.));
#416=CARTESIAN_POINT('',(-17.5,-2.1,-1.38777878078145E-16));
#417=CARTESIAN_POINT('',(17.5,-2.1,0.));
#418=CARTESIAN_POINT('',(17.5,-2.1,8.32667268468867E-17));
#419=CARTESIAN_POINT('',(17.5,-2.1,0.));
#420=CARTESIAN_POINT('',(20.,2.5,5.));
#421=CARTESIAN_POINT('',(-20.,-2.5,5.));
#422=CARTESIAN_POINT('',(-17.5,-2.5,0.4));
#423=CARTESIAN_POINT('',(0.,0.,0.));
#424=CARTESIAN_POINT('',(-17.5,0.,0.));
#425=CARTESIAN_POINT('',(17.5,0.,0.));
#426=CARTESIAN_POINT('',(19.6,1.80867374540877E-16,8.32667268468867E-17));
#427=CARTESIAN_POINT('',(17.5,0.,4.6));
#428=CARTESIAN_POINT('',(17.5,0.,0.));
#429=CARTESIAN_POINT('',(19.96,0.,0.36));
#430=CARTESIAN_POINT('',(-17.5,0.,4.6));
#431=CARTESIAN_POINT('',(-19.56,0.,5.04));
#432=CARTESIAN_POINT('',(-17.5,0.,0.));
#433=CARTESIAN_POINT('',(-17.5,0.,-2.5));
#434=CARTESIAN_POINT('',(17.5,0.,0.));
#435=CARTESIAN_POINT('',(-17.5,0.,4.6));
#436=PLANE('',#277);
#437=PLANE('',#283);
#438=PLANE('',#284);
#439=PLANE('',#288);
#440=PLANE('',#289);
#441=PLANE('',#290);
#442=PLANE('',#291);
#443=PLANE('',#292);
#444=CLOSED_SHELL('',(#260,#261,#262,#263,#264,#265,#266,#267,#268,#269,
#270,#271,#272,#273,#274,#275,#276));
#445=MANIFOLD_SOLID_BREP('',#444);
#446=ADVANCED_BREP_SHAPE_REPRESENTATION('',(#445),#33);
ENDSEC;
END-ISO-10303-21;
