ISO-10303-21;
HEADER;

/* File generated by Alibre Version V23 */

FILE_DESCRIPTION(('HOOPS Exchange Step'),'2;1');

FILE_NAME('C:\\Users\\User\\AppData\\Local\\Temp\\Alibre Design\\export-C3D8A1A2-6EB8-46F5-BC20-7A87A7FC182F.stp',
'2022-10-18T15:58:33+02:00',
('User'),
('Alibre'),
'HOOPS Exchange 2021.0',
'Alibre',
'Unknown authorisation');

FILE_SCHEMA( ('AP242_MANAGED_MODEL_BASED_3D_ENGINEERING_MIM_LF {1 0 10303 442 1 1 4 }') );

ENDSEC;

DATA;
#3=(NAMED_UNIT(*)PLANE_ANGLE_UNIT()SI_UNIT($,.RADIAN.));
#4=PLANE_ANGLE_MEASURE_WITH_UNIT(PLANE_ANGLE_MEASURE(0.0174532925),#3);
#5=(CONVERSION_BASED_UNIT('DEGREE',#4)NAMED_UNIT(#6)PLANE_ANGLE_UNIT());
#6=DIMENSIONAL_EXPONENTS(0.,0.,0.,0.,0.,0.,0.);
#7=(NAMED_UNIT(*)SI_UNIT($,.STERADIAN.)SOLID_ANGLE_UNIT());
#8=(LENGTH_UNIT()NAMED_UNIT(*)SI_UNIT(.MILLI.,.METRE.));
#9=UNCERTAINTY_MEASURE_WITH_UNIT(LENGTH_MEASURE(1.000000E-06),#8,'DISTANCE_ACCURACY_VALUE','Maximum Tolerance applied to model');
#10=(GEOMETRIC_REPRESENTATION_CONTEXT(3)GLOBAL_UNCERTAINTY_ASSIGNED_CONTEXT((#9))GLOBAL_UNIT_ASSIGNED_CONTEXT((#8,#5,#7))REPRESENTATION_CONTEXT('','6089 M6x30 DIN 916 RVS A2 - Hexagon socket set screws '));
#12=CARTESIAN_POINT('',(0.,0.,0.));
#13=DIRECTION('',(0.,0.,1.));
#14=DIRECTION('',(1.,0.,0.));
#15=AXIS2_PLACEMENT_3D('',#12,#13,#14);
#27=CARTESIAN_POINT('',(3.5,0.,0.));
#28=DIRECTION('',(-1.,0.,0.));
#29=DIRECTION('',(0.,0.,1.));
#30=AXIS2_PLACEMENT_3D('',#27,#28,#29);
#31=CONICAL_SURFACE('',#30,1.8,60.);
#32=CARTESIAN_POINT('',(3.5,-1.711901729,-0.55623059));
#33=VERTEX_POINT('',#32);
#34=CARTESIAN_POINT('',(4.539230485,0.,0.));
#35=VERTEX_POINT('',#34);
#36=CARTESIAN_POINT('',(3.5,-1.711901729,-0.55623059));
#37=DIRECTION('',(0.5,0.823639104,0.267616567));
#38=VECTOR('',#37,2.078460969);
#39=LINE('',#36,#38);
#40=EDGE_CURVE('',#33,#35,#39,.T.);
#41=ORIENTED_EDGE('',*,*,#40,.F.);
#42=CARTESIAN_POINT('',(3.5,0.,1.8));
#43=VERTEX_POINT('',#42);
#44=CARTESIAN_POINT('',(3.5,0.,0.));
#45=DIRECTION('',(1.,0.,-0.));
#46=DIRECTION('',(0.,0.,1.));
#47=AXIS2_PLACEMENT_3D('',#44,#45,#46);
#48=CIRCLE('',#47,1.8);
#49=EDGE_CURVE('',#43,#33,#48,.T.);
#50=ORIENTED_EDGE('',*,*,#49,.F.);
#51=CARTESIAN_POINT('',(4.539230485,0.,0.));
#52=DIRECTION('',(-0.5,0.,0.866025404));
#53=VECTOR('',#52,2.078460969);
#54=LINE('',#51,#53);
#55=EDGE_CURVE('',#35,#43,#54,.T.);
#56=ORIENTED_EDGE('',*,*,#55,.F.);
#57=EDGE_LOOP('',(#41,#50,#56));
#58=FACE_BOUND('',#57,.T.);
#59=ADVANCED_FACE('NONE',(#58),#31,.F.);
#60=CARTESIAN_POINT('',(529.133974596,0.,0.));
#61=DIRECTION('',(1.,0.,0.));
#62=DIRECTION('',(0.,0.,-1.));
#63=AXIS2_PLACEMENT_3D('',#60,#61,#62);
#64=CONICAL_SURFACE('',#63,866.025403784,60.);
#65=CARTESIAN_POINT('',(30.000000002,-1.426584772,0.463525491));
#66=VERTEX_POINT('',#65);
#67=CARTESIAN_POINT('',(29.133974598,0.,0.));
#68=VERTEX_POINT('',#67);
#69=CARTESIAN_POINT('',(30.000000002,-1.426584772,0.463525491));
#70=DIRECTION('',(-0.5,0.823639104,-0.267616567));
#71=VECTOR('',#70,1.732050806);
#72=LINE('',#69,#71);
#73=EDGE_CURVE('',#66,#68,#72,.T.);
#74=ORIENTED_EDGE('',*,*,#73,.F.);
#75=CARTESIAN_POINT('',(30.,0.,-1.499999997));
#76=VERTEX_POINT('',#75);
#77=CARTESIAN_POINT('',(30.000000002,0.,0.));
#78=DIRECTION('',(1.,-0.,-0.));
#79=DIRECTION('',(0.,0.,1.));
#80=AXIS2_PLACEMENT_3D('',#77,#78,#79);
#81=CIRCLE('',#80,1.499999997);
#82=EDGE_CURVE('',#66,#76,#81,.T.);
#83=ORIENTED_EDGE('',*,*,#82,.T.);
#84=CARTESIAN_POINT('',(29.133974596,0.,0.));
#85=DIRECTION('',(0.5,0.,-0.866025404));
#86=VECTOR('',#85,1.732050808);
#87=LINE('',#84,#86);
#88=EDGE_CURVE('',#68,#76,#87,.T.);
#89=ORIENTED_EDGE('',*,*,#88,.F.);
#90=EDGE_LOOP('',(#74,#83,#89));
#91=FACE_BOUND('',#90,.T.);
#92=ADVANCED_FACE('NONE',(#91),#64,.F.);
#93=CARTESIAN_POINT('',(28.5,0.,0.));
#94=DIRECTION('',(-1.,0.,0.));
#95=DIRECTION('',(0.,0.,1.));
#96=AXIS2_PLACEMENT_3D('',#93,#94,#95);
#97=CONICAL_SURFACE('',#96,3.,45.);
#98=CARTESIAN_POINT('',(30.,0.,1.499999997));
#99=VERTEX_POINT('',#98);
#100=CARTESIAN_POINT('',(30.000000002,0.,0.));
#101=DIRECTION('',(1.,0.,-0.));
#102=DIRECTION('',(0.,0.,1.));
#103=AXIS2_PLACEMENT_3D('',#100,#101,#102);
#104=CIRCLE('',#103,1.499999997);
#105=EDGE_CURVE('',#76,#99,#104,.T.);
#106=ORIENTED_EDGE('',*,*,#105,.F.);
#107=CARTESIAN_POINT('',(28.5,-0.,-3.));
#108=VERTEX_POINT('',#107);
#109=CARTESIAN_POINT('',(30.000000002,0.,-1.499999998));
#110=DIRECTION('',(-0.707106781,-0.,-0.707106781));
#111=VECTOR('',#110,2.121320346);
#112=LINE('',#109,#111);
#113=EDGE_CURVE('',#76,#108,#112,.T.);
#114=ORIENTED_EDGE('',*,*,#113,.T.);
#115=CARTESIAN_POINT('',(28.5,-0.,3.));
#116=VERTEX_POINT('',#115);
#117=CARTESIAN_POINT('',(28.5,0.,0.));
#118=DIRECTION('',(1.,-0.,-0.));
#119=DIRECTION('',(0.,0.,-1.));
#120=AXIS2_PLACEMENT_3D('',#117,#118,#119);
#121=CIRCLE('',#120,3.);
#122=EDGE_CURVE('',#108,#116,#121,.T.);
#123=ORIENTED_EDGE('',*,*,#122,.T.);
#124=CARTESIAN_POINT('',(30.000000002,0.,1.499999998));
#125=DIRECTION('',(-0.707106781,-0.,0.707106781));
#126=VECTOR('',#125,2.121320346);
#127=LINE('',#124,#126);
#128=EDGE_CURVE('',#99,#116,#127,.T.);
#129=ORIENTED_EDGE('',*,*,#128,.F.);
#130=EDGE_LOOP('',(#106,#114,#123,#129));
#131=FACE_BOUND('',#130,.T.);
#132=ADVANCED_FACE('NONE',(#131),#97,.T.);
#133=CARTESIAN_POINT('',(0.,0.,0.));
#134=DIRECTION('',(1.,0.,0.));
#135=DIRECTION('',(0.,0.,-1.));
#136=AXIS2_PLACEMENT_3D('',#133,#134,#135);
#137=CONICAL_SURFACE('',#136,2.3865,45.);
#138=CARTESIAN_POINT('',(0.,-0.,-2.3865));
#139=VERTEX_POINT('',#138);
#140=CARTESIAN_POINT('',(0.,0.,2.3865));
#141=VERTEX_POINT('',#140);
#142=CARTESIAN_POINT('',(0.,0.,0.));
#143=DIRECTION('',(1.,0.,0.));
#144=DIRECTION('',(0.,0.,-1.));
#145=AXIS2_PLACEMENT_3D('',#142,#143,#144);
#146=CIRCLE('',#145,2.3865);
#147=EDGE_CURVE('',#139,#141,#146,.T.);
#148=ORIENTED_EDGE('',*,*,#147,.T.);
#149=CARTESIAN_POINT('',(0.6135,0.,3.));
#150=VERTEX_POINT('',#149);
#151=CARTESIAN_POINT('',(0.,0.,2.3865));
#152=DIRECTION('',(0.707106781,-0.,0.707106781));
#153=VECTOR('',#152,0.867620021);
#154=LINE('',#151,#153);
#155=EDGE_CURVE('',#141,#150,#154,.T.);
#156=ORIENTED_EDGE('',*,*,#155,.T.);
#157=CARTESIAN_POINT('',(0.6135,-0.,-3.));
#158=VERTEX_POINT('',#157);
#159=CARTESIAN_POINT('',(0.6135,0.,0.));
#160=DIRECTION('',(1.,-0.,0.));
#161=DIRECTION('',(0.,0.,-1.));
#162=AXIS2_PLACEMENT_3D('',#159,#160,#161);
#163=CIRCLE('',#162,3.);
#164=EDGE_CURVE('',#158,#150,#163,.T.);
#165=ORIENTED_EDGE('',*,*,#164,.F.);
#166=CARTESIAN_POINT('',(0.,0.,-2.3865));
#167=DIRECTION('',(0.707106781,0.,-0.707106781));
#168=VECTOR('',#167,0.867620021);
#169=LINE('',#166,#168);
#170=EDGE_CURVE('',#139,#158,#169,.T.);
#171=ORIENTED_EDGE('',*,*,#170,.F.);
#172=EDGE_LOOP('',(#148,#156,#165,#171));
#173=FACE_BOUND('',#172,.T.);
#174=ADVANCED_FACE('NONE',(#173),#137,.T.);
#175=CARTESIAN_POINT('',(30.,0.,0.));
#176=DIRECTION('',(-1.,0.,0.));
#177=DIRECTION('',(0.,0.,-1.));
#178=AXIS2_PLACEMENT_3D('',#175,#176,#177);
#179=CYLINDRICAL_SURFACE('',#178,3.);
#180=CARTESIAN_POINT('',(28.5,0.,0.));
#181=DIRECTION('',(1.,-0.,0.));
#182=DIRECTION('',(0.,0.,-1.));
#183=AXIS2_PLACEMENT_3D('',#180,#181,#182);
#184=CIRCLE('',#183,3.);
#185=EDGE_CURVE('',#116,#108,#184,.T.);
#186=ORIENTED_EDGE('',*,*,#185,.F.);
#187=CARTESIAN_POINT('',(28.5,-0.,3.));
#188=DIRECTION('',(-1.,0.,0.));
#189=VECTOR('',#188,27.8865);
#190=LINE('',#187,#189);
#191=EDGE_CURVE('',#116,#150,#190,.T.);
#192=ORIENTED_EDGE('',*,*,#191,.T.);
#193=CARTESIAN_POINT('',(0.6135,0.,0.));
#194=DIRECTION('',(1.,-0.,-0.));
#195=DIRECTION('',(0.,0.,-1.));
#196=AXIS2_PLACEMENT_3D('',#193,#194,#195);
#197=CIRCLE('',#196,3.);
#198=EDGE_CURVE('',#150,#158,#197,.T.);
#199=ORIENTED_EDGE('',*,*,#198,.T.);
#200=CARTESIAN_POINT('',(28.5,0.,-3.));
#201=DIRECTION('',(-1.,0.,0.));
#202=VECTOR('',#201,27.8865);
#203=LINE('',#200,#202);
#204=EDGE_CURVE('',#108,#158,#203,.T.);
#205=ORIENTED_EDGE('',*,*,#204,.F.);
#206=EDGE_LOOP('',(#186,#192,#199,#205));
#207=FACE_BOUND('',#206,.T.);
#208=ADVANCED_FACE('NONE',(#207),#179,.T.);
#209=CARTESIAN_POINT('',(30.,0.,0.));
#210=DIRECTION('',(-1.,0.,0.));
#211=DIRECTION('',(0.,0.,-1.));
#212=AXIS2_PLACEMENT_3D('',#209,#210,#211);
#213=CYLINDRICAL_SURFACE('',#212,3.);
#214=ORIENTED_EDGE('',*,*,#191,.F.);
#215=ORIENTED_EDGE('',*,*,#122,.F.);
#216=ORIENTED_EDGE('',*,*,#204,.T.);
#217=ORIENTED_EDGE('',*,*,#164,.T.);
#218=EDGE_LOOP('',(#214,#215,#216,#217));
#219=FACE_BOUND('',#218,.T.);
#220=ADVANCED_FACE('NONE',(#219),#213,.T.);
#221=CARTESIAN_POINT('',(0.,0.,0.));
#222=DIRECTION('',(1.,0.,0.));
#223=DIRECTION('',(0.,0.,-1.));
#224=AXIS2_PLACEMENT_3D('',#221,#222,#223);
#225=CONICAL_SURFACE('',#224,2.3865,45.);
#226=ORIENTED_EDGE('',*,*,#155,.F.);
#227=CARTESIAN_POINT('',(0.,0.,0.));
#228=DIRECTION('',(1.,0.,0.));
#229=DIRECTION('',(0.,0.,-1.));
#230=AXIS2_PLACEMENT_3D('',#227,#228,#229);
#231=CIRCLE('',#230,2.3865);
#232=EDGE_CURVE('',#141,#139,#231,.T.);
#233=ORIENTED_EDGE('',*,*,#232,.T.);
#234=ORIENTED_EDGE('',*,*,#170,.T.);
#235=ORIENTED_EDGE('',*,*,#198,.F.);
#236=EDGE_LOOP('',(#226,#233,#234,#235));
#237=FACE_BOUND('',#236,.T.);
#238=ADVANCED_FACE('NONE',(#237),#225,.T.);
#239=CARTESIAN_POINT('',(0.,0.,0.));
#240=DIRECTION('',(-1.,0.,0.));
#241=DIRECTION('',(0.,0.,1.));
#242=AXIS2_PLACEMENT_3D('',#239,#240,#241);
#243=CONICAL_SURFACE('',#242,1.732050808,60.);
#244=CARTESIAN_POINT('',(-0.,-1.5,0.866025404));
#245=VERTEX_POINT('',#244);
#246=CARTESIAN_POINT('',(0.,-1.5,-0.866025404));
#247=VERTEX_POINT('',#246);
#248=CARTESIAN_POINT('',(0.,0.,0.));
#249=DIRECTION('',(1.,0.,-0.));
#250=DIRECTION('',(0.,0.,1.));
#251=AXIS2_PLACEMENT_3D('',#248,#249,#250);
#252=CIRCLE('',#251,1.732050808);
#253=EDGE_CURVE('',#245,#247,#252,.T.);
#254=ORIENTED_EDGE('',*,*,#253,.F.);
#255=CARTESIAN_POINT('',(-0.,-1.5,0.866025404));
#256=CARTESIAN_POINT('',(0.25,-1.5,0.));
#257=CARTESIAN_POINT('',(0.,-1.5,-0.866025404));
#258=(BOUNDED_CURVE()
B_SPLINE_CURVE(2,(#255,#256,#257),.UNSPECIFIED.,.F.,.F.)
B_SPLINE_CURVE_WITH_KNOTS((3,3),(0.142651302,1.94988938),.UNSPECIFIED.)
CURVE()
GEOMETRIC_REPRESENTATION_ITEM()
RATIONAL_B_SPLINE_CURVE((1.027062868,1.185950047,1.027062868))
REPRESENTATION_ITEM(''));
#259=EDGE_CURVE('',#245,#247,#258,.T.);
#260=ORIENTED_EDGE('',*,*,#259,.T.);
#261=EDGE_LOOP('',(#254,#260));
#262=FACE_BOUND('',#261,.T.);
#263=ADVANCED_FACE('NONE',(#262),#243,.F.);
#264=CARTESIAN_POINT('',(0.,0.,0.));
#265=DIRECTION('',(-1.,0.,0.));
#266=DIRECTION('',(0.,0.,1.));
#267=AXIS2_PLACEMENT_3D('',#264,#265,#266);
#268=CONICAL_SURFACE('',#267,1.732050808,60.);
#269=CARTESIAN_POINT('',(-0.,0.,-1.732050808));
#270=VERTEX_POINT('',#269);
#271=CARTESIAN_POINT('',(0.,0.,0.));
#272=DIRECTION('',(1.,0.,-0.));
#273=DIRECTION('',(0.,0.,1.));
#274=AXIS2_PLACEMENT_3D('',#271,#272,#273);
#275=CIRCLE('',#274,1.732050808);
#276=EDGE_CURVE('',#247,#270,#275,.T.);
#277=ORIENTED_EDGE('',*,*,#276,.F.);
#278=CARTESIAN_POINT('',(0.,-1.5,-0.866025404));
#279=CARTESIAN_POINT('',(0.25,-0.75,-1.299038106));
#280=CARTESIAN_POINT('',(-0.,0.,-1.732050808));
#281=(BOUNDED_CURVE()
B_SPLINE_CURVE(2,(#278,#279,#280),.UNSPECIFIED.,.F.,.F.)
B_SPLINE_CURVE_WITH_KNOTS((3,3),(0.142651302,1.94988938),.UNSPECIFIED.)
CURVE()
GEOMETRIC_REPRESENTATION_ITEM()
RATIONAL_B_SPLINE_CURVE((1.027062868,1.185950047,1.027062868))
REPRESENTATION_ITEM(''));
#282=EDGE_CURVE('',#247,#270,#281,.T.);
#283=ORIENTED_EDGE('',*,*,#282,.T.);
#284=EDGE_LOOP('',(#277,#283));
#285=FACE_BOUND('',#284,.T.);
#286=ADVANCED_FACE('NONE',(#285),#268,.F.);
#287=CARTESIAN_POINT('',(3.5,-1.5,0.866025404));
#288=DIRECTION('',(0.,1.,0.));
#289=DIRECTION('',(1.,0.,0.));
#290=AXIS2_PLACEMENT_3D('',#287,#288,#289);
#291=PLANE('',#290);
#292=CARTESIAN_POINT('',(3.5,-1.5,0.866025404));
#293=VERTEX_POINT('',#292);
#294=CARTESIAN_POINT('',(12348.5,-1.5,0.866025404));
#295=DIRECTION('',(-1.,0.,0.));
#296=VECTOR('',#295,24690.);
#297=LINE('',#294,#296);
#298=EDGE_CURVE('',#293,#245,#297,.T.);
#299=ORIENTED_EDGE('',*,*,#298,.F.);
#300=CARTESIAN_POINT('',(3.5,-1.5,-0.866025404));
#301=VERTEX_POINT('',#300);
#302=CARTESIAN_POINT('',(3.5,-1.5,12345.433012702));
#303=DIRECTION('',(0.,0.,-1.));
#304=VECTOR('',#303,24690.);
#305=LINE('',#302,#304);
#306=EDGE_CURVE('',#293,#301,#305,.T.);
#307=ORIENTED_EDGE('',*,*,#306,.T.);
#308=CARTESIAN_POINT('',(12348.5,-1.5,-0.866025404));
#309=DIRECTION('',(-1.,-0.,0.));
#310=VECTOR('',#309,24690.);
#311=LINE('',#308,#310);
#312=EDGE_CURVE('',#301,#247,#311,.T.);
#313=ORIENTED_EDGE('',*,*,#312,.T.);
#314=ORIENTED_EDGE('',*,*,#259,.F.);
#315=EDGE_LOOP('',(#299,#307,#313,#314));
#316=FACE_BOUND('',#315,.T.);
#317=ADVANCED_FACE('NONE',(#316),#291,.T.);
#318=CARTESIAN_POINT('',(3.5,0.,0.));
#319=DIRECTION('',(1.,0.,0.));
#320=DIRECTION('',(0.,1.,0.));
#321=AXIS2_PLACEMENT_3D('',#318,#319,#320);
#322=PLANE('',#321);
#323=CARTESIAN_POINT('',(3.5,1.5,0.866025404));
#324=VERTEX_POINT('',#323);
#325=CARTESIAN_POINT('',(3.5,-0.,1.732050808));
#326=VERTEX_POINT('',#325);
#327=CARTESIAN_POINT('',(3.5,10692.208609719,-6171.417468245));
#328=DIRECTION('',(-0.,-0.866025404,0.5));
#329=VECTOR('',#328,24690.);
#330=LINE('',#327,#329);
#331=EDGE_CURVE('',#324,#326,#330,.T.);
#332=ORIENTED_EDGE('',*,*,#331,.F.);
#333=CARTESIAN_POINT('',(3.5,1.5,-0.866025404));
#334=VERTEX_POINT('',#333);
#335=CARTESIAN_POINT('',(3.5,1.5,-12345.433012702));
#336=DIRECTION('',(-0.,-0.,1.));
#337=VECTOR('',#336,24690.);
#338=LINE('',#335,#337);
#339=EDGE_CURVE('',#334,#324,#338,.T.);
#340=ORIENTED_EDGE('',*,*,#339,.F.);
#341=CARTESIAN_POINT('',(3.5,0.,-1.732050808));
#342=VERTEX_POINT('',#341);
#343=CARTESIAN_POINT('',(3.5,-10690.708609719,-6174.015544457));
#344=DIRECTION('',(-0.,0.866025404,0.5));
#345=VECTOR('',#344,24690.);
#346=LINE('',#343,#345);
#347=EDGE_CURVE('',#342,#334,#346,.T.);
#348=ORIENTED_EDGE('',*,*,#347,.F.);
#349=CARTESIAN_POINT('',(3.5,-10692.208609719,6171.417468245));
#350=DIRECTION('',(-0.,0.866025404,-0.5));
#351=VECTOR('',#350,24690.);
#352=LINE('',#349,#351);
#353=EDGE_CURVE('',#301,#342,#352,.T.);
#354=ORIENTED_EDGE('',*,*,#353,.F.);
#355=ORIENTED_EDGE('',*,*,#306,.F.);
#356=CARTESIAN_POINT('',(3.5,10690.708609719,6174.015544457));
#357=DIRECTION('',(0.,-0.866025404,-0.5));
#358=VECTOR('',#357,24690.);
#359=LINE('',#356,#358);
#360=EDGE_CURVE('',#326,#293,#359,.T.);
#361=ORIENTED_EDGE('',*,*,#360,.F.);
#362=EDGE_LOOP('',(#332,#340,#348,#354,#355,#361));
#363=FACE_BOUND('',#362,.T.);
#364=ORIENTED_EDGE('',*,*,#49,.T.);
#365=CARTESIAN_POINT('',(3.5,-0.,-1.8));
#366=VERTEX_POINT('',#365);
#367=CARTESIAN_POINT('',(3.5,0.,0.));
#368=DIRECTION('',(1.,0.,-0.));
#369=DIRECTION('',(0.,0.,1.));
#370=AXIS2_PLACEMENT_3D('',#367,#368,#369);
#371=CIRCLE('',#370,1.8);
#372=EDGE_CURVE('',#33,#366,#371,.T.);
#373=ORIENTED_EDGE('',*,*,#372,.T.);
#374=CARTESIAN_POINT('',(3.5,0.,0.));
#375=DIRECTION('',(1.,-0.,-0.));
#376=DIRECTION('',(0.,0.,1.));
#377=AXIS2_PLACEMENT_3D('',#374,#375,#376);
#378=CIRCLE('',#377,1.8);
#379=EDGE_CURVE('',#366,#43,#378,.T.);
#380=ORIENTED_EDGE('',*,*,#379,.T.);
#381=EDGE_LOOP('',(#364,#373,#380));
#382=FACE_BOUND('',#381,.T.);
#383=ADVANCED_FACE('NONE',(#363,#382),#322,.T.);
#384=CARTESIAN_POINT('',(0.,0.,0.));
#385=DIRECTION('',(-1.,0.,0.));
#386=DIRECTION('',(0.,0.,1.));
#387=AXIS2_PLACEMENT_3D('',#384,#385,#386);
#388=CONICAL_SURFACE('',#387,1.732050808,60.);
#389=CARTESIAN_POINT('',(0.,1.5,-0.866025404));
#390=VERTEX_POINT('',#389);
#391=CARTESIAN_POINT('',(0.,0.,0.));
#392=DIRECTION('',(1.,0.,-0.));
#393=DIRECTION('',(0.,0.,1.));
#394=AXIS2_PLACEMENT_3D('',#391,#392,#393);
#395=CIRCLE('',#394,1.732050808);
#396=EDGE_CURVE('',#270,#390,#395,.T.);
#397=ORIENTED_EDGE('',*,*,#396,.F.);
#398=CARTESIAN_POINT('',(0.,0.,-1.732050808));
#399=CARTESIAN_POINT('',(0.25,0.75,-1.299038106));
#400=CARTESIAN_POINT('',(0.,1.5,-0.866025404));
#401=(BOUNDED_CURVE()
B_SPLINE_CURVE(2,(#398,#399,#400),.UNSPECIFIED.,.F.,.F.)
B_SPLINE_CURVE_WITH_KNOTS((3,3),(0.142651302,1.94988938),.UNSPECIFIED.)
CURVE()
GEOMETRIC_REPRESENTATION_ITEM()
RATIONAL_B_SPLINE_CURVE((1.027062868,1.185950047,1.027062868))
REPRESENTATION_ITEM(''));
#402=EDGE_CURVE('',#270,#390,#401,.T.);
#403=ORIENTED_EDGE('',*,*,#402,.T.);
#404=EDGE_LOOP('',(#397,#403));
#405=FACE_BOUND('',#404,.T.);
#406=ADVANCED_FACE('NONE',(#405),#388,.F.);
#407=CARTESIAN_POINT('',(0.,0.,0.));
#408=DIRECTION('',(1.,0.,0.));
#409=DIRECTION('',(0.,1.,0.));
#410=AXIS2_PLACEMENT_3D('',#407,#408,#409);
#411=PLANE('',#410);
#412=CARTESIAN_POINT('',(-0.,1.5,0.866025404));
#413=VERTEX_POINT('',#412);
#414=CARTESIAN_POINT('',(0.,0.,0.));
#415=DIRECTION('',(1.,-0.,-0.));
#416=DIRECTION('',(0.,0.,1.));
#417=AXIS2_PLACEMENT_3D('',#414,#415,#416);
#418=CIRCLE('',#417,1.732050808);
#419=EDGE_CURVE('',#390,#413,#418,.T.);
#420=ORIENTED_EDGE('',*,*,#419,.T.);
#421=CARTESIAN_POINT('',(0.,-0.,1.732050808));
#422=VERTEX_POINT('',#421);
#423=CARTESIAN_POINT('',(0.,0.,0.));
#424=DIRECTION('',(1.,-0.,-0.));
#425=DIRECTION('',(0.,0.,1.));
#426=AXIS2_PLACEMENT_3D('',#423,#424,#425);
#427=CIRCLE('',#426,1.732050808);
#428=EDGE_CURVE('',#413,#422,#427,.T.);
#429=ORIENTED_EDGE('',*,*,#428,.T.);
#430=CARTESIAN_POINT('',(0.,0.,0.));
#431=DIRECTION('',(1.,-0.,-0.));
#432=DIRECTION('',(0.,0.,1.));
#433=AXIS2_PLACEMENT_3D('',#430,#431,#432);
#434=CIRCLE('',#433,1.732050808);
#435=EDGE_CURVE('',#422,#245,#434,.T.);
#436=ORIENTED_EDGE('',*,*,#435,.T.);
#437=ORIENTED_EDGE('',*,*,#253,.T.);
#438=ORIENTED_EDGE('',*,*,#276,.T.);
#439=ORIENTED_EDGE('',*,*,#396,.T.);
#440=EDGE_LOOP('',(#420,#429,#436,#437,#438,#439));
#441=FACE_BOUND('',#440,.T.);
#442=ORIENTED_EDGE('',*,*,#147,.F.);
#443=ORIENTED_EDGE('',*,*,#232,.F.);
#444=EDGE_LOOP('',(#442,#443));
#445=FACE_BOUND('',#444,.T.);
#446=ADVANCED_FACE('NONE',(#441,#445),#411,.F.);
#447=CARTESIAN_POINT('',(0.,0.,0.));
#448=DIRECTION('',(-1.,0.,0.));
#449=DIRECTION('',(0.,0.,1.));
#450=AXIS2_PLACEMENT_3D('',#447,#448,#449);
#451=CONICAL_SURFACE('',#450,1.732050808,60.);
#452=ORIENTED_EDGE('',*,*,#419,.F.);
#453=CARTESIAN_POINT('',(0.,1.5,-0.866025404));
#454=CARTESIAN_POINT('',(0.25,1.5,0.));
#455=CARTESIAN_POINT('',(-0.,1.5,0.866025404));
#456=(BOUNDED_CURVE()
B_SPLINE_CURVE(2,(#453,#454,#455),.UNSPECIFIED.,.F.,.F.)
B_SPLINE_CURVE_WITH_KNOTS((3,3),(0.142651302,1.94988938),.UNSPECIFIED.)
CURVE()
GEOMETRIC_REPRESENTATION_ITEM()
RATIONAL_B_SPLINE_CURVE((1.027062868,1.185950047,1.027062868))
REPRESENTATION_ITEM(''));
#457=EDGE_CURVE('',#390,#413,#456,.T.);
#458=ORIENTED_EDGE('',*,*,#457,.T.);
#459=EDGE_LOOP('',(#452,#458));
#460=FACE_BOUND('',#459,.T.);
#461=ADVANCED_FACE('NONE',(#460),#451,.F.);
#462=CARTESIAN_POINT('',(0.,0.,0.));
#463=DIRECTION('',(-1.,0.,0.));
#464=DIRECTION('',(0.,0.,1.));
#465=AXIS2_PLACEMENT_3D('',#462,#463,#464);
#466=CONICAL_SURFACE('',#465,1.732050808,60.);
#467=ORIENTED_EDGE('',*,*,#435,.F.);
#468=CARTESIAN_POINT('',(0.,-0.,1.732050808));
#469=CARTESIAN_POINT('',(0.25,-0.75,1.299038106));
#470=CARTESIAN_POINT('',(0.,-1.5,0.866025404));
#471=(BOUNDED_CURVE()
B_SPLINE_CURVE(2,(#468,#469,#470),.UNSPECIFIED.,.F.,.F.)
B_SPLINE_CURVE_WITH_KNOTS((3,3),(0.142651302,1.94988938),.UNSPECIFIED.)
CURVE()
GEOMETRIC_REPRESENTATION_ITEM()
RATIONAL_B_SPLINE_CURVE((1.027062868,1.185950047,1.027062868))
REPRESENTATION_ITEM(''));
#472=EDGE_CURVE('',#422,#245,#471,.T.);
#473=ORIENTED_EDGE('',*,*,#472,.T.);
#474=EDGE_LOOP('',(#467,#473));
#475=FACE_BOUND('',#474,.T.);
#476=ADVANCED_FACE('NONE',(#475),#466,.F.);
#477=CARTESIAN_POINT('',(0.,0.,0.));
#478=DIRECTION('',(-1.,0.,0.));
#479=DIRECTION('',(0.,0.,1.));
#480=AXIS2_PLACEMENT_3D('',#477,#478,#479);
#481=CONICAL_SURFACE('',#480,1.732050808,60.);
#482=ORIENTED_EDGE('',*,*,#428,.F.);
#483=CARTESIAN_POINT('',(0.,1.5,0.866025404));
#484=CARTESIAN_POINT('',(0.25,0.75,1.299038106));
#485=CARTESIAN_POINT('',(0.,-0.,1.732050808));
#486=(BOUNDED_CURVE()
B_SPLINE_CURVE(2,(#483,#484,#485),.UNSPECIFIED.,.F.,.F.)
B_SPLINE_CURVE_WITH_KNOTS((3,3),(0.142651302,1.94988938),.UNSPECIFIED.)
CURVE()
GEOMETRIC_REPRESENTATION_ITEM()
RATIONAL_B_SPLINE_CURVE((1.027062868,1.185950047,1.027062868))
REPRESENTATION_ITEM(''));
#487=EDGE_CURVE('',#413,#422,#486,.T.);
#488=ORIENTED_EDGE('',*,*,#487,.T.);
#489=EDGE_LOOP('',(#482,#488));
#490=FACE_BOUND('',#489,.T.);
#491=ADVANCED_FACE('NONE',(#490),#481,.F.);
#492=CARTESIAN_POINT('',(28.5,0.,0.));
#493=DIRECTION('',(-1.,0.,0.));
#494=DIRECTION('',(0.,0.,1.));
#495=AXIS2_PLACEMENT_3D('',#492,#493,#494);
#496=CONICAL_SURFACE('',#495,3.,45.);
#497=ORIENTED_EDGE('',*,*,#113,.F.);
#498=ORIENTED_EDGE('',*,*,#82,.F.);
#499=CARTESIAN_POINT('',(30.000000002,0.,0.));
#500=DIRECTION('',(1.,-0.,-0.));
#501=DIRECTION('',(0.,0.,1.));
#502=AXIS2_PLACEMENT_3D('',#499,#500,#501);
#503=CIRCLE('',#502,1.499999997);
#504=EDGE_CURVE('',#99,#66,#503,.T.);
#505=ORIENTED_EDGE('',*,*,#504,.F.);
#506=ORIENTED_EDGE('',*,*,#128,.T.);
#507=ORIENTED_EDGE('',*,*,#185,.T.);
#508=EDGE_LOOP('',(#497,#498,#505,#506,#507));
#509=FACE_BOUND('',#508,.T.);
#510=ADVANCED_FACE('NONE',(#509),#496,.T.);
#511=CARTESIAN_POINT('',(529.133974596,0.,0.));
#512=DIRECTION('',(1.,0.,0.));
#513=DIRECTION('',(0.,0.,-1.));
#514=AXIS2_PLACEMENT_3D('',#511,#512,#513);
#515=CONICAL_SURFACE('',#514,866.025403784,60.);
#516=CARTESIAN_POINT('',(29.133974596,0.,0.));
#517=DIRECTION('',(0.5,0.,0.866025404));
#518=VECTOR('',#517,1.732050808);
#519=LINE('',#516,#518);
#520=EDGE_CURVE('',#68,#99,#519,.T.);
#521=ORIENTED_EDGE('',*,*,#520,.F.);
#522=ORIENTED_EDGE('',*,*,#88,.T.);
#523=ORIENTED_EDGE('',*,*,#105,.T.);
#524=EDGE_LOOP('',(#521,#522,#523));
#525=FACE_BOUND('',#524,.T.);
#526=ADVANCED_FACE('NONE',(#525),#515,.F.);
#527=CARTESIAN_POINT('',(3.5,1.5,0.866025404));
#528=DIRECTION('',(0.,-0.5,-0.866025404));
#529=DIRECTION('',(0.,-0.866025404,0.5));
#530=AXIS2_PLACEMENT_3D('',#527,#528,#529);
#531=PLANE('',#530);
#532=CARTESIAN_POINT('',(12348.5,1.5,0.866025404));
#533=DIRECTION('',(-1.,-0.,0.));
#534=VECTOR('',#533,24690.);
#535=LINE('',#532,#534);
#536=EDGE_CURVE('',#324,#413,#535,.T.);
#537=ORIENTED_EDGE('',*,*,#536,.F.);
#538=ORIENTED_EDGE('',*,*,#331,.T.);
#539=CARTESIAN_POINT('',(12348.5,-0.,1.732050808));
#540=DIRECTION('',(-1.,-0.,0.));
#541=VECTOR('',#540,24690.);
#542=LINE('',#539,#541);
#543=EDGE_CURVE('',#326,#422,#542,.T.);
#544=ORIENTED_EDGE('',*,*,#543,.T.);
#545=ORIENTED_EDGE('',*,*,#487,.F.);
#546=EDGE_LOOP('',(#537,#538,#544,#545));
#547=FACE_BOUND('',#546,.T.);
#548=ADVANCED_FACE('NONE',(#547),#531,.T.);
#549=CARTESIAN_POINT('',(3.5,0.,1.732050808));
#550=DIRECTION('',(0.,0.5,-0.866025404));
#551=DIRECTION('',(-1.,0.,0.));
#552=AXIS2_PLACEMENT_3D('',#549,#550,#551);
#553=PLANE('',#552);
#554=ORIENTED_EDGE('',*,*,#543,.F.);
#555=ORIENTED_EDGE('',*,*,#360,.T.);
#556=ORIENTED_EDGE('',*,*,#298,.T.);
#557=ORIENTED_EDGE('',*,*,#472,.F.);
#558=EDGE_LOOP('',(#554,#555,#556,#557));
#559=FACE_BOUND('',#558,.T.);
#560=ADVANCED_FACE('NONE',(#559),#553,.T.);
#561=CARTESIAN_POINT('',(3.5,-1.5,-0.866025404));
#562=DIRECTION('',(0.,0.5,0.866025404));
#563=DIRECTION('',(1.,0.,0.));
#564=AXIS2_PLACEMENT_3D('',#561,#562,#563);
#565=PLANE('',#564);
#566=ORIENTED_EDGE('',*,*,#312,.F.);
#567=ORIENTED_EDGE('',*,*,#353,.T.);
#568=CARTESIAN_POINT('',(12348.5,0.,-1.732050808));
#569=DIRECTION('',(-1.,-0.,0.));
#570=VECTOR('',#569,24690.);
#571=LINE('',#568,#570);
#572=EDGE_CURVE('',#342,#270,#571,.T.);
#573=ORIENTED_EDGE('',*,*,#572,.T.);
#574=ORIENTED_EDGE('',*,*,#282,.F.);
#575=EDGE_LOOP('',(#566,#567,#573,#574));
#576=FACE_BOUND('',#575,.T.);
#577=ADVANCED_FACE('NONE',(#576),#565,.T.);
#578=CARTESIAN_POINT('',(3.5,-0.,-1.732050808));
#579=DIRECTION('',(0.,-0.5,0.866025404));
#580=DIRECTION('',(-1.,0.,0.));
#581=AXIS2_PLACEMENT_3D('',#578,#579,#580);
#582=PLANE('',#581);
#583=ORIENTED_EDGE('',*,*,#572,.F.);
#584=ORIENTED_EDGE('',*,*,#347,.T.);
#585=CARTESIAN_POINT('',(12348.5,1.5,-0.866025404));
#586=DIRECTION('',(-1.,-0.,0.));
#587=VECTOR('',#586,24690.);
#588=LINE('',#585,#587);
#589=EDGE_CURVE('',#334,#390,#588,.T.);
#590=ORIENTED_EDGE('',*,*,#589,.T.);
#591=ORIENTED_EDGE('',*,*,#402,.F.);
#592=EDGE_LOOP('',(#583,#584,#590,#591));
#593=FACE_BOUND('',#592,.T.);
#594=ADVANCED_FACE('NONE',(#593),#582,.T.);
#595=CARTESIAN_POINT('',(3.5,1.5,-0.866025404));
#596=DIRECTION('',(0.,-1.,0.));
#597=DIRECTION('',(0.,0.,-1.));
#598=AXIS2_PLACEMENT_3D('',#595,#596,#597);
#599=PLANE('',#598);
#600=ORIENTED_EDGE('',*,*,#589,.F.);
#601=ORIENTED_EDGE('',*,*,#339,.T.);
#602=ORIENTED_EDGE('',*,*,#536,.T.);
#603=ORIENTED_EDGE('',*,*,#457,.F.);
#604=EDGE_LOOP('',(#600,#601,#602,#603));
#605=FACE_BOUND('',#604,.T.);
#606=ADVANCED_FACE('NONE',(#605),#599,.T.);
#607=CARTESIAN_POINT('',(3.5,0.,0.));
#608=DIRECTION('',(-1.,0.,0.));
#609=DIRECTION('',(0.,0.,1.));
#610=AXIS2_PLACEMENT_3D('',#607,#608,#609);
#611=CONICAL_SURFACE('',#610,1.8,60.);
#612=CARTESIAN_POINT('',(4.539230485,0.,0.));
#613=DIRECTION('',(-0.5,0.,-0.866025404));
#614=VECTOR('',#613,2.078460969);
#615=LINE('',#612,#614);
#616=EDGE_CURVE('',#35,#366,#615,.T.);
#617=ORIENTED_EDGE('',*,*,#616,.F.);
#618=ORIENTED_EDGE('',*,*,#55,.T.);
#619=ORIENTED_EDGE('',*,*,#379,.F.);
#620=EDGE_LOOP('',(#617,#618,#619));
#621=FACE_BOUND('',#620,.T.);
#622=ADVANCED_FACE('NONE',(#621),#611,.F.);
#623=CARTESIAN_POINT('',(3.5,0.,0.));
#624=DIRECTION('',(-1.,0.,0.));
#625=DIRECTION('',(0.,0.,1.));
#626=AXIS2_PLACEMENT_3D('',#623,#624,#625);
#627=CONICAL_SURFACE('',#626,1.8,60.);
#628=ORIENTED_EDGE('',*,*,#40,.T.);
#629=ORIENTED_EDGE('',*,*,#616,.T.);
#630=ORIENTED_EDGE('',*,*,#372,.F.);
#631=EDGE_LOOP('',(#628,#629,#630));
#632=FACE_BOUND('',#631,.T.);
#633=ADVANCED_FACE('NONE',(#632),#627,.F.);
#634=CARTESIAN_POINT('',(529.133974596,0.,0.));
#635=DIRECTION('',(1.,0.,0.));
#636=DIRECTION('',(0.,0.,-1.));
#637=AXIS2_PLACEMENT_3D('',#634,#635,#636);
#638=CONICAL_SURFACE('',#637,866.025403784,60.);
#639=ORIENTED_EDGE('',*,*,#73,.T.);
#640=ORIENTED_EDGE('',*,*,#520,.T.);
#641=ORIENTED_EDGE('',*,*,#504,.T.);
#642=EDGE_LOOP('',(#639,#640,#641));
#643=FACE_BOUND('',#642,.T.);
#644=ADVANCED_FACE('NONE',(#643),#638,.F.);
#645=CLOSED_SHELL('',(#59,#92,#132,#174,#208,#220,#238,#263,#286,#317,#383,#406,#446,#461,#476,#491,#510,#526,#548,#560,#577,#594,#606,#622,#633,#644));
#646=MANIFOLD_SOLID_BREP('Imported1',#645);
#647=COLOUR_RGB('',0.529411793,0.549019635,0.549019635);
#648=FILL_AREA_STYLE_COLOUR('',#647);
#649=FILL_AREA_STYLE('',(#648));
#650=SURFACE_STYLE_FILL_AREA(#649);
#651=SURFACE_SIDE_STYLE('',(#650));
#652=SURFACE_STYLE_USAGE(.BOTH.,#651);
#653=PRESENTATION_STYLE_ASSIGNMENT((#652));
#26=STYLED_ITEM('',(#653),#646);
#654=INTEGER_REPRESENTATION_ITEM('ATTRIB_BOUNDING_BOX_ALGORITHM',3);
#655=ID_ATTRIBUTE('SA #656',#656);
#656=SHAPE_ASPECT('properties','',#23,.F.);
#657=GEOMETRIC_ITEM_SPECIFIC_USAGE('','properties',#656,#17,#646);
#658=PROPERTY_DEFINITION('ATTRIB_BOUNDING_BOX_ALGORITHM','',#656);
#659=REPRESENTATION('',(#654),#10);
#660=PROPERTY_DEFINITION_REPRESENTATION(#658,#659);
#661=GENERAL_PROPERTY('','ATTRIB_BOUNDING_BOX_ALGORITHM','');
#662=GENERAL_PROPERTY_ASSOCIATION('','',#661,#658);
#16=SHAPE_REPRESENTATION('6089 M6x30 DIN 916 RVS A2 - Hexagon socket set screws ',(#15),#10);
#17=ADVANCED_BREP_SHAPE_REPRESENTATION('6089 M6x30 DIN 916 RVS A2 - Hexagon socket set screws ',(#646),#10);
#670=SHAPE_REPRESENTATION_RELATIONSHIP('','',#16,#17);
#671=CARTESIAN_POINT('',(0.,0.,0.));
#672=DIRECTION('',(0.,0.,1.));
#673=DIRECTION('',(1.,0.,0.));
#674=AXIS2_PLACEMENT_3D('',#671,#672,#673);
#676=MAPPED_ITEM('',#675,#674);
#675=REPRESENTATION_MAP(#674,#16);
#677=APPLICATION_CONTEXT('Managed model based 3d engineering');
#678=APPLICATION_PROTOCOL_DEFINITION('international standard','ap242_managed_model_based_3d_engineering',2013,#677);
#679=PRODUCT_CONTEXT('',#677,'mechanical');
#680=PRODUCT_DEFINITION_CONTEXT('part definition',#677,'design');
#24=PRODUCT('6089 M6x30 DIN 916 RVS A2 - Hexagon socket set screws ','6089 M6x30 DIN 916 RVS A2 - Hexagon socket set screws ','',(#679));
#681=PRODUCT_RELATED_PRODUCT_CATEGORY('part','',(#24));
#682=PRODUCT_DEFINITION_FORMATION_WITH_SPECIFIED_SOURCE('','',#24,.NOT_KNOWN.);
#25=PRODUCT_DEFINITION('design','',#682,#680);
#23=PRODUCT_DEFINITION_SHAPE('','',#25);
#683=SHAPE_DEFINITION_REPRESENTATION(#23,#16);
#11=DRAUGHTING_MODEL('',(#676),#10);
#1=MECHANICAL_DESIGN_GEOMETRIC_PRESENTATION_REPRESENTATION('',(#26),#10);
ENDSEC;
END-ISO-10303-21;
