ISO-10303-21;
HEADER;
/* Generated by software containing ST-Developer
 * from STEP Tools, Inc. (www.steptools.com) 
 */

FILE_DESCRIPTION(
/* description */ ('Alibre Inc.'),
/* implementation_level */ '2;1');

FILE_NAME(
/* name */ 'export-28BD4865-A534-4E14-8A6C-D8584E079BF0',
/* time_stamp */ '2022-11-15T17:02:13+01:00',
/* author */ (''),
/* organization */ (''),
/* preprocessor_version */ 'ST-DEVELOPER v17',
/* originating_system */ 'Alibre',
/* authorisation */ '');

FILE_SCHEMA (('AUTOMOTIVE_DESIGN'));
ENDSEC;

DATA;
#10=STYLED_ITEM('NAME_0',(#49),#501);
#11=STYLED_ITEM('NAME_0',(#50),#286);
#12=STYLED_ITEM('NAME_0',(#50),#287);
#13=STYLED_ITEM('NAME_0',(#50),#288);
#14=STYLED_ITEM('NAME_0',(#50),#289);
#15=STYLED_ITEM('NAME_0',(#50),#290);
#16=STYLED_ITEM('NAME_0',(#50),#291);
#17=STYLED_ITEM('NAME_0',(#50),#292);
#18=STYLED_ITEM('NAME_0',(#50),#293);
#19=STYLED_ITEM('NAME_0',(#50),#294);
#20=STYLED_ITEM('NAME_0',(#50),#295);
#21=STYLED_ITEM('NAME_0',(#50),#296);
#22=STYLED_ITEM('NAME_0',(#50),#297);
#23=STYLED_ITEM('NAME_0',(#50),#298);
#24=STYLED_ITEM('NAME_0',(#50),#299);
#25=STYLED_ITEM('NAME_0',(#50),#304);
#26=STYLED_ITEM('NAME_0',(#51),#300);
#27=STYLED_ITEM('NAME_0',(#51),#301);
#28=STYLED_ITEM('NAME_0',(#51),#302);
#29=STYLED_ITEM('NAME_0',(#51),#303);
#30=MECHANICAL_DESIGN_GEOMETRIC_PRESENTATION_REPRESENTATION('NAME_0',(#10,
#11,#12,#13,#14,#15,#16,#17,#18,#19,#20,#21,#22,#23,#24,#25,#26,#27,#28,
#29),#66);
#31=COLOUR_RGB('',0.882352941176471,0.882352941176471,0.882352941176471);
#32=COLOUR_RGB('',0.686274509803922,0.686274509803922,0.686274509803922);
#33=COLOUR_RGB('',1.,0.501960784313725,0.);
#34=FILL_AREA_STYLE_COLOUR('NAME_0',#31);
#35=FILL_AREA_STYLE_COLOUR('NAME_0',#32);
#36=FILL_AREA_STYLE_COLOUR('NAME_0',#33);
#37=FILL_AREA_STYLE('NAME_0',(#34));
#38=FILL_AREA_STYLE('NAME_0',(#35));
#39=FILL_AREA_STYLE('NAME_0',(#36));
#40=SURFACE_STYLE_FILL_AREA(#37);
#41=SURFACE_STYLE_FILL_AREA(#38);
#42=SURFACE_STYLE_FILL_AREA(#39);
#43=SURFACE_SIDE_STYLE('NAME_0',(#40));
#44=SURFACE_SIDE_STYLE('NAME_0',(#41));
#45=SURFACE_SIDE_STYLE('NAME_0',(#42));
#46=SURFACE_STYLE_USAGE(.POSITIVE.,#43);
#47=SURFACE_STYLE_USAGE(.POSITIVE.,#44);
#48=SURFACE_STYLE_USAGE(.POSITIVE.,#45);
#49=PRESENTATION_STYLE_ASSIGNMENT((#46));
#50=PRESENTATION_STYLE_ASSIGNMENT((#47));
#51=PRESENTATION_STYLE_ASSIGNMENT((#48));
#52=PRODUCT_DEFINITION_CONTEXT('part definition',#59,'design');
#53=SHAPE_DEFINITION_REPRESENTATION(#54,#502);
#54=PRODUCT_DEFINITION_SHAPE('PRODUCT_VERSION_ID',
'PRODUCT_VERSION_DESCR',#55);
#55=PRODUCT_DEFINITION('PRODUCT_VERSION_ID','PRODUCT_VERSION_DESCR',#56,
#52);
#56=PRODUCT_DEFINITION_FORMATION_WITH_SPECIFIED_SOURCE(
'PRODUCT_VERSION_ID','PRODUCT_VERSION_DESCR',#61,.MADE.);
#57=PRODUCT_RELATED_PRODUCT_CATEGORY('part','part',(#61));
#58=APPLICATION_PROTOCOL_DEFINITION('Draft International Standard',
'automotive_design',1994,#59);
#59=APPLICATION_CONTEXT('automotive_Design');
#60=PRODUCT_CONTEXT('3D Mechanical Parts',#59,'mechanical');
#61=PRODUCT('2L08007','6119 2L08007 - \X\D810mm to \X\D86mm - Reducer 
- R8','',(#60));
#62=(
LENGTH_UNIT()
NAMED_UNIT(*)
SI_UNIT(.MILLI.,.METRE.)
);
#63=(
NAMED_UNIT(*)
PLANE_ANGLE_UNIT()
SI_UNIT($,.RADIAN.)
);
#64=(
NAMED_UNIT(*)
SI_UNIT($,.STERADIAN.)
SOLID_ANGLE_UNIT()
);
#65=UNCERTAINTY_MEASURE_WITH_UNIT(LENGTH_MEASURE(1.E-6),#62,
'DISTANCE_ACCURACY_VALUE',
'Maximum model space distance between geometric entities at asserted c
onnectivities');
#66=(
GEOMETRIC_REPRESENTATION_CONTEXT(3)
GLOBAL_UNCERTAINTY_ASSIGNED_CONTEXT((#65))
GLOBAL_UNIT_ASSIGNED_CONTEXT((#64,#63,#62))
REPRESENTATION_CONTEXT('ID1','3D')
);
#67=CONICAL_SURFACE('',#314,5.,0.785398163397445);
#68=CONICAL_SURFACE('',#322,5.,0.785398163397447);
#69=CONICAL_SURFACE('',#330,5.75,0.785398163397452);
#70=VECTOR('',#350,1.);
#71=VECTOR('',#358,1.);
#72=VECTOR('',#363,1.);
#73=VECTOR('',#368,1.);
#74=VECTOR('',#376,1.);
#75=VECTOR('',#381,1.);
#76=VECTOR('',#386,1.);
#77=VECTOR('',#394,1.);
#78=VECTOR('',#399,1.);
#79=VECTOR('',#407,1.);
#80=VECTOR('',#415,1.);
#81=VECTOR('',#423,1.);
#82=LINE('',#430,#70);
#83=LINE('',#437,#71);
#84=LINE('',#441,#72);
#85=LINE('',#445,#73);
#86=LINE('',#452,#74);
#87=LINE('',#456,#75);
#88=LINE('',#460,#76);
#89=LINE('',#467,#77);
#90=LINE('',#471,#78);
#91=LINE('',#478,#79);
#92=LINE('',#485,#80);
#93=LINE('',#492,#81);
#94=CYLINDRICAL_SURFACE('',#308,2.5);
#95=CYLINDRICAL_SURFACE('',#312,5.);
#96=CYLINDRICAL_SURFACE('',#316,4.875);
#97=CYLINDRICAL_SURFACE('',#320,5.);
#98=CYLINDRICAL_SURFACE('',#324,4.5);
#99=CYLINDRICAL_SURFACE('',#328,5.75);
#100=CYLINDRICAL_SURFACE('',#334,3.55);
#101=CYLINDRICAL_SURFACE('',#338,5.5);
#102=CYLINDRICAL_SURFACE('',#342,3.);
#103=VERTEX_POINT('',#426);
#104=VERTEX_POINT('',#428);
#105=VERTEX_POINT('',#431);
#106=VERTEX_POINT('',#435);
#107=VERTEX_POINT('',#438);
#108=VERTEX_POINT('',#442);
#109=VERTEX_POINT('',#446);
#110=VERTEX_POINT('',#450);
#111=VERTEX_POINT('',#453);
#112=VERTEX_POINT('',#457);
#113=VERTEX_POINT('',#461);
#114=VERTEX_POINT('',#465);
#115=VERTEX_POINT('',#468);
#116=VERTEX_POINT('',#472);
#117=VERTEX_POINT('',#476);
#118=VERTEX_POINT('',#479);
#119=VERTEX_POINT('',#483);
#120=VERTEX_POINT('',#486);
#121=VERTEX_POINT('',#490);
#122=CIRCLE('',#306,2.5);
#123=CIRCLE('',#307,3.);
#124=CIRCLE('',#309,2.5);
#125=CIRCLE('',#311,5.);
#126=CIRCLE('',#313,5.);
#127=CIRCLE('',#315,4.875);
#128=CIRCLE('',#317,4.875);
#129=CIRCLE('',#319,5.);
#130=CIRCLE('',#321,5.);
#131=CIRCLE('',#323,4.5);
#132=CIRCLE('',#325,4.5);
#133=CIRCLE('',#327,5.75);
#134=CIRCLE('',#329,5.75);
#135=CIRCLE('',#331,5.50251262658471);
#136=CIRCLE('',#333,3.55);
#137=CIRCLE('',#335,3.55);
#138=CIRCLE('',#337,5.5);
#139=CIRCLE('',#339,5.5);
#140=CIRCLE('',#341,3.);
#141=EDGE_CURVE('',#103,#103,#122,.T.);
#142=EDGE_CURVE('',#104,#104,#123,.T.);
#143=EDGE_CURVE('',#105,#103,#82,.T.);
#144=EDGE_CURVE('',#105,#105,#124,.T.);
#145=EDGE_CURVE('',#106,#106,#125,.T.);
#146=EDGE_CURVE('',#106,#107,#83,.T.);
#147=EDGE_CURVE('',#107,#107,#126,.T.);
#148=EDGE_CURVE('',#107,#108,#84,.T.);
#149=EDGE_CURVE('',#108,#108,#127,.T.);
#150=EDGE_CURVE('',#108,#109,#85,.T.);
#151=EDGE_CURVE('',#109,#109,#128,.T.);
#152=EDGE_CURVE('',#110,#110,#129,.T.);
#153=EDGE_CURVE('',#110,#111,#86,.T.);
#154=EDGE_CURVE('',#111,#111,#130,.T.);
#155=EDGE_CURVE('',#111,#112,#87,.T.);
#156=EDGE_CURVE('',#112,#112,#131,.T.);
#157=EDGE_CURVE('',#112,#113,#88,.T.);
#158=EDGE_CURVE('',#113,#113,#132,.T.);
#159=EDGE_CURVE('',#114,#114,#133,.T.);
#160=EDGE_CURVE('',#114,#115,#89,.T.);
#161=EDGE_CURVE('',#115,#115,#134,.T.);
#162=EDGE_CURVE('',#115,#116,#90,.T.);
#163=EDGE_CURVE('',#116,#116,#135,.T.);
#164=EDGE_CURVE('',#117,#117,#136,.T.);
#165=EDGE_CURVE('',#117,#118,#91,.T.);
#166=EDGE_CURVE('',#118,#118,#137,.T.);
#167=EDGE_CURVE('',#119,#119,#138,.T.);
#168=EDGE_CURVE('',#119,#120,#92,.T.);
#169=EDGE_CURVE('',#120,#120,#139,.T.);
#170=EDGE_CURVE('',#121,#121,#140,.T.);
#171=EDGE_CURVE('',#104,#121,#93,.T.);
#172=ORIENTED_EDGE('',*,*,#141,.T.);
#173=ORIENTED_EDGE('',*,*,#142,.F.);
#174=ORIENTED_EDGE('',*,*,#143,.F.);
#175=ORIENTED_EDGE('',*,*,#144,.T.);
#176=ORIENTED_EDGE('',*,*,#143,.T.);
#177=ORIENTED_EDGE('',*,*,#141,.F.);
#178=ORIENTED_EDGE('',*,*,#145,.T.);
#179=ORIENTED_EDGE('',*,*,#144,.F.);
#180=ORIENTED_EDGE('',*,*,#146,.T.);
#181=ORIENTED_EDGE('',*,*,#147,.T.);
#182=ORIENTED_EDGE('',*,*,#146,.F.);
#183=ORIENTED_EDGE('',*,*,#145,.F.);
#184=ORIENTED_EDGE('',*,*,#148,.T.);
#185=ORIENTED_EDGE('',*,*,#149,.T.);
#186=ORIENTED_EDGE('',*,*,#148,.F.);
#187=ORIENTED_EDGE('',*,*,#147,.F.);
#188=ORIENTED_EDGE('',*,*,#150,.T.);
#189=ORIENTED_EDGE('',*,*,#151,.T.);
#190=ORIENTED_EDGE('',*,*,#150,.F.);
#191=ORIENTED_EDGE('',*,*,#149,.F.);
#192=ORIENTED_EDGE('',*,*,#152,.T.);
#193=ORIENTED_EDGE('',*,*,#151,.F.);
#194=ORIENTED_EDGE('',*,*,#153,.T.);
#195=ORIENTED_EDGE('',*,*,#154,.T.);
#196=ORIENTED_EDGE('',*,*,#153,.F.);
#197=ORIENTED_EDGE('',*,*,#152,.F.);
#198=ORIENTED_EDGE('',*,*,#155,.T.);
#199=ORIENTED_EDGE('',*,*,#156,.T.);
#200=ORIENTED_EDGE('',*,*,#155,.F.);
#201=ORIENTED_EDGE('',*,*,#154,.F.);
#202=ORIENTED_EDGE('',*,*,#157,.T.);
#203=ORIENTED_EDGE('',*,*,#158,.T.);
#204=ORIENTED_EDGE('',*,*,#157,.F.);
#205=ORIENTED_EDGE('',*,*,#156,.F.);
#206=ORIENTED_EDGE('',*,*,#159,.T.);
#207=ORIENTED_EDGE('',*,*,#158,.F.);
#208=ORIENTED_EDGE('',*,*,#160,.T.);
#209=ORIENTED_EDGE('',*,*,#161,.T.);
#210=ORIENTED_EDGE('',*,*,#160,.F.);
#211=ORIENTED_EDGE('',*,*,#159,.F.);
#212=ORIENTED_EDGE('',*,*,#162,.T.);
#213=ORIENTED_EDGE('',*,*,#163,.T.);
#214=ORIENTED_EDGE('',*,*,#162,.F.);
#215=ORIENTED_EDGE('',*,*,#161,.F.);
#216=ORIENTED_EDGE('',*,*,#164,.T.);
#217=ORIENTED_EDGE('',*,*,#163,.F.);
#218=ORIENTED_EDGE('',*,*,#165,.T.);
#219=ORIENTED_EDGE('',*,*,#166,.T.);
#220=ORIENTED_EDGE('',*,*,#165,.F.);
#221=ORIENTED_EDGE('',*,*,#164,.F.);
#222=ORIENTED_EDGE('',*,*,#167,.T.);
#223=ORIENTED_EDGE('',*,*,#166,.F.);
#224=ORIENTED_EDGE('',*,*,#168,.T.);
#225=ORIENTED_EDGE('',*,*,#169,.T.);
#226=ORIENTED_EDGE('',*,*,#168,.F.);
#227=ORIENTED_EDGE('',*,*,#167,.F.);
#228=ORIENTED_EDGE('',*,*,#170,.T.);
#229=ORIENTED_EDGE('',*,*,#169,.F.);
#230=ORIENTED_EDGE('',*,*,#171,.F.);
#231=ORIENTED_EDGE('',*,*,#142,.T.);
#232=ORIENTED_EDGE('',*,*,#171,.T.);
#233=ORIENTED_EDGE('',*,*,#170,.F.);
#234=EDGE_LOOP('',(#172));
#235=EDGE_LOOP('',(#173));
#236=EDGE_LOOP('',(#174,#175,#176,#177));
#237=EDGE_LOOP('',(#178));
#238=EDGE_LOOP('',(#179));
#239=EDGE_LOOP('',(#180,#181,#182,#183));
#240=EDGE_LOOP('',(#184,#185,#186,#187));
#241=EDGE_LOOP('',(#188,#189,#190,#191));
#242=EDGE_LOOP('',(#192));
#243=EDGE_LOOP('',(#193));
#244=EDGE_LOOP('',(#194,#195,#196,#197));
#245=EDGE_LOOP('',(#198,#199,#200,#201));
#246=EDGE_LOOP('',(#202,#203,#204,#205));
#247=EDGE_LOOP('',(#206));
#248=EDGE_LOOP('',(#207));
#249=EDGE_LOOP('',(#208,#209,#210,#211));
#250=EDGE_LOOP('',(#212,#213,#214,#215));
#251=EDGE_LOOP('',(#216));
#252=EDGE_LOOP('',(#217));
#253=EDGE_LOOP('',(#218,#219,#220,#221));
#254=EDGE_LOOP('',(#222));
#255=EDGE_LOOP('',(#223));
#256=EDGE_LOOP('',(#224,#225,#226,#227));
#257=EDGE_LOOP('',(#228));
#258=EDGE_LOOP('',(#229));
#259=EDGE_LOOP('',(#230,#231,#232,#233));
#260=FACE_BOUND('',#234,.T.);
#261=FACE_BOUND('',#235,.T.);
#262=FACE_BOUND('',#236,.T.);
#263=FACE_BOUND('',#237,.T.);
#264=FACE_BOUND('',#238,.T.);
#265=FACE_BOUND('',#239,.T.);
#266=FACE_BOUND('',#240,.T.);
#267=FACE_BOUND('',#241,.T.);
#268=FACE_BOUND('',#242,.T.);
#269=FACE_BOUND('',#243,.T.);
#270=FACE_BOUND('',#244,.T.);
#271=FACE_BOUND('',#245,.T.);
#272=FACE_BOUND('',#246,.T.);
#273=FACE_BOUND('',#247,.T.);
#274=FACE_BOUND('',#248,.T.);
#275=FACE_BOUND('',#249,.T.);
#276=FACE_BOUND('',#250,.T.);
#277=FACE_BOUND('',#251,.T.);
#278=FACE_BOUND('',#252,.T.);
#279=FACE_BOUND('',#253,.T.);
#280=FACE_BOUND('',#254,.T.);
#281=FACE_BOUND('',#255,.T.);
#282=FACE_BOUND('',#256,.T.);
#283=FACE_BOUND('',#257,.T.);
#284=FACE_BOUND('',#258,.T.);
#285=FACE_BOUND('',#259,.T.);
#286=ADVANCED_FACE('',(#260,#261),#493,.T.);
#287=ADVANCED_FACE('',(#262),#94,.F.);
#288=ADVANCED_FACE('',(#263,#264),#494,.T.);
#289=ADVANCED_FACE('',(#265),#95,.T.);
#290=ADVANCED_FACE('',(#266),#67,.T.);
#291=ADVANCED_FACE('',(#267),#96,.T.);
#292=ADVANCED_FACE('',(#268,#269),#495,.T.);
#293=ADVANCED_FACE('',(#270),#97,.T.);
#294=ADVANCED_FACE('',(#271),#68,.T.);
#295=ADVANCED_FACE('',(#272),#98,.T.);
#296=ADVANCED_FACE('',(#273,#274),#496,.T.);
#297=ADVANCED_FACE('',(#275),#99,.T.);
#298=ADVANCED_FACE('',(#276),#69,.T.);
#299=ADVANCED_FACE('',(#277,#278),#497,.T.);
#300=ADVANCED_FACE('',(#279),#100,.T.);
#301=ADVANCED_FACE('',(#280,#281),#498,.T.);
#302=ADVANCED_FACE('',(#282),#101,.T.);
#303=ADVANCED_FACE('',(#283,#284),#499,.T.);
#304=ADVANCED_FACE('',(#285),#102,.F.);
#305=AXIS2_PLACEMENT_3D('',#424,#343,$);
#306=AXIS2_PLACEMENT_3D('',#425,#344,#345);
#307=AXIS2_PLACEMENT_3D('',#427,#346,#347);
#308=AXIS2_PLACEMENT_3D('',#429,#348,#349);
#309=AXIS2_PLACEMENT_3D('',#432,#351,#352);
#310=AXIS2_PLACEMENT_3D('',#433,#353,$);
#311=AXIS2_PLACEMENT_3D('',#434,#354,#355);
#312=AXIS2_PLACEMENT_3D('',#436,#356,#357);
#313=AXIS2_PLACEMENT_3D('',#439,#359,#360);
#314=AXIS2_PLACEMENT_3D('',#440,#361,#362);
#315=AXIS2_PLACEMENT_3D('',#443,#364,#365);
#316=AXIS2_PLACEMENT_3D('',#444,#366,#367);
#317=AXIS2_PLACEMENT_3D('',#447,#369,#370);
#318=AXIS2_PLACEMENT_3D('',#448,#371,$);
#319=AXIS2_PLACEMENT_3D('',#449,#372,#373);
#320=AXIS2_PLACEMENT_3D('',#451,#374,#375);
#321=AXIS2_PLACEMENT_3D('',#454,#377,#378);
#322=AXIS2_PLACEMENT_3D('',#455,#379,#380);
#323=AXIS2_PLACEMENT_3D('',#458,#382,#383);
#324=AXIS2_PLACEMENT_3D('',#459,#384,#385);
#325=AXIS2_PLACEMENT_3D('',#462,#387,#388);
#326=AXIS2_PLACEMENT_3D('',#463,#389,$);
#327=AXIS2_PLACEMENT_3D('',#464,#390,#391);
#328=AXIS2_PLACEMENT_3D('',#466,#392,#393);
#329=AXIS2_PLACEMENT_3D('',#469,#395,#396);
#330=AXIS2_PLACEMENT_3D('',#470,#397,#398);
#331=AXIS2_PLACEMENT_3D('',#473,#400,#401);
#332=AXIS2_PLACEMENT_3D('',#474,#402,$);
#333=AXIS2_PLACEMENT_3D('',#475,#403,#404);
#334=AXIS2_PLACEMENT_3D('',#477,#405,#406);
#335=AXIS2_PLACEMENT_3D('',#480,#408,#409);
#336=AXIS2_PLACEMENT_3D('',#481,#410,$);
#337=AXIS2_PLACEMENT_3D('',#482,#411,#412);
#338=AXIS2_PLACEMENT_3D('',#484,#413,#414);
#339=AXIS2_PLACEMENT_3D('',#487,#416,#417);
#340=AXIS2_PLACEMENT_3D('',#488,#418,$);
#341=AXIS2_PLACEMENT_3D('',#489,#419,#420);
#342=AXIS2_PLACEMENT_3D('',#491,#421,#422);
#343=DIRECTION('',(0.,1.,0.));
#344=DIRECTION('',(0.,-1.,0.));
#345=DIRECTION('',(0.,0.,-2.5));
#346=DIRECTION('',(0.,-1.,0.));
#347=DIRECTION('',(0.,0.,-3.));
#348=DIRECTION('',(0.,-1.,0.));
#349=DIRECTION('',(0.,0.,-2.5));
#350=DIRECTION('',(0.,1.,0.));
#351=DIRECTION('',(0.,-1.,0.));
#352=DIRECTION('',(0.,0.,-2.5));
#353=DIRECTION('',(0.,-1.,0.));
#354=DIRECTION('',(0.,-1.,0.));
#355=DIRECTION('',(0.,0.,-5.));
#356=DIRECTION('',(0.,-1.,0.));
#357=DIRECTION('',(0.,0.,-5.));
#358=DIRECTION('',(0.,1.,0.));
#359=DIRECTION('',(0.,-1.,0.));
#360=DIRECTION('',(0.,0.,-5.));
#361=DIRECTION('',(0.,-1.,0.));
#362=DIRECTION('',(0.,0.,-5.));
#363=DIRECTION('',(0.,0.70710678118655,0.707106781186545));
#364=DIRECTION('',(0.,-1.,0.));
#365=DIRECTION('',(0.,0.,-4.875));
#366=DIRECTION('',(0.,-1.,0.));
#367=DIRECTION('',(0.,0.,-4.875));
#368=DIRECTION('',(0.,1.,0.));
#369=DIRECTION('',(0.,-1.,0.));
#370=DIRECTION('',(0.,0.,-4.875));
#371=DIRECTION('',(0.,-1.,0.));
#372=DIRECTION('',(0.,-1.,0.));
#373=DIRECTION('',(0.,0.,-5.));
#374=DIRECTION('',(0.,-1.,0.));
#375=DIRECTION('',(0.,0.,-5.));
#376=DIRECTION('',(0.,1.,0.));
#377=DIRECTION('',(0.,-1.,0.));
#378=DIRECTION('',(0.,0.,-5.));
#379=DIRECTION('',(0.,-1.,0.));
#380=DIRECTION('',(0.,0.,-5.));
#381=DIRECTION('',(0.,0.707106781186549,0.707106781186546));
#382=DIRECTION('',(0.,-1.,0.));
#383=DIRECTION('',(0.,0.,-4.5));
#384=DIRECTION('',(0.,-1.,0.));
#385=DIRECTION('',(0.,0.,-4.5));
#386=DIRECTION('',(0.,1.,0.));
#387=DIRECTION('',(0.,-1.,0.));
#388=DIRECTION('',(0.,0.,-4.5));
#389=DIRECTION('',(0.,-1.,0.));
#390=DIRECTION('',(0.,-1.,0.));
#391=DIRECTION('',(0.,0.,-5.75));
#392=DIRECTION('',(0.,-1.,0.));
#393=DIRECTION('',(0.,0.,-5.75));
#394=DIRECTION('',(0.,1.,0.));
#395=DIRECTION('',(0.,-1.,0.));
#396=DIRECTION('',(0.,0.,-5.75));
#397=DIRECTION('',(0.,-1.,0.));
#398=DIRECTION('',(0.,0.,-5.75));
#399=DIRECTION('',(0.,0.707106781186545,0.70710678118655));
#400=DIRECTION('',(0.,-1.,0.));
#401=DIRECTION('',(0.,0.,-5.50251262658471));
#402=DIRECTION('',(0.,1.,0.));
#403=DIRECTION('',(0.,-1.,0.));
#404=DIRECTION('',(0.,0.,-3.55));
#405=DIRECTION('',(0.,-1.,0.));
#406=DIRECTION('',(0.,0.,-3.55));
#407=DIRECTION('',(0.,1.,0.));
#408=DIRECTION('',(0.,-1.,0.));
#409=DIRECTION('',(0.,0.,-3.55));
#410=DIRECTION('',(0.,-1.,0.));
#411=DIRECTION('',(0.,-1.,0.));
#412=DIRECTION('',(0.,0.,-5.5));
#413=DIRECTION('',(0.,-1.,0.));
#414=DIRECTION('',(0.,0.,-5.5));
#415=DIRECTION('',(0.,1.,0.));
#416=DIRECTION('',(0.,-1.,0.));
#417=DIRECTION('',(0.,0.,-5.5));
#418=DIRECTION('',(0.,1.,0.));
#419=DIRECTION('',(0.,-1.,0.));
#420=DIRECTION('',(0.,0.,-3.));
#421=DIRECTION('',(0.,-1.,0.));
#422=DIRECTION('',(0.,0.,-3.));
#423=DIRECTION('',(0.,1.,0.));
#424=CARTESIAN_POINT('',(3.,28.5,0.));
#425=CARTESIAN_POINT('',(0.,28.5,0.));
#426=CARTESIAN_POINT('',(-3.06161699786838E-16,28.5,-2.5));
#427=CARTESIAN_POINT('',(0.,28.5,0.));
#428=CARTESIAN_POINT('',(-3.67394039744206E-16,28.5,-3.));
#429=CARTESIAN_POINT('',(0.,0.,0.));
#430=CARTESIAN_POINT('',(0.,28.5,-2.5));
#431=CARTESIAN_POINT('',(-3.06161699786838E-16,0.,-2.5));
#432=CARTESIAN_POINT('',(0.,0.,0.));
#433=CARTESIAN_POINT('',(2.5,0.,0.));
#434=CARTESIAN_POINT('',(0.,0.,0.));
#435=CARTESIAN_POINT('',(-6.12323399573677E-16,0.,-5.));
#436=CARTESIAN_POINT('',(0.,0.,0.));
#437=CARTESIAN_POINT('',(0.,6.3,-5.));
#438=CARTESIAN_POINT('',(-6.12323399573677E-16,6.3,-5.));
#439=CARTESIAN_POINT('',(0.,6.3,0.));
#440=CARTESIAN_POINT('',(0.,6.3,0.));
#441=CARTESIAN_POINT('',(0.,6.4375,-4.8625));
#442=CARTESIAN_POINT('',(-5.97015314584335E-16,6.425,-4.875));
#443=CARTESIAN_POINT('',(0.,6.425,0.));
#444=CARTESIAN_POINT('',(0.,0.,0.));
#445=CARTESIAN_POINT('',(0.,16.725,-4.875));
#446=CARTESIAN_POINT('',(-5.97015314584335E-16,10.3,-4.875));
#447=CARTESIAN_POINT('',(0.,10.3,0.));
#448=CARTESIAN_POINT('',(4.875,10.3,0.));
#449=CARTESIAN_POINT('',(0.,10.3,0.));
#450=CARTESIAN_POINT('',(-6.12323399573677E-16,10.3,-5.));
#451=CARTESIAN_POINT('',(0.,0.,0.));
#452=CARTESIAN_POINT('',(0.,30.3,-5.));
#453=CARTESIAN_POINT('',(-6.12323399573677E-16,20.,-5.));
#454=CARTESIAN_POINT('',(0.,20.,0.));
#455=CARTESIAN_POINT('',(0.,20.,0.));
#456=CARTESIAN_POINT('',(0.,20.55,-4.45));
#457=CARTESIAN_POINT('',(-2.54949250394159E-15,20.5,-4.5));
#458=CARTESIAN_POINT('',(0.,20.5,0.));
#459=CARTESIAN_POINT('',(0.,0.,0.));
#460=CARTESIAN_POINT('',(0.,42.5,-4.5));
#461=CARTESIAN_POINT('',(-5.51091059616309E-16,22.,-4.5));
#462=CARTESIAN_POINT('',(0.,22.,0.));
#463=CARTESIAN_POINT('',(4.5,22.,0.));
#464=CARTESIAN_POINT('',(0.,22.,0.));
#465=CARTESIAN_POINT('',(-7.04171909509728E-16,22.,-5.75));
#466=CARTESIAN_POINT('',(0.,0.,0.));
#467=CARTESIAN_POINT('',(0.,54.4525126265847,-5.75));
#468=CARTESIAN_POINT('',(-7.04171909509728E-16,32.4525126265847,-5.75));
#469=CARTESIAN_POINT('',(0.,32.4525126265847,0.));
#470=CARTESIAN_POINT('',(0.,32.4525126265847,0.));
#471=CARTESIAN_POINT('',(0.,32.7247487373415,-5.47776388924316));
#472=CARTESIAN_POINT('',(-6.73863447541486E-16,32.7,-5.50251262658471));
#473=CARTESIAN_POINT('',(0.,32.7,0.));
#474=CARTESIAN_POINT('',(5.50251262658471,32.7,0.));
#475=CARTESIAN_POINT('',(0.,32.7,0.));
#476=CARTESIAN_POINT('',(-4.44089209850063E-16,32.7,-3.55));
#477=CARTESIAN_POINT('',(0.,0.,0.));
#478=CARTESIAN_POINT('',(0.,67.2,-3.55));
#479=CARTESIAN_POINT('',(-4.3474961369731E-16,34.5,-3.55));
#480=CARTESIAN_POINT('',(0.,34.5,0.));
#481=CARTESIAN_POINT('',(3.55,34.5,0.));
#482=CARTESIAN_POINT('',(0.,34.5,0.));
#483=CARTESIAN_POINT('',(-6.73555739531044E-16,34.5,-5.5));
#484=CARTESIAN_POINT('',(0.,0.,0.));
#485=CARTESIAN_POINT('',(0.,70.7,-5.5));
#486=CARTESIAN_POINT('',(-6.73555739531044E-16,36.2,-5.5));
#487=CARTESIAN_POINT('',(0.,36.2,0.));
#488=CARTESIAN_POINT('',(5.5,36.2,0.));
#489=CARTESIAN_POINT('',(0.,36.2,0.));
#490=CARTESIAN_POINT('',(-3.67394039744206E-16,36.2,-3.));
#491=CARTESIAN_POINT('',(0.,0.,0.));
#492=CARTESIAN_POINT('',(0.,64.7,-3.));
#493=PLANE('',#305);
#494=PLANE('',#310);
#495=PLANE('',#318);
#496=PLANE('',#326);
#497=PLANE('',#332);
#498=PLANE('',#336);
#499=PLANE('',#340);
#500=CLOSED_SHELL('',(#286,#287,#288,#289,#290,#291,#292,#293,#294,#295,
#296,#297,#298,#299,#300,#301,#302,#303,#304));
#501=MANIFOLD_SOLID_BREP('',#500);
#502=ADVANCED_BREP_SHAPE_REPRESENTATION('',(#501),#66);
ENDSEC;
END-ISO-10303-21;
