ISO-10303-21;
HEADER;
/* Generated by software containing ST-Developer
 * from STEP Tools, Inc. (www.steptools.com) 
 */

FILE_DESCRIPTION(
/* description */ ('Alibre Inc.'),
/* implementation_level */ '2;1');

FILE_NAME(
/* name */ 'export-1731A998-8813-4AF8-B1F6-702A9C2F844B',
/* time_stamp */ '2022-11-29T10:18:30+01:00',
/* author */ (''),
/* organization */ (''),
/* preprocessor_version */ 'ST-DEVELOPER v17',
/* originating_system */ 'Alibre',
/* authorisation */ '');

FILE_SCHEMA (('AUTOMOTIVE_DESIGN'));
ENDSEC;

DATA;
#10=CONTEXT_DEPENDENT_SHAPE_REPRESENTATION(#16,#44);
#11=CONTEXT_DEPENDENT_SHAPE_REPRESENTATION(#17,#45);
#12=NEXT_ASSEMBLY_USAGE_OCCURRENCE('NAUO_ID9','NAUO_NAME9',$,#48,#46,$);
#13=NEXT_ASSEMBLY_USAGE_OCCURRENCE('NAUO_ID19','NAUO_NAME19',$,#48,#47,
$);
#14=ITEM_DEFINED_TRANSFORMATION('ITD_NAME0',$,#303,#302);
#15=ITEM_DEFINED_TRANSFORMATION('ITD_NAME10',$,#305,#304);
#16=(
REPRESENTATION_RELATIONSHIP('4226 4.000_PART2',$,#63,#65)
REPRESENTATION_RELATIONSHIP_WITH_TRANSFORMATION(#14)
SHAPE_REPRESENTATION_RELATIONSHIP()
);
#17=(
REPRESENTATION_RELATIONSHIP('4226 4.000_PART1',$,#64,#65)
REPRESENTATION_RELATIONSHIP_WITH_TRANSFORMATION(#15)
SHAPE_REPRESENTATION_RELATIONSHIP()
);
#18=STYLED_ITEM('NAME_0',(#33),#449);
#19=STYLED_ITEM('NAME_0',(#34),#450);
#20=MECHANICAL_DESIGN_GEOMETRIC_PRESENTATION_REPRESENTATION('NAME_0',(#18,
#19),#80);
#21=COLOUR_RGB('',0.8,0.8,0.8);
#22=COLOUR_RGB('',0.498039215686275,0.498039215686275,0.498039215686275);
#23=FILL_AREA_STYLE_COLOUR('NAME_0',#21);
#24=FILL_AREA_STYLE_COLOUR('NAME_0',#22);
#25=FILL_AREA_STYLE('NAME_0',(#23));
#26=FILL_AREA_STYLE('NAME_0',(#24));
#27=SURFACE_STYLE_FILL_AREA(#25);
#28=SURFACE_STYLE_FILL_AREA(#26);
#29=SURFACE_SIDE_STYLE('NAME_0',(#27));
#30=SURFACE_SIDE_STYLE('NAME_0',(#28));
#31=SURFACE_STYLE_USAGE(.POSITIVE.,#29);
#32=SURFACE_STYLE_USAGE(.POSITIVE.,#30);
#33=PRESENTATION_STYLE_ASSIGNMENT((#31));
#34=PRESENTATION_STYLE_ASSIGNMENT((#32));
#35=PRODUCT_DEFINITION_CONTEXT('part definition',#56,'design');
#36=PRODUCT_DEFINITION_CONTEXT('part definition',#56,'design');
#37=PRODUCT_DEFINITION_CONTEXT('part definition',#56,'design');
#38=SHAPE_DEFINITION_REPRESENTATION(#41,#63);
#39=SHAPE_DEFINITION_REPRESENTATION(#42,#64);
#40=SHAPE_DEFINITION_REPRESENTATION(#43,#65);
#41=PRODUCT_DEFINITION_SHAPE('PRODUCT_VERSION_ID',
'PRODUCT_VERSION_DESCR',#46);
#42=PRODUCT_DEFINITION_SHAPE('PRODUCT_VERSION_ID',
'PRODUCT_VERSION_DESCR',#47);
#43=PRODUCT_DEFINITION_SHAPE('PRODUCT_VERSION_ID',
'PRODUCT_VERSION_DESCR',#48);
#44=PRODUCT_DEFINITION_SHAPE('NAME_10',$,#12);
#45=PRODUCT_DEFINITION_SHAPE('NAME_20',$,#13);
#46=PRODUCT_DEFINITION('4226 4.000_PART2','PRODUCT_VERSION_DESCR',#49,#35);
#47=PRODUCT_DEFINITION('4226 4.000_PART1','PRODUCT_VERSION_DESCR',#50,#36);
#48=PRODUCT_DEFINITION('PRODUCT_VERSION_ID','PRODUCT_VERSION_DESCR',#51,
#37);
#49=PRODUCT_DEFINITION_FORMATION_WITH_SPECIFIED_SOURCE(
'PRODUCT_VERSION_ID','PRODUCT_VERSION_DESCR',#60,.MADE.);
#50=PRODUCT_DEFINITION_FORMATION_WITH_SPECIFIED_SOURCE(
'PRODUCT_VERSION_ID','PRODUCT_VERSION_DESCR',#61,.MADE.);
#51=PRODUCT_DEFINITION_FORMATION_WITH_SPECIFIED_SOURCE(
'PRODUCT_VERSION_ID','PRODUCT_VERSION_DESCR',#62,.MADE.);
#52=PRODUCT_RELATED_PRODUCT_CATEGORY('part','part',(#60));
#53=PRODUCT_RELATED_PRODUCT_CATEGORY('part','part',(#61));
#54=PRODUCT_RELATED_PRODUCT_CATEGORY('part','part',(#62));
#55=APPLICATION_PROTOCOL_DEFINITION('Draft International Standard',
'automotive_design',1994,#56);
#56=APPLICATION_CONTEXT('automotive_Design');
#57=PRODUCT_CONTEXT('3D Mechanical Parts',#56,'mechanical');
#58=PRODUCT_CONTEXT('3D Mechanical Parts',#56,'mechanical');
#59=PRODUCT_CONTEXT('3D Mechanical Parts',#56,'mechanical');
#60=PRODUCT('4226 4.000_PART2','4226 4.000_PART2','',(#57));
#61=PRODUCT('4226 4.000_PART1','4226 4.000_PART1','',(#58));
#62=PRODUCT('4226 4.000',
'6149 M4x0,7 Micro-thread milling cutter, 9042260040000','',(#59));
#63=SHAPE_REPRESENTATION('4226 4.000_PART2',(#303),#80);
#64=SHAPE_REPRESENTATION('4226 4.000_PART1',(#305),#81);
#65=SHAPE_REPRESENTATION('NAME_0',(#302,#304),#82);
#66=SHAPE_REPRESENTATION_RELATIONSHIP('NAME_0',$,#63,#451);
#67=SHAPE_REPRESENTATION_RELATIONSHIP('NAME_0',$,#64,#452);
#68=(
LENGTH_UNIT()
NAMED_UNIT(*)
SI_UNIT(.MILLI.,.METRE.)
);
#69=(
LENGTH_UNIT()
NAMED_UNIT(*)
SI_UNIT(.MILLI.,.METRE.)
);
#70=(
LENGTH_UNIT()
NAMED_UNIT(*)
SI_UNIT(.MILLI.,.METRE.)
);
#71=(
NAMED_UNIT(*)
PLANE_ANGLE_UNIT()
SI_UNIT($,.RADIAN.)
);
#72=(
NAMED_UNIT(*)
PLANE_ANGLE_UNIT()
SI_UNIT($,.RADIAN.)
);
#73=(
NAMED_UNIT(*)
PLANE_ANGLE_UNIT()
SI_UNIT($,.RADIAN.)
);
#74=(
NAMED_UNIT(*)
SI_UNIT($,.STERADIAN.)
SOLID_ANGLE_UNIT()
);
#75=(
NAMED_UNIT(*)
SI_UNIT($,.STERADIAN.)
SOLID_ANGLE_UNIT()
);
#76=(
NAMED_UNIT(*)
SI_UNIT($,.STERADIAN.)
SOLID_ANGLE_UNIT()
);
#77=UNCERTAINTY_MEASURE_WITH_UNIT(LENGTH_MEASURE(1.E-6),#68,
'DISTANCE_ACCURACY_VALUE',
'Maximum model space distance between geometric entities at asserted c
onnectivities');
#78=UNCERTAINTY_MEASURE_WITH_UNIT(LENGTH_MEASURE(1.E-6),#69,
'DISTANCE_ACCURACY_VALUE',
'Maximum model space distance between geometric entities at asserted c
onnectivities');
#79=UNCERTAINTY_MEASURE_WITH_UNIT(LENGTH_MEASURE(1.E-6),#70,
'DISTANCE_ACCURACY_VALUE',
'Maximum model space distance between geometric entities at asserted c
onnectivities');
#80=(
GEOMETRIC_REPRESENTATION_CONTEXT(3)
GLOBAL_UNCERTAINTY_ASSIGNED_CONTEXT((#77))
GLOBAL_UNIT_ASSIGNED_CONTEXT((#74,#71,#68))
REPRESENTATION_CONTEXT('ID1','3D')
);
#81=(
GEOMETRIC_REPRESENTATION_CONTEXT(3)
GLOBAL_UNCERTAINTY_ASSIGNED_CONTEXT((#78))
GLOBAL_UNIT_ASSIGNED_CONTEXT((#75,#72,#69))
REPRESENTATION_CONTEXT('ID1','3D')
);
#82=(
GEOMETRIC_REPRESENTATION_CONTEXT(3)
GLOBAL_UNCERTAINTY_ASSIGNED_CONTEXT((#79))
GLOBAL_UNIT_ASSIGNED_CONTEXT((#76,#73,#70))
REPRESENTATION_CONTEXT('ID1','3D')
);
#83=CONICAL_SURFACE('',#278,1.59,0.7853981625);
#84=CONICAL_SURFACE('',#280,1.15,1.0384709037);
#85=CONICAL_SURFACE('',#287,3.,0.7853981625);
#86=CONICAL_SURFACE('',#293,2.501,0.7853981625);
#87=CONICAL_SURFACE('',#297,3.,0.523598775);
#88=PLANE('',#275);
#89=PLANE('',#277);
#90=PLANE('',#296);
#91=PLANE('',#299);
#92=CIRCLE('',#273,1.15);
#93=CIRCLE('',#274,1.15);
#94=CIRCLE('',#276,1.59);
#95=CIRCLE('',#279,1.6);
#96=CIRCLE('',#281,1.6);
#97=CIRCLE('',#284,3.);
#98=CIRCLE('',#285,3.);
#99=CIRCLE('',#286,3.);
#100=CIRCLE('',#288,2.501);
#101=CIRCLE('',#289,2.501);
#102=CIRCLE('',#291,2.501);
#103=CIRCLE('',#292,2.501);
#104=CIRCLE('',#294,2.5000000000018);
#105=CIRCLE('',#295,2.5000000000018);
#106=CIRCLE('',#298,1.15);
#107=CIRCLE('',#300,1.15);
#108=VERTEX_POINT('',#382);
#109=VERTEX_POINT('',#383);
#110=VERTEX_POINT('',#386);
#111=VERTEX_POINT('',#389);
#112=VERTEX_POINT('',#393);
#113=VERTEX_POINT('',#397);
#114=VERTEX_POINT('',#399);
#115=VERTEX_POINT('',#404);
#116=VERTEX_POINT('',#405);
#117=VERTEX_POINT('',#407);
#118=VERTEX_POINT('',#412);
#119=VERTEX_POINT('',#414);
#120=VERTEX_POINT('',#418);
#121=VERTEX_POINT('',#420);
#122=VERTEX_POINT('',#424);
#123=VERTEX_POINT('',#426);
#124=VERTEX_POINT('',#431);
#125=VERTEX_POINT('',#435);
#126=VECTOR('',#308,1.);
#127=VECTOR('',#319,1.);
#128=VECTOR('',#324,1.);
#129=VECTOR('',#329,1.);
#130=VECTOR('',#332,1.);
#131=VECTOR('',#341,1.);
#132=VECTOR('',#348,1.);
#133=VECTOR('',#355,1.);
#134=VECTOR('',#363,1.);
#135=VECTOR('',#371,1.);
#136=LINE('',#381,#126);
#137=LINE('',#392,#127);
#138=LINE('',#396,#128);
#139=LINE('',#401,#129);
#140=LINE('',#403,#130);
#141=LINE('',#411,#131);
#142=LINE('',#417,#132);
#143=LINE('',#423,#133);
#144=LINE('',#430,#134);
#145=LINE('',#437,#135);
#146=EDGE_CURVE('',#108,#109,#136,.T.);
#147=EDGE_CURVE('',#109,#109,#92,.T.);
#148=EDGE_CURVE('',#108,#110,#93,.T.);
#149=EDGE_CURVE('',#110,#108,#93,.T.);
#150=EDGE_CURVE('',#111,#111,#94,.T.);
#151=EDGE_CURVE('',#112,#111,#137,.T.);
#152=EDGE_CURVE('',#112,#112,#95,.T.);
#153=EDGE_CURVE('',#113,#110,#138,.T.);
#154=EDGE_CURVE('',#113,#114,#96,.T.);
#155=EDGE_CURVE('',#114,#113,#96,.T.);
#156=EDGE_CURVE('',#112,#114,#139,.T.);
#157=EDGE_CURVE('',#115,#116,#140,.T.);
#158=EDGE_CURVE('',#117,#116,#97,.T.);
#159=EDGE_CURVE('',#116,#117,#98,.T.);
#160=EDGE_CURVE('',#115,#115,#99,.F.);
#161=EDGE_CURVE('',#117,#118,#141,.T.);
#162=EDGE_CURVE('',#119,#118,#100,.F.);
#163=EDGE_CURVE('',#118,#119,#101,.F.);
#164=EDGE_CURVE('',#119,#120,#142,.T.);
#165=EDGE_CURVE('',#121,#120,#102,.T.);
#166=EDGE_CURVE('',#120,#121,#103,.T.);
#167=EDGE_CURVE('',#121,#122,#143,.T.);
#168=EDGE_CURVE('',#123,#122,#104,.F.);
#169=EDGE_CURVE('',#122,#123,#105,.F.);
#170=EDGE_CURVE('',#115,#124,#144,.T.);
#171=EDGE_CURVE('',#124,#124,#106,.T.);
#172=EDGE_CURVE('',#125,#125,#107,.F.);
#173=EDGE_CURVE('',#125,#124,#145,.T.);
#174=ORIENTED_EDGE('',*,*,#146,.T.);
#175=ORIENTED_EDGE('',*,*,#147,.T.);
#176=ORIENTED_EDGE('',*,*,#146,.F.);
#177=ORIENTED_EDGE('',*,*,#148,.T.);
#178=ORIENTED_EDGE('',*,*,#149,.T.);
#179=ORIENTED_EDGE('',*,*,#150,.F.);
#180=ORIENTED_EDGE('',*,*,#147,.F.);
#181=ORIENTED_EDGE('',*,*,#151,.T.);
#182=ORIENTED_EDGE('',*,*,#150,.T.);
#183=ORIENTED_EDGE('',*,*,#151,.F.);
#184=ORIENTED_EDGE('',*,*,#152,.F.);
#185=ORIENTED_EDGE('',*,*,#153,.T.);
#186=ORIENTED_EDGE('',*,*,#148,.F.);
#187=ORIENTED_EDGE('',*,*,#149,.F.);
#188=ORIENTED_EDGE('',*,*,#153,.F.);
#189=ORIENTED_EDGE('',*,*,#154,.T.);
#190=ORIENTED_EDGE('',*,*,#155,.T.);
#191=ORIENTED_EDGE('',*,*,#156,.T.);
#192=ORIENTED_EDGE('',*,*,#154,.F.);
#193=ORIENTED_EDGE('',*,*,#155,.F.);
#194=ORIENTED_EDGE('',*,*,#156,.F.);
#195=ORIENTED_EDGE('',*,*,#152,.T.);
#196=ORIENTED_EDGE('',*,*,#157,.T.);
#197=ORIENTED_EDGE('',*,*,#158,.F.);
#198=ORIENTED_EDGE('',*,*,#159,.F.);
#199=ORIENTED_EDGE('',*,*,#157,.F.);
#200=ORIENTED_EDGE('',*,*,#160,.T.);
#201=ORIENTED_EDGE('',*,*,#161,.T.);
#202=ORIENTED_EDGE('',*,*,#162,.F.);
#203=ORIENTED_EDGE('',*,*,#163,.F.);
#204=ORIENTED_EDGE('',*,*,#161,.F.);
#205=ORIENTED_EDGE('',*,*,#158,.T.);
#206=ORIENTED_EDGE('',*,*,#159,.T.);
#207=ORIENTED_EDGE('',*,*,#164,.T.);
#208=ORIENTED_EDGE('',*,*,#165,.F.);
#209=ORIENTED_EDGE('',*,*,#166,.F.);
#210=ORIENTED_EDGE('',*,*,#164,.F.);
#211=ORIENTED_EDGE('',*,*,#162,.T.);
#212=ORIENTED_EDGE('',*,*,#163,.T.);
#213=ORIENTED_EDGE('',*,*,#167,.T.);
#214=ORIENTED_EDGE('',*,*,#168,.F.);
#215=ORIENTED_EDGE('',*,*,#169,.F.);
#216=ORIENTED_EDGE('',*,*,#167,.F.);
#217=ORIENTED_EDGE('',*,*,#165,.T.);
#218=ORIENTED_EDGE('',*,*,#166,.T.);
#219=ORIENTED_EDGE('',*,*,#168,.T.);
#220=ORIENTED_EDGE('',*,*,#169,.T.);
#221=ORIENTED_EDGE('',*,*,#170,.T.);
#222=ORIENTED_EDGE('',*,*,#171,.T.);
#223=ORIENTED_EDGE('',*,*,#170,.F.);
#224=ORIENTED_EDGE('',*,*,#160,.F.);
#225=ORIENTED_EDGE('',*,*,#172,.T.);
#226=ORIENTED_EDGE('',*,*,#173,.T.);
#227=ORIENTED_EDGE('',*,*,#171,.F.);
#228=ORIENTED_EDGE('',*,*,#173,.F.);
#229=ORIENTED_EDGE('',*,*,#172,.F.);
#230=EDGE_LOOP('',(#174,#175,#176,#177,#178));
#231=EDGE_LOOP('',(#179));
#232=EDGE_LOOP('',(#180));
#233=EDGE_LOOP('',(#181,#182,#183,#184));
#234=EDGE_LOOP('',(#185,#186,#187,#188,#189,#190));
#235=EDGE_LOOP('',(#191,#192,#193,#194,#195));
#236=EDGE_LOOP('',(#196,#197,#198,#199,#200));
#237=EDGE_LOOP('',(#201,#202,#203,#204,#205,#206));
#238=EDGE_LOOP('',(#207,#208,#209,#210,#211,#212));
#239=EDGE_LOOP('',(#213,#214,#215,#216,#217,#218));
#240=EDGE_LOOP('',(#219,#220));
#241=EDGE_LOOP('',(#221,#222,#223,#224));
#242=EDGE_LOOP('',(#225));
#243=EDGE_LOOP('',(#226,#227,#228,#229));
#244=FACE_BOUND('',#230,.T.);
#245=FACE_BOUND('',#231,.T.);
#246=FACE_BOUND('',#232,.T.);
#247=FACE_BOUND('',#233,.T.);
#248=FACE_BOUND('',#234,.T.);
#249=FACE_BOUND('',#235,.T.);
#250=FACE_BOUND('',#236,.T.);
#251=FACE_BOUND('',#237,.T.);
#252=FACE_BOUND('',#238,.T.);
#253=FACE_BOUND('',#239,.T.);
#254=FACE_BOUND('',#240,.T.);
#255=FACE_BOUND('',#241,.T.);
#256=FACE_BOUND('',#242,.T.);
#257=FACE_BOUND('',#243,.T.);
#258=ADVANCED_FACE('',(#244),#442,.T.);
#259=ADVANCED_FACE('',(#245),#88,.T.);
#260=ADVANCED_FACE('',(#246),#89,.T.);
#261=ADVANCED_FACE('',(#247),#83,.T.);
#262=ADVANCED_FACE('',(#248),#84,.T.);
#263=ADVANCED_FACE('',(#249),#443,.T.);
#264=ADVANCED_FACE('',(#250),#444,.T.);
#265=ADVANCED_FACE('',(#251),#85,.T.);
#266=ADVANCED_FACE('',(#252),#445,.T.);
#267=ADVANCED_FACE('',(#253),#86,.T.);
#268=ADVANCED_FACE('',(#254),#90,.F.);
#269=ADVANCED_FACE('',(#255),#87,.T.);
#270=ADVANCED_FACE('',(#256),#91,.F.);
#271=ADVANCED_FACE('',(#257),#446,.T.);
#272=AXIS2_PLACEMENT_3D('',#380,#306,#307);
#273=AXIS2_PLACEMENT_3D('',#384,#309,#310);
#274=AXIS2_PLACEMENT_3D('',#385,#311,#312);
#275=AXIS2_PLACEMENT_3D('',#387,#313,$);
#276=AXIS2_PLACEMENT_3D('',#388,#314,#315);
#277=AXIS2_PLACEMENT_3D('',#390,#316,$);
#278=AXIS2_PLACEMENT_3D('',#391,#317,#318);
#279=AXIS2_PLACEMENT_3D('',#394,#320,#321);
#280=AXIS2_PLACEMENT_3D('',#395,#322,#323);
#281=AXIS2_PLACEMENT_3D('',#398,#325,#326);
#282=AXIS2_PLACEMENT_3D('',#400,#327,#328);
#283=AXIS2_PLACEMENT_3D('',#402,#330,#331);
#284=AXIS2_PLACEMENT_3D('',#406,#333,#334);
#285=AXIS2_PLACEMENT_3D('',#408,#335,#336);
#286=AXIS2_PLACEMENT_3D('',#409,#337,#338);
#287=AXIS2_PLACEMENT_3D('',#410,#339,#340);
#288=AXIS2_PLACEMENT_3D('',#413,#342,#343);
#289=AXIS2_PLACEMENT_3D('',#415,#344,#345);
#290=AXIS2_PLACEMENT_3D('',#416,#346,#347);
#291=AXIS2_PLACEMENT_3D('',#419,#349,#350);
#292=AXIS2_PLACEMENT_3D('',#421,#351,#352);
#293=AXIS2_PLACEMENT_3D('',#422,#353,#354);
#294=AXIS2_PLACEMENT_3D('',#425,#356,#357);
#295=AXIS2_PLACEMENT_3D('',#427,#358,#359);
#296=AXIS2_PLACEMENT_3D('',#428,#360,$);
#297=AXIS2_PLACEMENT_3D('',#429,#361,#362);
#298=AXIS2_PLACEMENT_3D('',#432,#364,#365);
#299=AXIS2_PLACEMENT_3D('',#433,#366,$);
#300=AXIS2_PLACEMENT_3D('',#434,#367,#368);
#301=AXIS2_PLACEMENT_3D('',#436,#369,#370);
#302=AXIS2_PLACEMENT_3D('AXIS_PLACEMENT_1',#438,#372,#373);
#303=AXIS2_PLACEMENT_3D('AXIS_PLACEMENT_5',#439,#374,#375);
#304=AXIS2_PLACEMENT_3D('AXIS_PLACEMENT_11',#440,#376,#377);
#305=AXIS2_PLACEMENT_3D('AXIS_PLACEMENT_15',#441,#378,#379);
#306=DIRECTION('',(0.,0.,-1.));
#307=DIRECTION('',(1.15,0.,0.));
#308=DIRECTION('',(0.,0.,1.));
#309=DIRECTION('',(0.,0.,-1.));
#310=DIRECTION('',(1.15,0.,0.));
#311=DIRECTION('',(0.,0.,1.));
#312=DIRECTION('',(1.15,0.,0.));
#313=DIRECTION('',(0.,0.,-1.));
#314=DIRECTION('',(0.,0.,1.));
#315=DIRECTION('',(1.59,0.,0.));
#316=DIRECTION('',(0.,0.,1.));
#317=DIRECTION('',(4.15672714618056E-17,0.,1.));
#318=DIRECTION('',(1.59,0.,-6.60919616242709E-17));
#319=DIRECTION('',(-0.707106780551956,0.,-0.70710678182114));
#320=DIRECTION('',(0.,0.,1.));
#321=DIRECTION('',(1.6,0.,0.));
#322=DIRECTION('',(-3.267643191576E-17,0.,-1.));
#323=DIRECTION('',(-1.15,0.,3.7577896703124E-17));
#324=DIRECTION('',(0.86162915981389,0.,0.507538364026217));
#325=DIRECTION('',(0.,0.,1.));
#326=DIRECTION('',(1.6,0.,0.));
#327=DIRECTION('',(0.,0.,-1.));
#328=DIRECTION('',(1.6,0.,0.));
#329=DIRECTION('',(0.,0.,1.));
#330=DIRECTION('',(0.,0.,-1.));
#331=DIRECTION('',(3.,0.,0.));
#332=DIRECTION('',(0.,0.,1.));
#333=DIRECTION('',(0.,0.,1.));
#334=DIRECTION('',(3.,0.,0.));
#335=DIRECTION('',(0.,0.,1.));
#336=DIRECTION('',(3.,0.,0.));
#337=DIRECTION('',(0.,0.,-1.));
#338=DIRECTION('',(3.,0.,0.));
#339=DIRECTION('',(-7.11271215847924E-17,0.,-1.));
#340=DIRECTION('',(-3.,0.,2.13381364754377E-16));
#341=DIRECTION('',(0.707106780551956,0.,0.70710678182114));
#342=DIRECTION('',(0.,0.,-1.));
#343=DIRECTION('',(2.501,0.,0.));
#344=DIRECTION('',(0.,0.,-1.));
#345=DIRECTION('',(2.501,0.,0.));
#346=DIRECTION('',(0.,0.,-1.));
#347=DIRECTION('',(2.501,0.,0.));
#348=DIRECTION('',(0.,0.,1.));
#349=DIRECTION('',(0.,0.,1.));
#350=DIRECTION('',(2.501,0.,0.));
#351=DIRECTION('',(0.,0.,1.));
#352=DIRECTION('',(2.501,0.,0.));
#353=DIRECTION('',(-8.44000952542205E-17,0.,-1.));
#354=DIRECTION('',(-2.501,0.,2.11084638230805E-16));
#355=DIRECTION('',(0.707106780551956,0.,0.707106781821139));
#356=DIRECTION('',(0.,0.,-1.));
#357=DIRECTION('',(-2.5000000000018,0.,2.11000238135703E-16));
#358=DIRECTION('',(0.,0.,-1.));
#359=DIRECTION('',(-2.5000000000018,0.,2.11000238135703E-16));
#360=DIRECTION('',(0.,0.,-1.));
#361=DIRECTION('',(5.9781947836402E-17,0.,1.));
#362=DIRECTION('',(3.,0.,-1.79345843509206E-16));
#363=DIRECTION('',(-0.499999999481858,0.,-0.866025404083588));
#364=DIRECTION('',(0.,0.,1.));
#365=DIRECTION('',(1.15,0.,0.));
#366=DIRECTION('',(0.,0.,1.));
#367=DIRECTION('',(0.,0.,1.));
#368=DIRECTION('',(1.15,0.,0.));
#369=DIRECTION('',(0.,0.,-1.));
#370=DIRECTION('',(1.15,0.,0.));
#371=DIRECTION('',(0.,0.,1.));
#372=DIRECTION('DIRECTION2',(0.,0.,1.));
#373=DIRECTION('DIRECTION3',(1.,0.,0.));
#374=DIRECTION('DIRECTION6',(0.,0.,1.));
#375=DIRECTION('DIRECTION7',(1.,0.,0.));
#376=DIRECTION('DIRECTION12',(0.,0.,1.));
#377=DIRECTION('DIRECTION13',(1.,0.,0.));
#378=DIRECTION('DIRECTION16',(0.,0.,1.));
#379=DIRECTION('DIRECTION17',(1.,0.,0.));
#380=CARTESIAN_POINT('',(0.,0.,-2.7896521898052E-15));
#381=CARTESIAN_POINT('',(1.15,0.,-111.503859485242));
#382=CARTESIAN_POINT('',(1.15000000000219,-7.04171909507051E-17,-55.8689297426171));
#383=CARTESIAN_POINT('',(1.15,1.40834381901946E-16,-55.6349297426158));
#384=CARTESIAN_POINT('',(0.,0.,-55.6349297426208));
#385=CARTESIAN_POINT('',(-8.88639277210151E-32,0.,-55.8689297426208));
#386=CARTESIAN_POINT('',(-1.15000000000219,0.,-55.8689297426171));
#387=CARTESIAN_POINT('',(0.,1.59,-58.));
#388=CARTESIAN_POINT('',(-2.26724951673325E-31,0.,-58.00000000001));
#389=CARTESIAN_POINT('',(1.5899999999975,-1.94718841064429E-16,-58.000000000005));
#390=CARTESIAN_POINT('',(0.,0.,-55.6349297426108));
#391=CARTESIAN_POINT('',(0.,0.,-58.));
#392=CARTESIAN_POINT('',(1.59899999996385,0.,-57.99100000002));
#393=CARTESIAN_POINT('',(1.59999999998603,-1.95943487863577E-16,-57.99000000001));
#394=CARTESIAN_POINT('',(-2.49311631300928E-31,0.,-57.99000000001));
#395=CARTESIAN_POINT('',(0.,0.,-55.8689297426108));
#396=CARTESIAN_POINT('',(-1.55499999888861,0.,-56.1074929742811));
#397=CARTESIAN_POINT('',(-1.59999999937219,0.,-56.13400000001));
#398=CARTESIAN_POINT('',(4.00593428432545E-32,0.,-56.13400000001));
#399=CARTESIAN_POINT('',(1.59999999937219,1.97233082128795E-9,-56.13400000001));
#400=CARTESIAN_POINT('',(0.,0.,-2.7896521898052E-15));
#401=CARTESIAN_POINT('',(1.6,0.,-114.12400000002));
#402=CARTESIAN_POINT('',(0.,0.,-2.7896521898052E-15));
#403=CARTESIAN_POINT('',(3.,0.,-42.8087357486284));
#404=CARTESIAN_POINT('',(2.99999999999711,-3.67394039744206E-16,-42.2996357486184));
#405=CARTESIAN_POINT('',(3.0000000000025,-1.83697019871797E-16,-0.5091000000075));
#406=CARTESIAN_POINT('',(0.,0.,-0.5091));
#407=CARTESIAN_POINT('',(-3.000000000005,0.,-0.5091000000075));
#408=CARTESIAN_POINT('',(0.,0.,-0.5091));
#409=CARTESIAN_POINT('',(0.,0.,-42.2996357486084));
#410=CARTESIAN_POINT('',(0.,0.,-0.5091));
#411=CARTESIAN_POINT('',(-2.45110000100522,0.,0.0397999999799986));
#412=CARTESIAN_POINT('',(-2.50100000022641,0.,-0.0100999997835875));
#413=CARTESIAN_POINT('',(0.,0.,-0.0100999991043464));
#414=CARTESIAN_POINT('',(2.501,-1.53142082191785E-16,-0.0100999991043464));
#415=CARTESIAN_POINT('',(0.,0.,-0.0100999991043464));
#416=CARTESIAN_POINT('',(0.,0.,-2.7896521898052E-15));
#417=CARTESIAN_POINT('',(2.501,0.,-0.0111000000200012));
#418=CARTESIAN_POINT('',(2.501,-3.92716577244228E-12,-0.00100000000000234));
#419=CARTESIAN_POINT('',(0.,0.,-0.00100000000000234));
#420=CARTESIAN_POINT('',(-2.501000000005,3.92657693287646E-12,-0.00100000000750201));
#421=CARTESIAN_POINT('',(0.,0.,-0.00100000000000234));
#422=CARTESIAN_POINT('',(0.,0.,-0.00100000000000234));
#423=CARTESIAN_POINT('',(-2.49990000002198,0.,9.99999799970819E-5));
#424=CARTESIAN_POINT('',(-2.5000000000018,9.26396400998652E-12,-2.94274153656016E-15));
#425=CARTESIAN_POINT('',(8.44000952541696E-20,0.,-2.94274153656016E-15));
#426=CARTESIAN_POINT('',(2.50000000000295,-1.53080849893058E-16,-5.00301926623092E-12));
#427=CARTESIAN_POINT('',(8.44000952541696E-20,0.,-2.94274153656016E-15));
#428=CARTESIAN_POINT('',(0.,2.5,-2.94274153656016E-15));
#429=CARTESIAN_POINT('',(0.,0.,-42.2996357486084));
#430=CARTESIAN_POINT('',(0.965000002800256,0.,-45.824359142031));
#431=CARTESIAN_POINT('',(1.1500000009564,-1.40834381901946E-16,-45.503929743173));
#432=CARTESIAN_POINT('',(0.,0.,-45.5039297470382));
#433=CARTESIAN_POINT('',(0.,0.,-55.6349297426108));
#434=CARTESIAN_POINT('',(0.,0.,-55.6349297426108));
#435=CARTESIAN_POINT('',(1.15,1.40834381901946E-16,-55.6349297426158));
#436=CARTESIAN_POINT('',(0.,0.,-2.7896521898052E-15));
#437=CARTESIAN_POINT('',(1.15,0.,-101.138859485242));
#438=CARTESIAN_POINT('CARTESIAN_POINT4',(0.,0.,0.));
#439=CARTESIAN_POINT('CARTESIAN_POINT8',(0.,0.,0.));
#440=CARTESIAN_POINT('CARTESIAN_POINT14',(0.,0.,0.));
#441=CARTESIAN_POINT('CARTESIAN_POINT18',(0.,0.,0.));
#442=CYLINDRICAL_SURFACE('',#272,1.15);
#443=CYLINDRICAL_SURFACE('',#282,1.6);
#444=CYLINDRICAL_SURFACE('',#283,3.);
#445=CYLINDRICAL_SURFACE('',#290,2.501);
#446=CYLINDRICAL_SURFACE('',#301,1.15);
#447=CLOSED_SHELL('',(#258,#259,#260,#261,#262,#263));
#448=CLOSED_SHELL('',(#264,#265,#266,#267,#268,#269,#270,#271));
#449=MANIFOLD_SOLID_BREP('',#447);
#450=MANIFOLD_SOLID_BREP('',#448);
#451=ADVANCED_BREP_SHAPE_REPRESENTATION('4226 4.000_PART2',(#449),#80);
#452=ADVANCED_BREP_SHAPE_REPRESENTATION('4226 4.000_PART1',(#450),#81);
ENDSEC;
END-ISO-10303-21;
