ISO-10303-21;
HEADER;

/* File generated by Alibre Version V23 */

FILE_DESCRIPTION(('HOOPS Exchange Step'),'2;1');

FILE_NAME('C:\\Users\\User\\AppData\\Local\\Temp\\Alibre Design\\export-9E7EEE17-EF7B-40EE-84D7-2C6B65C3FB23.stp',
'2022-11-29T10:18:45+01:00',
('User'),
('Alibre'),
'HOOPS Exchange 2021.0',
'Alibre',
'Unknown authorisation');

FILE_SCHEMA( ('AP242_MANAGED_MODEL_BASED_3D_ENGINEERING_MIM_LF {1 0 10303 442 1 1 4 }') );

ENDSEC;

DATA;
#3=(NAMED_UNIT(*)PLANE_ANGLE_UNIT()SI_UNIT($,.RADIAN.));
#4=PLANE_ANGLE_MEASURE_WITH_UNIT(PLANE_ANGLE_MEASURE(0.0174532925),#3);
#5=(CONVERSION_BASED_UNIT('DEGREE',#4)NAMED_UNIT(#6)PLANE_ANGLE_UNIT());
#6=DIMENSIONAL_EXPONENTS(0.,0.,0.,0.,0.,0.,0.);
#7=(NAMED_UNIT(*)SI_UNIT($,.STERADIAN.)SOLID_ANGLE_UNIT());
#8=(LENGTH_UNIT()NAMED_UNIT(*)SI_UNIT(.MILLI.,.METRE.));
#9=UNCERTAINTY_MEASURE_WITH_UNIT(LENGTH_MEASURE(1.000000E-03),#8,'DISTANCE_ACCURACY_VALUE','Maximum Tolerance applied to model');
#10=(GEOMETRIC_REPRESENTATION_CONTEXT(3)GLOBAL_UNCERTAINTY_ASSIGNED_CONTEXT((#9))GLOBAL_UNIT_ASSIGNED_CONTEXT((#8,#5,#7))REPRESENTATION_CONTEXT('','6149 M4x0,7 Micro-thread milling cutter, 9042260040000'));
#12=CARTESIAN_POINT('',(0.,0.,0.));
#13=DIRECTION('',(0.,0.,1.));
#14=DIRECTION('',(1.,0.,0.));
#15=AXIS2_PLACEMENT_3D('',#12,#13,#14);
#26=(NAMED_UNIT(*)PLANE_ANGLE_UNIT()SI_UNIT($,.RADIAN.));
#27=PLANE_ANGLE_MEASURE_WITH_UNIT(PLANE_ANGLE_MEASURE(0.0174532925),#26);
#28=(CONVERSION_BASED_UNIT('DEGREE',#27)NAMED_UNIT(#29)PLANE_ANGLE_UNIT());
#29=DIMENSIONAL_EXPONENTS(0.,0.,0.,0.,0.,0.,0.);
#30=(NAMED_UNIT(*)SI_UNIT($,.STERADIAN.)SOLID_ANGLE_UNIT());
#31=(LENGTH_UNIT()NAMED_UNIT(*)SI_UNIT(.MILLI.,.METRE.));
#32=UNCERTAINTY_MEASURE_WITH_UNIT(LENGTH_MEASURE(1.000000E-06),#31,'DISTANCE_ACCURACY_VALUE','Maximum Tolerance applied to model');
#33=(GEOMETRIC_REPRESENTATION_CONTEXT(3)GLOBAL_UNCERTAINTY_ASSIGNED_CONTEXT((#32))GLOBAL_UNIT_ASSIGNED_CONTEXT((#31,#28,#30))REPRESENTATION_CONTEXT('','4226 4.000_PART2'));
#35=CARTESIAN_POINT('',(0.,0.,0.));
#36=DIRECTION('',(0.,0.,1.));
#37=DIRECTION('',(1.,0.,0.));
#38=AXIS2_PLACEMENT_3D('',#35,#36,#37);
#49=CARTESIAN_POINT('',(0.,0.,0.));
#50=DIRECTION('',(0.,0.,1.));
#51=DIRECTION('',(1.,0.,-0.));
#52=AXIS2_PLACEMENT_3D('',#49,#50,#51);
#53=ITEM_DEFINED_TRANSFORMATION('','',#52,#38);
#54=(REPRESENTATION_RELATIONSHIP('','',#39,#16)REPRESENTATION_RELATIONSHIP_WITH_TRANSFORMATION(#53)SHAPE_REPRESENTATION_RELATIONSHIP());
#55=NEXT_ASSEMBLY_USAGE_OCCURRENCE('4226 4.000_PART2_1','4226 4.000_PART2','4226 4.000_PART2',#25,#48,$);
#56=PRODUCT_DEFINITION_SHAPE('','',#55);
#57=CONTEXT_DEPENDENT_SHAPE_REPRESENTATION(#54,#56);
#59=CARTESIAN_POINT('',(0.,0.,-0.));
#60=DIRECTION('',(0.,0.,-1.));
#61=DIRECTION('',(1.,0.,0.));
#62=AXIS2_PLACEMENT_3D('',#59,#60,#61);
#63=CYLINDRICAL_SURFACE('',#62,1.15);
#64=CARTESIAN_POINT('',(-1.15,0.,-55.868929743));
#65=VERTEX_POINT('',#64);
#66=CARTESIAN_POINT('',(-1.15,-0.,-55.634929743));
#67=VERTEX_POINT('',#66);
#68=CARTESIAN_POINT('',(-1.15,-0.,-55.868929743));
#69=DIRECTION('',(-0.,-0.,1.));
#70=VECTOR('',#69,0.234);
#71=LINE('',#68,#70);
#72=EDGE_CURVE('',#65,#67,#71,.T.);
#73=ORIENTED_EDGE('',*,*,#72,.T.);
#74=CARTESIAN_POINT('',(1.15,0.,-55.634929743));
#75=VERTEX_POINT('',#74);
#76=CARTESIAN_POINT('',(0.,0.,-55.634929743));
#77=DIRECTION('',(0.,0.,-1.));
#78=DIRECTION('',(1.,0.,0.));
#79=AXIS2_PLACEMENT_3D('',#76,#77,#78);
#80=CIRCLE('',#79,1.15);
#81=EDGE_CURVE('',#67,#75,#80,.T.);
#82=ORIENTED_EDGE('',*,*,#81,.T.);
#83=CARTESIAN_POINT('',(1.15,-0.,-55.868929743));
#84=VERTEX_POINT('',#83);
#85=CARTESIAN_POINT('',(1.15,0.,-55.868929743));
#86=DIRECTION('',(0.,-0.,1.));
#87=VECTOR('',#86,0.234);
#88=LINE('',#85,#87);
#89=EDGE_CURVE('',#84,#75,#88,.T.);
#90=ORIENTED_EDGE('',*,*,#89,.F.);
#91=CARTESIAN_POINT('',(-0.,0.,-55.868929743));
#92=DIRECTION('',(0.,0.,1.));
#93=DIRECTION('',(1.,0.,-0.));
#94=AXIS2_PLACEMENT_3D('',#91,#92,#93);
#95=CIRCLE('',#94,1.15);
#96=EDGE_CURVE('',#84,#65,#95,.T.);
#97=ORIENTED_EDGE('',*,*,#96,.T.);
#98=EDGE_LOOP('',(#73,#82,#90,#97));
#99=FACE_BOUND('',#98,.T.);
#100=ADVANCED_FACE('',(#99),#63,.T.);
#101=CARTESIAN_POINT('',(0.,1.59,-58.));
#102=DIRECTION('',(0.,0.,-1.));
#103=DIRECTION('',(0.,-1.,0.));
#104=AXIS2_PLACEMENT_3D('',#101,#102,#103);
#105=PLANE('',#104);
#106=CARTESIAN_POINT('',(-1.59,0.,-58.));
#107=VERTEX_POINT('',#106);
#108=CARTESIAN_POINT('',(1.59,-0.,-58.));
#109=VERTEX_POINT('',#108);
#110=CARTESIAN_POINT('',(-0.,0.,-58.));
#111=DIRECTION('',(0.,0.,1.));
#112=DIRECTION('',(1.,0.,-0.));
#113=AXIS2_PLACEMENT_3D('',#110,#111,#112);
#114=CIRCLE('',#113,1.59);
#115=EDGE_CURVE('',#107,#109,#114,.T.);
#116=ORIENTED_EDGE('',*,*,#115,.F.);
#117=CARTESIAN_POINT('',(-0.,0.,-58.));
#118=DIRECTION('',(0.,0.,1.));
#119=DIRECTION('',(1.,0.,-0.));
#120=AXIS2_PLACEMENT_3D('',#117,#118,#119);
#121=CIRCLE('',#120,1.59);
#122=EDGE_CURVE('',#109,#107,#121,.T.);
#123=ORIENTED_EDGE('',*,*,#122,.F.);
#124=EDGE_LOOP('',(#116,#123));
#125=FACE_BOUND('',#124,.T.);
#126=ADVANCED_FACE('',(#125),#105,.T.);
#127=CARTESIAN_POINT('',(0.,0.,-55.634929743));
#128=DIRECTION('',(0.,0.,1.));
#129=DIRECTION('',(1.,0.,0.));
#130=AXIS2_PLACEMENT_3D('',#127,#128,#129);
#131=PLANE('',#130);
#132=ORIENTED_EDGE('',*,*,#81,.F.);
#133=CARTESIAN_POINT('',(0.,0.,-55.634929743));
#134=DIRECTION('',(0.,0.,-1.));
#135=DIRECTION('',(1.,0.,0.));
#136=AXIS2_PLACEMENT_3D('',#133,#134,#135);
#137=CIRCLE('',#136,1.15);
#138=EDGE_CURVE('',#75,#67,#137,.T.);
#139=ORIENTED_EDGE('',*,*,#138,.F.);
#140=EDGE_LOOP('',(#132,#139));
#141=FACE_BOUND('',#140,.T.);
#142=ADVANCED_FACE('',(#141),#131,.T.);
#143=CARTESIAN_POINT('',(0.,0.,-58.));
#144=DIRECTION('',(0.,0.,1.));
#145=DIRECTION('',(1.,0.,-0.));
#146=AXIS2_PLACEMENT_3D('',#143,#144,#145);
#147=CONICAL_SURFACE('',#146,1.59,44.999999949);
#148=CARTESIAN_POINT('',(-1.6,0.,-57.99));
#149=VERTEX_POINT('',#148);
#150=CARTESIAN_POINT('',(-1.6,0.,-57.99));
#151=DIRECTION('',(0.707106781,-0.,-0.707106782));
#152=VECTOR('',#151,0.014142136);
#153=LINE('',#150,#152);
#154=EDGE_CURVE('',#149,#107,#153,.T.);
#155=ORIENTED_EDGE('',*,*,#154,.T.);
#156=ORIENTED_EDGE('',*,*,#115,.T.);
#157=CARTESIAN_POINT('',(1.6,-0.,-57.99));
#158=VERTEX_POINT('',#157);
#159=CARTESIAN_POINT('',(1.6,0.,-57.99));
#160=DIRECTION('',(-0.707106781,0.,-0.707106782));
#161=VECTOR('',#160,0.014142136);
#162=LINE('',#159,#161);
#163=EDGE_CURVE('',#158,#109,#162,.T.);
#164=ORIENTED_EDGE('',*,*,#163,.F.);
#165=CARTESIAN_POINT('',(-0.,0.,-57.99));
#166=DIRECTION('',(0.,0.,1.));
#167=DIRECTION('',(1.,0.,-0.));
#168=AXIS2_PLACEMENT_3D('',#165,#166,#167);
#169=CIRCLE('',#168,1.6);
#170=EDGE_CURVE('',#149,#158,#169,.T.);
#171=ORIENTED_EDGE('',*,*,#170,.F.);
#172=EDGE_LOOP('',(#155,#156,#164,#171));
#173=FACE_BOUND('',#172,.T.);
#174=ADVANCED_FACE('',(#173),#147,.T.);
#175=CARTESIAN_POINT('',(0.,0.,-55.868929743));
#176=DIRECTION('',(-0.,0.,-1.));
#177=DIRECTION('',(-1.,0.,0.));
#178=AXIS2_PLACEMENT_3D('',#175,#176,#177);
#179=CONICAL_SURFACE('',#178,1.15,59.499999929);
#180=CARTESIAN_POINT('',(1.599999999,0.000000002,-56.134));
#181=VERTEX_POINT('',#180);
#182=CARTESIAN_POINT('',(1.599999999,0.,-56.134));
#183=DIRECTION('',(-0.86162916,-0.,0.507538364));
#184=VECTOR('',#183,0.522266446);
#185=LINE('',#182,#184);
#186=EDGE_CURVE('',#181,#84,#185,.T.);
#187=ORIENTED_EDGE('',*,*,#186,.T.);
#188=CARTESIAN_POINT('',(-0.,0.,-55.868929743));
#189=DIRECTION('',(0.,0.,1.));
#190=DIRECTION('',(1.,0.,-0.));
#191=AXIS2_PLACEMENT_3D('',#188,#189,#190);
#192=CIRCLE('',#191,1.15);
#193=EDGE_CURVE('',#65,#84,#192,.T.);
#194=ORIENTED_EDGE('',*,*,#193,.F.);
#195=CARTESIAN_POINT('',(-1.599999999,0.,-56.134));
#196=VERTEX_POINT('',#195);
#197=CARTESIAN_POINT('',(-1.599999999,0.,-56.134));
#198=DIRECTION('',(0.86162916,0.,0.507538364));
#199=VECTOR('',#198,0.522266446);
#200=LINE('',#197,#199);
#201=EDGE_CURVE('',#196,#65,#200,.T.);
#202=ORIENTED_EDGE('',*,*,#201,.F.);
#203=CARTESIAN_POINT('',(0.,0.,-56.134));
#204=DIRECTION('',(0.,0.,1.));
#205=DIRECTION('',(1.,0.,-0.));
#206=AXIS2_PLACEMENT_3D('',#203,#204,#205);
#207=CIRCLE('',#206,1.6);
#208=EDGE_CURVE('',#196,#181,#207,.T.);
#209=ORIENTED_EDGE('',*,*,#208,.T.);
#210=EDGE_LOOP('',(#187,#194,#202,#209));
#211=FACE_BOUND('',#210,.T.);
#212=ADVANCED_FACE('',(#211),#179,.T.);
#213=CARTESIAN_POINT('',(0.,0.,-0.));
#214=DIRECTION('',(0.,0.,-1.));
#215=DIRECTION('',(1.,0.,0.));
#216=AXIS2_PLACEMENT_3D('',#213,#214,#215);
#217=CYLINDRICAL_SURFACE('',#216,1.6);
#218=CARTESIAN_POINT('',(-1.6,-0.,-57.99));
#219=DIRECTION('',(-0.,-0.,1.));
#220=VECTOR('',#219,1.856);
#221=LINE('',#218,#220);
#222=EDGE_CURVE('',#149,#196,#221,.T.);
#223=ORIENTED_EDGE('',*,*,#222,.T.);
#224=CARTESIAN_POINT('',(0.,0.,-56.134));
#225=DIRECTION('',(0.,0.,1.));
#226=DIRECTION('',(1.,0.,-0.));
#227=AXIS2_PLACEMENT_3D('',#224,#225,#226);
#228=CIRCLE('',#227,1.6);
#229=EDGE_CURVE('',#181,#196,#228,.T.);
#230=ORIENTED_EDGE('',*,*,#229,.F.);
#231=CARTESIAN_POINT('',(1.6,0.,-57.99));
#232=DIRECTION('',(0.,-0.,1.));
#233=VECTOR('',#232,1.856);
#234=LINE('',#231,#233);
#235=EDGE_CURVE('',#158,#181,#234,.T.);
#236=ORIENTED_EDGE('',*,*,#235,.F.);
#237=CARTESIAN_POINT('',(-0.,0.,-57.99));
#238=DIRECTION('',(0.,0.,1.));
#239=DIRECTION('',(1.,0.,-0.));
#240=AXIS2_PLACEMENT_3D('',#237,#238,#239);
#241=CIRCLE('',#240,1.6);
#242=EDGE_CURVE('',#158,#149,#241,.T.);
#243=ORIENTED_EDGE('',*,*,#242,.T.);
#244=EDGE_LOOP('',(#223,#230,#236,#243));
#245=FACE_BOUND('',#244,.T.);
#246=ADVANCED_FACE('',(#245),#217,.T.);
#247=CARTESIAN_POINT('',(0.,0.,-0.));
#248=DIRECTION('',(0.,0.,-1.));
#249=DIRECTION('',(1.,0.,0.));
#250=AXIS2_PLACEMENT_3D('',#247,#248,#249);
#251=CYLINDRICAL_SURFACE('',#250,1.15);
#252=ORIENTED_EDGE('',*,*,#72,.F.);
#253=ORIENTED_EDGE('',*,*,#193,.T.);
#254=ORIENTED_EDGE('',*,*,#89,.T.);
#255=ORIENTED_EDGE('',*,*,#138,.T.);
#256=EDGE_LOOP('',(#252,#253,#254,#255));
#257=FACE_BOUND('',#256,.T.);
#258=ADVANCED_FACE('',(#257),#251,.T.);
#259=CARTESIAN_POINT('',(0.,0.,-58.));
#260=DIRECTION('',(0.,0.,1.));
#261=DIRECTION('',(1.,0.,-0.));
#262=AXIS2_PLACEMENT_3D('',#259,#260,#261);
#263=CONICAL_SURFACE('',#262,1.59,44.999999949);
#264=ORIENTED_EDGE('',*,*,#154,.F.);
#265=ORIENTED_EDGE('',*,*,#242,.F.);
#266=ORIENTED_EDGE('',*,*,#163,.T.);
#267=ORIENTED_EDGE('',*,*,#122,.T.);
#268=EDGE_LOOP('',(#264,#265,#266,#267));
#269=FACE_BOUND('',#268,.T.);
#270=ADVANCED_FACE('',(#269),#263,.T.);
#271=CARTESIAN_POINT('',(0.,0.,-55.868929743));
#272=DIRECTION('',(-0.,0.,-1.));
#273=DIRECTION('',(-1.,0.,0.));
#274=AXIS2_PLACEMENT_3D('',#271,#272,#273);
#275=CONICAL_SURFACE('',#274,1.15,59.499999929);
#276=ORIENTED_EDGE('',*,*,#186,.F.);
#277=ORIENTED_EDGE('',*,*,#229,.T.);
#278=ORIENTED_EDGE('',*,*,#201,.T.);
#279=ORIENTED_EDGE('',*,*,#96,.F.);
#280=EDGE_LOOP('',(#276,#277,#278,#279));
#281=FACE_BOUND('',#280,.T.);
#282=ADVANCED_FACE('',(#281),#275,.T.);
#283=CARTESIAN_POINT('',(0.,0.,-0.));
#284=DIRECTION('',(0.,0.,-1.));
#285=DIRECTION('',(1.,0.,0.));
#286=AXIS2_PLACEMENT_3D('',#283,#284,#285);
#287=CYLINDRICAL_SURFACE('',#286,1.6);
#288=ORIENTED_EDGE('',*,*,#222,.F.);
#289=ORIENTED_EDGE('',*,*,#170,.T.);
#290=ORIENTED_EDGE('',*,*,#235,.T.);
#291=ORIENTED_EDGE('',*,*,#208,.F.);
#292=EDGE_LOOP('',(#288,#289,#290,#291));
#293=FACE_BOUND('',#292,.T.);
#294=ADVANCED_FACE('',(#293),#287,.T.);
#295=CLOSED_SHELL('',(#100,#126,#142,#174,#212,#246,#258,#270,#282,#294));
#296=MANIFOLD_SOLID_BREP('1',#295);
#297=COLOUR_RGB('',0.800000012,0.800000012,0.800000012);
#298=FILL_AREA_STYLE_COLOUR('',#297);
#299=FILL_AREA_STYLE('',(#298));
#300=SURFACE_STYLE_FILL_AREA(#299);
#301=SURFACE_SIDE_STYLE('',(#300));
#302=SURFACE_STYLE_USAGE(.BOTH.,#301);
#303=PRESENTATION_STYLE_ASSIGNMENT((#302));
#58=STYLED_ITEM('',(#303),#296);
#304=INTEGER_REPRESENTATION_ITEM('ATTRIB_BOUNDING_BOX_ALGORITHM',3);
#305=ID_ATTRIBUTE('SA #306',#306);
#306=SHAPE_ASPECT('properties','',#46,.F.);
#307=GEOMETRIC_ITEM_SPECIFIC_USAGE('','properties',#306,#40,#296);
#308=PROPERTY_DEFINITION('ATTRIB_BOUNDING_BOX_ALGORITHM','',#306);
#309=REPRESENTATION('',(#304),#33);
#310=PROPERTY_DEFINITION_REPRESENTATION(#308,#309);
#311=GENERAL_PROPERTY('','ATTRIB_BOUNDING_BOX_ALGORITHM','');
#312=GENERAL_PROPERTY_ASSOCIATION('','',#311,#308);
#39=SHAPE_REPRESENTATION('4226 4.000_PART2',(#38),#33);
#40=ADVANCED_BREP_SHAPE_REPRESENTATION('4226 4.000_PART2',(#296),#33);
#320=SHAPE_REPRESENTATION_RELATIONSHIP('','',#39,#40);
#321=CARTESIAN_POINT('',(0.,0.,0.));
#322=DIRECTION('',(0.,0.,1.));
#323=DIRECTION('',(1.,0.,0.));
#324=AXIS2_PLACEMENT_3D('',#321,#322,#323);
#326=MAPPED_ITEM('',#325,#324);
#325=REPRESENTATION_MAP(#324,#39);
#327=APPLICATION_CONTEXT('Managed model based 3d engineering');
#328=APPLICATION_PROTOCOL_DEFINITION('international standard','ap242_managed_model_based_3d_engineering',2013,#327);
#329=PRODUCT_CONTEXT('',#327,'mechanical');
#330=PRODUCT_DEFINITION_CONTEXT('part definition',#327,'design');
#47=PRODUCT('4226 4.000_PART2','4226 4.000_PART2','',(#329));
#331=PRODUCT_RELATED_PRODUCT_CATEGORY('part','',(#47));
#332=PRODUCT_DEFINITION_FORMATION_WITH_SPECIFIED_SOURCE('','',#47,.NOT_KNOWN.);
#48=PRODUCT_DEFINITION('design','',#332,#330);
#46=PRODUCT_DEFINITION_SHAPE('','',#48);
#333=SHAPE_DEFINITION_REPRESENTATION(#46,#39);
#34=DRAUGHTING_MODEL('',(#326),#33);
#334=(NAMED_UNIT(*)PLANE_ANGLE_UNIT()SI_UNIT($,.RADIAN.));
#335=PLANE_ANGLE_MEASURE_WITH_UNIT(PLANE_ANGLE_MEASURE(0.0174532925),#334);
#336=(CONVERSION_BASED_UNIT('DEGREE',#335)NAMED_UNIT(#337)PLANE_ANGLE_UNIT());
#337=DIMENSIONAL_EXPONENTS(0.,0.,0.,0.,0.,0.,0.);
#338=(NAMED_UNIT(*)SI_UNIT($,.STERADIAN.)SOLID_ANGLE_UNIT());
#339=(LENGTH_UNIT()NAMED_UNIT(*)SI_UNIT(.MILLI.,.METRE.));
#340=UNCERTAINTY_MEASURE_WITH_UNIT(LENGTH_MEASURE(1.000000E-06),#339,'DISTANCE_ACCURACY_VALUE','Maximum Tolerance applied to model');
#341=(GEOMETRIC_REPRESENTATION_CONTEXT(3)GLOBAL_UNCERTAINTY_ASSIGNED_CONTEXT((#340))GLOBAL_UNIT_ASSIGNED_CONTEXT((#339,#336,#338))REPRESENTATION_CONTEXT('','4226 4.000_PART1'));
#343=CARTESIAN_POINT('',(0.,0.,0.));
#344=DIRECTION('',(0.,0.,1.));
#345=DIRECTION('',(1.,0.,0.));
#346=AXIS2_PLACEMENT_3D('',#343,#344,#345);
#357=CARTESIAN_POINT('',(0.,0.,0.));
#358=DIRECTION('',(0.,0.,1.));
#359=DIRECTION('',(1.,0.,-0.));
#360=AXIS2_PLACEMENT_3D('',#357,#358,#359);
#361=ITEM_DEFINED_TRANSFORMATION('','',#360,#346);
#362=(REPRESENTATION_RELATIONSHIP('','',#347,#16)REPRESENTATION_RELATIONSHIP_WITH_TRANSFORMATION(#361)SHAPE_REPRESENTATION_RELATIONSHIP());
#363=NEXT_ASSEMBLY_USAGE_OCCURRENCE('4226 4.000_PART1_2','4226 4.000_PART1','4226 4.000_PART1',#25,#356,$);
#364=PRODUCT_DEFINITION_SHAPE('','',#363);
#365=CONTEXT_DEPENDENT_SHAPE_REPRESENTATION(#362,#364);
#367=CARTESIAN_POINT('',(0.,0.,-0.));
#368=DIRECTION('',(0.,0.,-1.));
#369=DIRECTION('',(1.,0.,0.));
#370=AXIS2_PLACEMENT_3D('',#367,#368,#369);
#371=CYLINDRICAL_SURFACE('',#370,3.);
#372=CARTESIAN_POINT('',(-3.,-0.,-42.299635749));
#373=VERTEX_POINT('',#372);
#374=CARTESIAN_POINT('',(-3.,0.,-0.5091));
#375=VERTEX_POINT('',#374);
#376=CARTESIAN_POINT('',(-3.,-0.,-42.299635749));
#377=DIRECTION('',(-0.,-0.,1.));
#378=VECTOR('',#377,41.790535749);
#379=LINE('',#376,#378);
#380=EDGE_CURVE('',#373,#375,#379,.T.);
#381=ORIENTED_EDGE('',*,*,#380,.T.);
#382=CARTESIAN_POINT('',(3.,-0.,-0.5091));
#383=VERTEX_POINT('',#382);
#384=CARTESIAN_POINT('',(0.,0.,-0.5091));
#385=DIRECTION('',(0.,-0.,1.));
#386=DIRECTION('',(1.,0.,0.));
#387=AXIS2_PLACEMENT_3D('',#384,#385,#386);
#388=CIRCLE('',#387,3.);
#389=EDGE_CURVE('',#383,#375,#388,.T.);
#390=ORIENTED_EDGE('',*,*,#389,.F.);
#391=CARTESIAN_POINT('',(3.,-0.,-42.299635749));
#392=VERTEX_POINT('',#391);
#393=CARTESIAN_POINT('',(3.,0.,-42.299635749));
#394=DIRECTION('',(0.,-0.,1.));
#395=VECTOR('',#394,41.790535749);
#396=LINE('',#393,#395);
#397=EDGE_CURVE('',#392,#383,#396,.T.);
#398=ORIENTED_EDGE('',*,*,#397,.F.);
#399=CARTESIAN_POINT('',(0.,0.,-42.299635749));
#400=DIRECTION('',(-0.,-0.,1.));
#401=DIRECTION('',(1.,0.,0.));
#402=AXIS2_PLACEMENT_3D('',#399,#400,#401);
#403=CIRCLE('',#402,3.);
#404=EDGE_CURVE('',#392,#373,#403,.T.);
#405=ORIENTED_EDGE('',*,*,#404,.T.);
#406=EDGE_LOOP('',(#381,#390,#398,#405));
#407=FACE_BOUND('',#406,.T.);
#408=ADVANCED_FACE('',(#407),#371,.T.);
#409=CARTESIAN_POINT('',(0.,0.,-0.5091));
#410=DIRECTION('',(-0.,0.,-1.));
#411=DIRECTION('',(-1.,0.,0.));
#412=AXIS2_PLACEMENT_3D('',#409,#410,#411);
#413=CONICAL_SURFACE('',#412,3.,44.999999949);
#414=CARTESIAN_POINT('',(2.501,-0.,-0.010099999));
#415=VERTEX_POINT('',#414);
#416=CARTESIAN_POINT('',(3.,0.,-0.5091));
#417=DIRECTION('',(-0.707106781,-0.,0.707106782));
#418=VECTOR('',#417,0.705692568);
#419=LINE('',#416,#418);
#420=EDGE_CURVE('',#383,#415,#419,.T.);
#421=ORIENTED_EDGE('',*,*,#420,.T.);
#422=CARTESIAN_POINT('',(-2.501,0.,-0.0101));
#423=VERTEX_POINT('',#422);
#424=CARTESIAN_POINT('',(0.,0.,-0.010099999));
#425=DIRECTION('',(-0.,-0.,1.));
#426=DIRECTION('',(1.,0.,0.));
#427=AXIS2_PLACEMENT_3D('',#424,#425,#426);
#428=CIRCLE('',#427,2.501);
#429=EDGE_CURVE('',#423,#415,#428,.T.);
#430=ORIENTED_EDGE('',*,*,#429,.F.);
#431=CARTESIAN_POINT('',(-3.,0.,-0.5091));
#432=DIRECTION('',(0.707106781,0.,0.707106782));
#433=VECTOR('',#432,0.705692568);
#434=LINE('',#431,#433);
#435=EDGE_CURVE('',#375,#423,#434,.T.);
#436=ORIENTED_EDGE('',*,*,#435,.F.);
#437=CARTESIAN_POINT('',(0.,0.,-0.5091));
#438=DIRECTION('',(0.,-0.,1.));
#439=DIRECTION('',(1.,0.,0.));
#440=AXIS2_PLACEMENT_3D('',#437,#438,#439);
#441=CIRCLE('',#440,3.);
#442=EDGE_CURVE('',#375,#383,#441,.T.);
#443=ORIENTED_EDGE('',*,*,#442,.T.);
#444=EDGE_LOOP('',(#421,#430,#436,#443));
#445=FACE_BOUND('',#444,.T.);
#446=ADVANCED_FACE('',(#445),#413,.T.);
#447=CARTESIAN_POINT('',(0.,0.,-0.));
#448=DIRECTION('',(0.,0.,-1.));
#449=DIRECTION('',(1.,0.,0.));
#450=AXIS2_PLACEMENT_3D('',#447,#448,#449);
#451=CYLINDRICAL_SURFACE('',#450,2.501);
#452=CARTESIAN_POINT('',(-2.501,0.,-0.001));
#453=VERTEX_POINT('',#452);
#454=CARTESIAN_POINT('',(-2.501,-0.,-0.011009999));
#455=DIRECTION('',(-0.,-0.,1.));
#456=VECTOR('',#455,0.010919999);
#457=LINE('',#454,#456);
#458=EDGE_CURVE('',#423,#453,#457,.T.);
#459=ORIENTED_EDGE('',*,*,#458,.T.);
#460=CARTESIAN_POINT('',(2.501,-0.,-0.001));
#461=VERTEX_POINT('',#460);
#462=CARTESIAN_POINT('',(0.,0.,-0.001));
#463=DIRECTION('',(0.,-0.,1.));
#464=DIRECTION('',(1.,0.,0.));
#465=AXIS2_PLACEMENT_3D('',#462,#463,#464);
#466=CIRCLE('',#465,2.501);
#467=EDGE_CURVE('',#461,#453,#466,.T.);
#468=ORIENTED_EDGE('',*,*,#467,.F.);
#469=CARTESIAN_POINT('',(2.501,0.,-0.01101));
#470=DIRECTION('',(0.,-0.,1.));
#471=VECTOR('',#470,0.01092);
#472=LINE('',#469,#471);
#473=EDGE_CURVE('',#415,#461,#472,.T.);
#474=ORIENTED_EDGE('',*,*,#473,.F.);
#475=CARTESIAN_POINT('',(0.,0.,-0.010099999));
#476=DIRECTION('',(-0.,-0.,1.));
#477=DIRECTION('',(1.,0.,0.));
#478=AXIS2_PLACEMENT_3D('',#475,#476,#477);
#479=CIRCLE('',#478,2.501);
#480=EDGE_CURVE('',#415,#423,#479,.T.);
#481=ORIENTED_EDGE('',*,*,#480,.T.);
#482=EDGE_LOOP('',(#459,#468,#474,#481));
#483=FACE_BOUND('',#482,.T.);
#484=ADVANCED_FACE('',(#483),#451,.T.);
#485=CARTESIAN_POINT('',(0.,0.,-0.001));
#486=DIRECTION('',(-0.,0.,-1.));
#487=DIRECTION('',(-1.,0.,0.));
#488=AXIS2_PLACEMENT_3D('',#485,#486,#487);
#489=CONICAL_SURFACE('',#488,2.501,44.999999949);
#490=CARTESIAN_POINT('',(2.5,-0.,-0.));
#491=VERTEX_POINT('',#490);
#492=CARTESIAN_POINT('',(2.5011,0.,-0.0011));
#493=DIRECTION('',(-0.707106781,-0.,0.707106782));
#494=VECTOR('',#493,0.001555635);
#495=LINE('',#492,#494);
#496=EDGE_CURVE('',#461,#491,#495,.T.);
#497=ORIENTED_EDGE('',*,*,#496,.T.);
#498=CARTESIAN_POINT('',(-2.5,0.,-0.));
#499=VERTEX_POINT('',#498);
#500=CARTESIAN_POINT('',(0.,0.,-0.));
#501=DIRECTION('',(0.,-0.,1.));
#502=DIRECTION('',(-1.,0.,0.));
#503=AXIS2_PLACEMENT_3D('',#500,#501,#502);
#504=CIRCLE('',#503,2.5);
#505=EDGE_CURVE('',#499,#491,#504,.T.);
#506=ORIENTED_EDGE('',*,*,#505,.F.);
#507=CARTESIAN_POINT('',(-2.501,0.,-0.001));
#508=DIRECTION('',(0.707106781,0.,0.707106782));
#509=VECTOR('',#508,0.001555635);
#510=LINE('',#507,#509);
#511=EDGE_CURVE('',#453,#499,#510,.T.);
#512=ORIENTED_EDGE('',*,*,#511,.F.);
#513=CARTESIAN_POINT('',(0.,0.,-0.001));
#514=DIRECTION('',(0.,-0.,1.));
#515=DIRECTION('',(1.,0.,0.));
#516=AXIS2_PLACEMENT_3D('',#513,#514,#515);
#517=CIRCLE('',#516,2.501);
#518=EDGE_CURVE('',#453,#461,#517,.T.);
#519=ORIENTED_EDGE('',*,*,#518,.T.);
#520=EDGE_LOOP('',(#497,#506,#512,#519));
#521=FACE_BOUND('',#520,.T.);
#522=ADVANCED_FACE('',(#521),#489,.T.);
#523=CARTESIAN_POINT('',(0.,2.5,-0.));
#524=DIRECTION('',(0.,0.,-1.));
#525=DIRECTION('',(0.,-1.,0.));
#526=AXIS2_PLACEMENT_3D('',#523,#524,#525);
#527=PLANE('',#526);
#528=CARTESIAN_POINT('',(0.,0.,-0.));
#529=DIRECTION('',(0.,-0.,1.));
#530=DIRECTION('',(-1.,0.,0.));
#531=AXIS2_PLACEMENT_3D('',#528,#529,#530);
#532=CIRCLE('',#531,2.5);
#533=EDGE_CURVE('',#491,#499,#532,.T.);
#534=ORIENTED_EDGE('',*,*,#533,.T.);
#535=ORIENTED_EDGE('',*,*,#505,.T.);
#536=EDGE_LOOP('',(#534,#535));
#537=FACE_BOUND('',#536,.T.);
#538=ADVANCED_FACE('',(#537),#527,.F.);
#539=CARTESIAN_POINT('',(0.,0.,-42.299635749));
#540=DIRECTION('',(0.,0.,1.));
#541=DIRECTION('',(1.,0.,-0.));
#542=AXIS2_PLACEMENT_3D('',#539,#540,#541);
#543=CONICAL_SURFACE('',#542,3.,29.999999966);
#544=CARTESIAN_POINT('',(-1.15,0.,-45.503929747));
#545=VERTEX_POINT('',#544);
#546=CARTESIAN_POINT('',(-3.,0.,-42.299635749));
#547=DIRECTION('',(0.499999999,-0.,-0.866025404));
#548=VECTOR('',#547,3.700000004);
#549=LINE('',#546,#548);
#550=EDGE_CURVE('',#373,#545,#549,.T.);
#551=ORIENTED_EDGE('',*,*,#550,.T.);
#552=CARTESIAN_POINT('',(1.150000001,-0.,-45.503929743));
#553=VERTEX_POINT('',#552);
#554=CARTESIAN_POINT('',(0.,0.,-45.503929747));
#555=DIRECTION('',(0.,-0.,1.));
#556=DIRECTION('',(1.,0.,0.));
#557=AXIS2_PLACEMENT_3D('',#554,#555,#556);
#558=CIRCLE('',#557,1.15);
#559=EDGE_CURVE('',#545,#553,#558,.T.);
#560=ORIENTED_EDGE('',*,*,#559,.T.);
#561=CARTESIAN_POINT('',(3.,0.,-42.299635749));
#562=DIRECTION('',(-0.499999999,0.,-0.866025404));
#563=VECTOR('',#562,3.7);
#564=LINE('',#561,#563);
#565=EDGE_CURVE('',#392,#553,#564,.T.);
#566=ORIENTED_EDGE('',*,*,#565,.F.);
#567=CARTESIAN_POINT('',(0.,0.,-42.299635749));
#568=DIRECTION('',(-0.,-0.,1.));
#569=DIRECTION('',(1.,0.,0.));
#570=AXIS2_PLACEMENT_3D('',#567,#568,#569);
#571=CIRCLE('',#570,3.);
#572=EDGE_CURVE('',#373,#392,#571,.T.);
#573=ORIENTED_EDGE('',*,*,#572,.F.);
#574=EDGE_LOOP('',(#551,#560,#566,#573));
#575=FACE_BOUND('',#574,.T.);
#576=ADVANCED_FACE('',(#575),#543,.T.);
#577=CARTESIAN_POINT('',(0.,0.,-55.634929743));
#578=DIRECTION('',(0.,0.,1.));
#579=DIRECTION('',(1.,0.,0.));
#580=AXIS2_PLACEMENT_3D('',#577,#578,#579);
#581=PLANE('',#580);
#582=CARTESIAN_POINT('',(1.15,0.,-55.634929743));
#583=VERTEX_POINT('',#582);
#584=CARTESIAN_POINT('',(-1.15,0.,-55.634929743));
#585=VERTEX_POINT('',#584);
#586=CARTESIAN_POINT('',(0.,0.,-55.634929743));
#587=DIRECTION('',(-0.,-0.,-1.));
#588=DIRECTION('',(1.,0.,-0.));
#589=AXIS2_PLACEMENT_3D('',#586,#587,#588);
#590=CIRCLE('',#589,1.15);
#591=EDGE_CURVE('',#583,#585,#590,.T.);
#592=ORIENTED_EDGE('',*,*,#591,.T.);
#593=CARTESIAN_POINT('',(0.,0.,-55.634929743));
#594=DIRECTION('',(-0.,-0.,-1.));
#595=DIRECTION('',(1.,0.,-0.));
#596=AXIS2_PLACEMENT_3D('',#593,#594,#595);
#597=CIRCLE('',#596,1.15);
#598=EDGE_CURVE('',#585,#583,#597,.T.);
#599=ORIENTED_EDGE('',*,*,#598,.T.);
#600=EDGE_LOOP('',(#592,#599));
#601=FACE_BOUND('',#600,.T.);
#602=ADVANCED_FACE('',(#601),#581,.F.);
#603=CARTESIAN_POINT('',(0.,0.,-0.));
#604=DIRECTION('',(0.,0.,-1.));
#605=DIRECTION('',(1.,0.,0.));
#606=AXIS2_PLACEMENT_3D('',#603,#604,#605);
#607=CYLINDRICAL_SURFACE('',#606,1.15);
#608=CARTESIAN_POINT('',(-1.15,-0.,-55.634929743));
#609=DIRECTION('',(-0.,-0.,1.));
#610=VECTOR('',#609,10.130999996);
#611=LINE('',#608,#610);
#612=EDGE_CURVE('',#585,#545,#611,.T.);
#613=ORIENTED_EDGE('',*,*,#612,.T.);
#614=CARTESIAN_POINT('',(0.,0.,-45.503929747));
#615=DIRECTION('',(0.,-0.,1.));
#616=DIRECTION('',(1.,0.,0.));
#617=AXIS2_PLACEMENT_3D('',#614,#615,#616);
#618=CIRCLE('',#617,1.15);
#619=EDGE_CURVE('',#553,#545,#618,.T.);
#620=ORIENTED_EDGE('',*,*,#619,.F.);
#621=CARTESIAN_POINT('',(1.15,0.,-55.634929743));
#622=DIRECTION('',(0.,-0.,1.));
#623=VECTOR('',#622,10.131);
#624=LINE('',#621,#623);
#625=EDGE_CURVE('',#583,#553,#624,.T.);
#626=ORIENTED_EDGE('',*,*,#625,.F.);
#627=ORIENTED_EDGE('',*,*,#598,.F.);
#628=EDGE_LOOP('',(#613,#620,#626,#627));
#629=FACE_BOUND('',#628,.T.);
#630=ADVANCED_FACE('',(#629),#607,.T.);
#631=CARTESIAN_POINT('',(0.,0.,-0.));
#632=DIRECTION('',(0.,0.,-1.));
#633=DIRECTION('',(1.,0.,0.));
#634=AXIS2_PLACEMENT_3D('',#631,#632,#633);
#635=CYLINDRICAL_SURFACE('',#634,3.);
#636=ORIENTED_EDGE('',*,*,#380,.F.);
#637=ORIENTED_EDGE('',*,*,#572,.T.);
#638=ORIENTED_EDGE('',*,*,#397,.T.);
#639=ORIENTED_EDGE('',*,*,#442,.F.);
#640=EDGE_LOOP('',(#636,#637,#638,#639));
#641=FACE_BOUND('',#640,.T.);
#642=ADVANCED_FACE('',(#641),#635,.T.);
#643=CARTESIAN_POINT('',(0.,0.,-0.5091));
#644=DIRECTION('',(-0.,0.,-1.));
#645=DIRECTION('',(-1.,0.,0.));
#646=AXIS2_PLACEMENT_3D('',#643,#644,#645);
#647=CONICAL_SURFACE('',#646,3.,44.999999949);
#648=ORIENTED_EDGE('',*,*,#420,.F.);
#649=ORIENTED_EDGE('',*,*,#389,.T.);
#650=ORIENTED_EDGE('',*,*,#435,.T.);
#651=ORIENTED_EDGE('',*,*,#480,.F.);
#652=EDGE_LOOP('',(#648,#649,#650,#651));
#653=FACE_BOUND('',#652,.T.);
#654=ADVANCED_FACE('',(#653),#647,.T.);
#655=CARTESIAN_POINT('',(0.,0.,-0.));
#656=DIRECTION('',(0.,0.,-1.));
#657=DIRECTION('',(1.,0.,0.));
#658=AXIS2_PLACEMENT_3D('',#655,#656,#657);
#659=CYLINDRICAL_SURFACE('',#658,2.501);
#660=ORIENTED_EDGE('',*,*,#458,.F.);
#661=ORIENTED_EDGE('',*,*,#429,.T.);
#662=ORIENTED_EDGE('',*,*,#473,.T.);
#663=ORIENTED_EDGE('',*,*,#518,.F.);
#664=EDGE_LOOP('',(#660,#661,#662,#663));
#665=FACE_BOUND('',#664,.T.);
#666=ADVANCED_FACE('',(#665),#659,.T.);
#667=CARTESIAN_POINT('',(0.,0.,-0.001));
#668=DIRECTION('',(-0.,0.,-1.));
#669=DIRECTION('',(-1.,0.,0.));
#670=AXIS2_PLACEMENT_3D('',#667,#668,#669);
#671=CONICAL_SURFACE('',#670,2.501,44.999999949);
#672=ORIENTED_EDGE('',*,*,#496,.F.);
#673=ORIENTED_EDGE('',*,*,#467,.T.);
#674=ORIENTED_EDGE('',*,*,#511,.T.);
#675=ORIENTED_EDGE('',*,*,#533,.F.);
#676=EDGE_LOOP('',(#672,#673,#674,#675));
#677=FACE_BOUND('',#676,.T.);
#678=ADVANCED_FACE('',(#677),#671,.T.);
#679=CARTESIAN_POINT('',(0.,0.,-42.299635749));
#680=DIRECTION('',(0.,0.,1.));
#681=DIRECTION('',(1.,0.,-0.));
#682=AXIS2_PLACEMENT_3D('',#679,#680,#681);
#683=CONICAL_SURFACE('',#682,3.,29.999999966);
#684=ORIENTED_EDGE('',*,*,#550,.F.);
#685=ORIENTED_EDGE('',*,*,#404,.F.);
#686=ORIENTED_EDGE('',*,*,#565,.T.);
#687=ORIENTED_EDGE('',*,*,#619,.T.);
#688=EDGE_LOOP('',(#684,#685,#686,#687));
#689=FACE_BOUND('',#688,.T.);
#690=ADVANCED_FACE('',(#689),#683,.T.);
#691=CARTESIAN_POINT('',(0.,0.,-0.));
#692=DIRECTION('',(0.,0.,-1.));
#693=DIRECTION('',(1.,0.,0.));
#694=AXIS2_PLACEMENT_3D('',#691,#692,#693);
#695=CYLINDRICAL_SURFACE('',#694,1.15);
#696=ORIENTED_EDGE('',*,*,#612,.F.);
#697=ORIENTED_EDGE('',*,*,#591,.F.);
#698=ORIENTED_EDGE('',*,*,#625,.T.);
#699=ORIENTED_EDGE('',*,*,#559,.F.);
#700=EDGE_LOOP('',(#696,#697,#698,#699));
#701=FACE_BOUND('',#700,.T.);
#702=ADVANCED_FACE('',(#701),#695,.T.);
#703=CLOSED_SHELL('',(#408,#446,#484,#522,#538,#576,#602,#630,#642,#654,#666,#678,#690,#702));
#704=MANIFOLD_SOLID_BREP('1',#703);
#705=COLOUR_RGB('',0.498039216,0.498039216,0.498039216);
#706=FILL_AREA_STYLE_COLOUR('',#705);
#707=FILL_AREA_STYLE('',(#706));
#708=SURFACE_STYLE_FILL_AREA(#707);
#709=SURFACE_SIDE_STYLE('',(#708));
#710=SURFACE_STYLE_USAGE(.BOTH.,#709);
#711=PRESENTATION_STYLE_ASSIGNMENT((#710));
#366=STYLED_ITEM('',(#711),#704);
#712=INTEGER_REPRESENTATION_ITEM('ATTRIB_BOUNDING_BOX_ALGORITHM',3);
#713=ID_ATTRIBUTE('SA #714',#714);
#714=SHAPE_ASPECT('properties','',#354,.F.);
#715=GEOMETRIC_ITEM_SPECIFIC_USAGE('','properties',#714,#348,#704);
#716=PROPERTY_DEFINITION('ATTRIB_BOUNDING_BOX_ALGORITHM','',#714);
#717=REPRESENTATION('',(#712),#341);
#718=PROPERTY_DEFINITION_REPRESENTATION(#716,#717);
#719=GENERAL_PROPERTY('','ATTRIB_BOUNDING_BOX_ALGORITHM','');
#720=GENERAL_PROPERTY_ASSOCIATION('','',#719,#716);
#347=SHAPE_REPRESENTATION('4226 4.000_PART1',(#346),#341);
#348=ADVANCED_BREP_SHAPE_REPRESENTATION('4226 4.000_PART1',(#704),#341);
#728=SHAPE_REPRESENTATION_RELATIONSHIP('','',#347,#348);
#729=CARTESIAN_POINT('',(0.,0.,0.));
#730=DIRECTION('',(0.,0.,1.));
#731=DIRECTION('',(1.,0.,0.));
#732=AXIS2_PLACEMENT_3D('',#729,#730,#731);
#734=MAPPED_ITEM('',#733,#732);
#733=REPRESENTATION_MAP(#732,#347);
#355=PRODUCT('4226 4.000_PART1','4226 4.000_PART1','',(#329));
#735=PRODUCT_RELATED_PRODUCT_CATEGORY('part','',(#355));
#736=PRODUCT_DEFINITION_FORMATION_WITH_SPECIFIED_SOURCE('','',#355,.NOT_KNOWN.);
#356=PRODUCT_DEFINITION('design','',#736,#330);
#354=PRODUCT_DEFINITION_SHAPE('','',#356);
#737=SHAPE_DEFINITION_REPRESENTATION(#354,#347);
#342=DRAUGHTING_MODEL('',(#734),#341);
#16=SHAPE_REPRESENTATION('6149 M4x0,7 Micro-thread milling cutter, 9042260040000',(#15,#52,#360),#10);
#738=CARTESIAN_POINT('',(0.,0.,0.));
#739=DIRECTION('',(0.,0.,1.));
#740=DIRECTION('',(1.,0.,0.));
#741=AXIS2_PLACEMENT_3D('',#738,#739,#740);
#743=MAPPED_ITEM('',#742,#741);
#742=REPRESENTATION_MAP(#741,#16);
#24=PRODUCT('6149 M4x0,7 Micro-thread milling cutter, 9042260040000','6149 M4x0,7 Micro-thread milling cutter, 9042260040000','',(#329));
#744=PRODUCT_RELATED_PRODUCT_CATEGORY('part','',(#24));
#745=PRODUCT_DEFINITION_FORMATION_WITH_SPECIFIED_SOURCE('','',#24,.NOT_KNOWN.);
#25=PRODUCT_DEFINITION('design','',#745,#330);
#23=PRODUCT_DEFINITION_SHAPE('','',#25);
#746=SHAPE_DEFINITION_REPRESENTATION(#23,#16);
#11=DRAUGHTING_MODEL('',(#743),#10);
#1=MECHANICAL_DESIGN_GEOMETRIC_PRESENTATION_REPRESENTATION('',(#58,#366),#10);
ENDSEC;
END-ISO-10303-21;
