ISO-10303-21;
HEADER;
/* Generated by software containing ST-Developer
 * from STEP Tools, Inc. (www.steptools.com) 
 */

FILE_DESCRIPTION(
/* description */ ('Alibre Inc.'),
/* implementation_level */ '2;1');

FILE_NAME(
/* name */ 'export-CF0D72F2-765C-4F4D-BDE4-4AD5C031CE6B',
/* time_stamp */ '2022-11-29T10:52:26+01:00',
/* author */ (''),
/* organization */ (''),
/* preprocessor_version */ 'ST-DEVELOPER v17',
/* originating_system */ 'Alibre',
/* authorisation */ '');

FILE_SCHEMA (('AUTOMOTIVE_DESIGN'));
ENDSEC;

DATA;
#10=CONTEXT_DEPENDENT_SHAPE_REPRESENTATION(#16,#44);
#11=CONTEXT_DEPENDENT_SHAPE_REPRESENTATION(#17,#45);
#12=NEXT_ASSEMBLY_USAGE_OCCURRENCE('NAUO_ID9','NAUO_NAME9',$,#48,#46,$);
#13=NEXT_ASSEMBLY_USAGE_OCCURRENCE('NAUO_ID19','NAUO_NAME19',$,#48,#47,
$);
#14=ITEM_DEFINED_TRANSFORMATION('ITD_NAME0',$,#303,#302);
#15=ITEM_DEFINED_TRANSFORMATION('ITD_NAME10',$,#305,#304);
#16=(
REPRESENTATION_RELATIONSHIP('4228 9.728_PART2',$,#63,#65)
REPRESENTATION_RELATIONSHIP_WITH_TRANSFORMATION(#14)
SHAPE_REPRESENTATION_RELATIONSHIP()
);
#17=(
REPRESENTATION_RELATIONSHIP('4228 9.728_PART1',$,#64,#65)
REPRESENTATION_RELATIONSHIP_WITH_TRANSFORMATION(#15)
SHAPE_REPRESENTATION_RELATIONSHIP()
);
#18=STYLED_ITEM('NAME_0',(#33),#449);
#19=STYLED_ITEM('NAME_0',(#34),#450);
#20=MECHANICAL_DESIGN_GEOMETRIC_PRESENTATION_REPRESENTATION('NAME_0',(#18,
#19),#80);
#21=COLOUR_RGB('',0.8,0.8,0.8);
#22=COLOUR_RGB('',0.498039215686275,0.498039215686275,0.498039215686275);
#23=FILL_AREA_STYLE_COLOUR('NAME_0',#21);
#24=FILL_AREA_STYLE_COLOUR('NAME_0',#22);
#25=FILL_AREA_STYLE('NAME_0',(#23));
#26=FILL_AREA_STYLE('NAME_0',(#24));
#27=SURFACE_STYLE_FILL_AREA(#25);
#28=SURFACE_STYLE_FILL_AREA(#26);
#29=SURFACE_SIDE_STYLE('NAME_0',(#27));
#30=SURFACE_SIDE_STYLE('NAME_0',(#28));
#31=SURFACE_STYLE_USAGE(.POSITIVE.,#29);
#32=SURFACE_STYLE_USAGE(.POSITIVE.,#30);
#33=PRESENTATION_STYLE_ASSIGNMENT((#31));
#34=PRESENTATION_STYLE_ASSIGNMENT((#32));
#35=PRODUCT_DEFINITION_CONTEXT('part definition',#56,'design');
#36=PRODUCT_DEFINITION_CONTEXT('part definition',#56,'design');
#37=PRODUCT_DEFINITION_CONTEXT('part definition',#56,'design');
#38=SHAPE_DEFINITION_REPRESENTATION(#41,#63);
#39=SHAPE_DEFINITION_REPRESENTATION(#42,#64);
#40=SHAPE_DEFINITION_REPRESENTATION(#43,#65);
#41=PRODUCT_DEFINITION_SHAPE('PRODUCT_VERSION_ID',
'PRODUCT_VERSION_DESCR',#46);
#42=PRODUCT_DEFINITION_SHAPE('PRODUCT_VERSION_ID',
'PRODUCT_VERSION_DESCR',#47);
#43=PRODUCT_DEFINITION_SHAPE('PRODUCT_VERSION_ID',
'PRODUCT_VERSION_DESCR',#48);
#44=PRODUCT_DEFINITION_SHAPE('NAME_10',$,#12);
#45=PRODUCT_DEFINITION_SHAPE('NAME_20',$,#13);
#46=PRODUCT_DEFINITION('4228 9.728_PART2','PRODUCT_VERSION_DESCR',#49,#35);
#47=PRODUCT_DEFINITION('4228 9.728_PART1','PRODUCT_VERSION_DESCR',#50,#36);
#48=PRODUCT_DEFINITION('PRODUCT_VERSION_ID','PRODUCT_VERSION_DESCR',#51,
#37);
#49=PRODUCT_DEFINITION_FORMATION_WITH_SPECIFIED_SOURCE(
'PRODUCT_VERSION_ID','PRODUCT_VERSION_DESCR',#60,.MADE.);
#50=PRODUCT_DEFINITION_FORMATION_WITH_SPECIFIED_SOURCE(
'PRODUCT_VERSION_ID','PRODUCT_VERSION_DESCR',#61,.MADE.);
#51=PRODUCT_DEFINITION_FORMATION_WITH_SPECIFIED_SOURCE(
'PRODUCT_VERSION_ID','PRODUCT_VERSION_DESCR',#62,.MADE.);
#52=PRODUCT_RELATED_PRODUCT_CATEGORY('part','part',(#60));
#53=PRODUCT_RELATED_PRODUCT_CATEGORY('part','part',(#61));
#54=PRODUCT_RELATED_PRODUCT_CATEGORY('part','part',(#62));
#55=APPLICATION_PROTOCOL_DEFINITION('Draft International Standard',
'automotive_design',1994,#56);
#56=APPLICATION_CONTEXT('automotive_Design');
#57=PRODUCT_CONTEXT('3D Mechanical Parts',#56,'mechanical');
#58=PRODUCT_CONTEXT('3D Mechanical Parts',#56,'mechanical');
#59=PRODUCT_CONTEXT('3D Mechanical Parts',#56,'mechanical');
#60=PRODUCT('4228 9.728_PART2','4228 9.728_PART2','',(#57));
#61=PRODUCT('4228 9.728_PART1','4228 9.728_PART1','',(#58));
#62=PRODUCT('4228 9.728',
'6155 G1_16-G1_8 Micro-thread milling cutter, 9042280097280','',(#59));
#63=SHAPE_REPRESENTATION('4228 9.728_PART2',(#303),#80);
#64=SHAPE_REPRESENTATION('4228 9.728_PART1',(#305),#81);
#65=SHAPE_REPRESENTATION('NAME_0',(#302,#304),#82);
#66=SHAPE_REPRESENTATION_RELATIONSHIP('NAME_0',$,#63,#451);
#67=SHAPE_REPRESENTATION_RELATIONSHIP('NAME_0',$,#64,#452);
#68=(
LENGTH_UNIT()
NAMED_UNIT(*)
SI_UNIT(.MILLI.,.METRE.)
);
#69=(
LENGTH_UNIT()
NAMED_UNIT(*)
SI_UNIT(.MILLI.,.METRE.)
);
#70=(
LENGTH_UNIT()
NAMED_UNIT(*)
SI_UNIT(.MILLI.,.METRE.)
);
#71=(
NAMED_UNIT(*)
PLANE_ANGLE_UNIT()
SI_UNIT($,.RADIAN.)
);
#72=(
NAMED_UNIT(*)
PLANE_ANGLE_UNIT()
SI_UNIT($,.RADIAN.)
);
#73=(
NAMED_UNIT(*)
PLANE_ANGLE_UNIT()
SI_UNIT($,.RADIAN.)
);
#74=(
NAMED_UNIT(*)
SI_UNIT($,.STERADIAN.)
SOLID_ANGLE_UNIT()
);
#75=(
NAMED_UNIT(*)
SI_UNIT($,.STERADIAN.)
SOLID_ANGLE_UNIT()
);
#76=(
NAMED_UNIT(*)
SI_UNIT($,.STERADIAN.)
SOLID_ANGLE_UNIT()
);
#77=UNCERTAINTY_MEASURE_WITH_UNIT(LENGTH_MEASURE(1.E-6),#68,
'DISTANCE_ACCURACY_VALUE',
'Maximum model space distance between geometric entities at asserted c
onnectivities');
#78=UNCERTAINTY_MEASURE_WITH_UNIT(LENGTH_MEASURE(1.E-6),#69,
'DISTANCE_ACCURACY_VALUE',
'Maximum model space distance between geometric entities at asserted c
onnectivities');
#79=UNCERTAINTY_MEASURE_WITH_UNIT(LENGTH_MEASURE(1.E-6),#70,
'DISTANCE_ACCURACY_VALUE',
'Maximum model space distance between geometric entities at asserted c
onnectivities');
#80=(
GEOMETRIC_REPRESENTATION_CONTEXT(3)
GLOBAL_UNCERTAINTY_ASSIGNED_CONTEXT((#77))
GLOBAL_UNIT_ASSIGNED_CONTEXT((#74,#71,#68))
REPRESENTATION_CONTEXT('ID1','3D')
);
#81=(
GEOMETRIC_REPRESENTATION_CONTEXT(3)
GLOBAL_UNCERTAINTY_ASSIGNED_CONTEXT((#78))
GLOBAL_UNIT_ASSIGNED_CONTEXT((#75,#72,#69))
REPRESENTATION_CONTEXT('ID1','3D')
);
#82=(
GEOMETRIC_REPRESENTATION_CONTEXT(3)
GLOBAL_UNCERTAINTY_ASSIGNED_CONTEXT((#79))
GLOBAL_UNIT_ASSIGNED_CONTEXT((#76,#73,#70))
REPRESENTATION_CONTEXT('ID1','3D')
);
#83=PLANE('',#281);
#84=PLANE('',#282);
#85=PLANE('',#291);
#86=PLANE('',#295);
#87=CONICAL_SURFACE('',#275,2.5,1.082104135);
#88=CONICAL_SURFACE('',#279,3.09,0.7853981625);
#89=CONICAL_SURFACE('',#292,3.001,0.7853981625);
#90=CONICAL_SURFACE('',#296,4.,0.7853981625);
#91=CONICAL_SURFACE('',#299,4.,0.523598775);
#92=CIRCLE('',#273,2.5);
#93=CIRCLE('',#274,2.5);
#94=CIRCLE('',#276,3.1);
#95=CIRCLE('',#278,3.1);
#96=CIRCLE('',#280,3.09);
#97=CIRCLE('',#284,3.001);
#98=CIRCLE('',#285,3.001);
#99=CIRCLE('',#286,3.001);
#100=CIRCLE('',#287,3.001);
#101=CIRCLE('',#289,2.5);
#102=CIRCLE('',#290,2.5);
#103=CIRCLE('',#293,3.0000000000018);
#104=CIRCLE('',#294,3.0000000000018);
#105=CIRCLE('',#297,4.);
#106=CIRCLE('',#298,4.);
#107=CIRCLE('',#300,4.);
#108=VERTEX_POINT('',#382);
#109=VERTEX_POINT('',#383);
#110=VERTEX_POINT('',#386);
#111=VERTEX_POINT('',#389);
#112=VERTEX_POINT('',#391);
#113=VERTEX_POINT('',#394);
#114=VERTEX_POINT('',#398);
#115=VERTEX_POINT('',#404);
#116=VERTEX_POINT('',#405);
#117=VERTEX_POINT('',#407);
#118=VERTEX_POINT('',#410);
#119=VERTEX_POINT('',#414);
#120=VERTEX_POINT('',#415);
#121=VERTEX_POINT('',#421);
#122=VERTEX_POINT('',#423);
#123=VERTEX_POINT('',#428);
#124=VERTEX_POINT('',#430);
#125=VERTEX_POINT('',#434);
#126=VECTOR('',#308,1.);
#127=VECTOR('',#315,1.);
#128=VECTOR('',#320,1.);
#129=VECTOR('',#325,1.);
#130=VECTOR('',#332,1.);
#131=VECTOR('',#343,1.);
#132=VECTOR('',#351,1.);
#133=VECTOR('',#359,1.);
#134=VECTOR('',#366,1.);
#135=VECTOR('',#371,1.);
#136=LINE('',#381,#126);
#137=LINE('',#388,#127);
#138=LINE('',#393,#128);
#139=LINE('',#397,#129);
#140=LINE('',#403,#130);
#141=LINE('',#413,#131);
#142=LINE('',#420,#132);
#143=LINE('',#427,#133);
#144=LINE('',#433,#134);
#145=LINE('',#437,#135);
#146=EDGE_CURVE('',#108,#109,#136,.T.);
#147=EDGE_CURVE('',#109,#109,#92,.T.);
#148=EDGE_CURVE('',#108,#110,#93,.T.);
#149=EDGE_CURVE('',#110,#108,#93,.T.);
#150=EDGE_CURVE('',#111,#110,#137,.T.);
#151=EDGE_CURVE('',#111,#112,#94,.T.);
#152=EDGE_CURVE('',#112,#111,#94,.T.);
#153=EDGE_CURVE('',#113,#112,#138,.T.);
#154=EDGE_CURVE('',#113,#113,#95,.T.);
#155=EDGE_CURVE('',#113,#114,#139,.T.);
#156=EDGE_CURVE('',#114,#114,#96,.T.);
#157=EDGE_CURVE('',#115,#116,#140,.T.);
#158=EDGE_CURVE('',#117,#116,#97,.T.);
#159=EDGE_CURVE('',#116,#117,#98,.T.);
#160=EDGE_CURVE('',#115,#118,#99,.T.);
#161=EDGE_CURVE('',#118,#115,#100,.T.);
#162=EDGE_CURVE('',#119,#120,#141,.T.);
#163=EDGE_CURVE('',#120,#120,#101,.F.);
#164=EDGE_CURVE('',#119,#119,#102,.T.);
#165=EDGE_CURVE('',#117,#121,#142,.T.);
#166=EDGE_CURVE('',#122,#121,#103,.F.);
#167=EDGE_CURVE('',#121,#122,#104,.F.);
#168=EDGE_CURVE('',#123,#118,#143,.T.);
#169=EDGE_CURVE('',#123,#124,#105,.F.);
#170=EDGE_CURVE('',#124,#123,#106,.F.);
#171=EDGE_CURVE('',#125,#120,#144,.T.);
#172=EDGE_CURVE('',#125,#125,#107,.T.);
#173=EDGE_CURVE('',#125,#124,#145,.T.);
#174=ORIENTED_EDGE('',*,*,#146,.T.);
#175=ORIENTED_EDGE('',*,*,#147,.T.);
#176=ORIENTED_EDGE('',*,*,#146,.F.);
#177=ORIENTED_EDGE('',*,*,#148,.T.);
#178=ORIENTED_EDGE('',*,*,#149,.T.);
#179=ORIENTED_EDGE('',*,*,#150,.T.);
#180=ORIENTED_EDGE('',*,*,#148,.F.);
#181=ORIENTED_EDGE('',*,*,#149,.F.);
#182=ORIENTED_EDGE('',*,*,#150,.F.);
#183=ORIENTED_EDGE('',*,*,#151,.T.);
#184=ORIENTED_EDGE('',*,*,#152,.T.);
#185=ORIENTED_EDGE('',*,*,#153,.T.);
#186=ORIENTED_EDGE('',*,*,#151,.F.);
#187=ORIENTED_EDGE('',*,*,#152,.F.);
#188=ORIENTED_EDGE('',*,*,#153,.F.);
#189=ORIENTED_EDGE('',*,*,#154,.T.);
#190=ORIENTED_EDGE('',*,*,#155,.T.);
#191=ORIENTED_EDGE('',*,*,#156,.T.);
#192=ORIENTED_EDGE('',*,*,#155,.F.);
#193=ORIENTED_EDGE('',*,*,#154,.F.);
#194=ORIENTED_EDGE('',*,*,#156,.F.);
#195=ORIENTED_EDGE('',*,*,#147,.F.);
#196=ORIENTED_EDGE('',*,*,#157,.T.);
#197=ORIENTED_EDGE('',*,*,#158,.F.);
#198=ORIENTED_EDGE('',*,*,#159,.F.);
#199=ORIENTED_EDGE('',*,*,#157,.F.);
#200=ORIENTED_EDGE('',*,*,#160,.T.);
#201=ORIENTED_EDGE('',*,*,#161,.T.);
#202=ORIENTED_EDGE('',*,*,#162,.T.);
#203=ORIENTED_EDGE('',*,*,#163,.F.);
#204=ORIENTED_EDGE('',*,*,#162,.F.);
#205=ORIENTED_EDGE('',*,*,#164,.F.);
#206=ORIENTED_EDGE('',*,*,#164,.T.);
#207=ORIENTED_EDGE('',*,*,#165,.T.);
#208=ORIENTED_EDGE('',*,*,#166,.F.);
#209=ORIENTED_EDGE('',*,*,#167,.F.);
#210=ORIENTED_EDGE('',*,*,#165,.F.);
#211=ORIENTED_EDGE('',*,*,#158,.T.);
#212=ORIENTED_EDGE('',*,*,#159,.T.);
#213=ORIENTED_EDGE('',*,*,#166,.T.);
#214=ORIENTED_EDGE('',*,*,#167,.T.);
#215=ORIENTED_EDGE('',*,*,#168,.T.);
#216=ORIENTED_EDGE('',*,*,#160,.F.);
#217=ORIENTED_EDGE('',*,*,#161,.F.);
#218=ORIENTED_EDGE('',*,*,#168,.F.);
#219=ORIENTED_EDGE('',*,*,#169,.T.);
#220=ORIENTED_EDGE('',*,*,#170,.T.);
#221=ORIENTED_EDGE('',*,*,#171,.T.);
#222=ORIENTED_EDGE('',*,*,#163,.T.);
#223=ORIENTED_EDGE('',*,*,#171,.F.);
#224=ORIENTED_EDGE('',*,*,#172,.F.);
#225=ORIENTED_EDGE('',*,*,#173,.T.);
#226=ORIENTED_EDGE('',*,*,#169,.F.);
#227=ORIENTED_EDGE('',*,*,#170,.F.);
#228=ORIENTED_EDGE('',*,*,#173,.F.);
#229=ORIENTED_EDGE('',*,*,#172,.T.);
#230=EDGE_LOOP('',(#174,#175,#176,#177,#178));
#231=EDGE_LOOP('',(#179,#180,#181,#182,#183,#184));
#232=EDGE_LOOP('',(#185,#186,#187,#188,#189));
#233=EDGE_LOOP('',(#190,#191,#192,#193));
#234=EDGE_LOOP('',(#194));
#235=EDGE_LOOP('',(#195));
#236=EDGE_LOOP('',(#196,#197,#198,#199,#200,#201));
#237=EDGE_LOOP('',(#202,#203,#204,#205));
#238=EDGE_LOOP('',(#206));
#239=EDGE_LOOP('',(#207,#208,#209,#210,#211,#212));
#240=EDGE_LOOP('',(#213,#214));
#241=EDGE_LOOP('',(#215,#216,#217,#218,#219,#220));
#242=EDGE_LOOP('',(#221,#222,#223,#224));
#243=EDGE_LOOP('',(#225,#226,#227,#228,#229));
#244=FACE_BOUND('',#230,.T.);
#245=FACE_BOUND('',#231,.T.);
#246=FACE_BOUND('',#232,.T.);
#247=FACE_BOUND('',#233,.T.);
#248=FACE_BOUND('',#234,.T.);
#249=FACE_BOUND('',#235,.T.);
#250=FACE_BOUND('',#236,.T.);
#251=FACE_BOUND('',#237,.T.);
#252=FACE_BOUND('',#238,.T.);
#253=FACE_BOUND('',#239,.T.);
#254=FACE_BOUND('',#240,.T.);
#255=FACE_BOUND('',#241,.T.);
#256=FACE_BOUND('',#242,.T.);
#257=FACE_BOUND('',#243,.T.);
#258=ADVANCED_FACE('',(#244),#442,.T.);
#259=ADVANCED_FACE('',(#245),#87,.T.);
#260=ADVANCED_FACE('',(#246),#443,.T.);
#261=ADVANCED_FACE('',(#247),#88,.T.);
#262=ADVANCED_FACE('',(#248),#83,.T.);
#263=ADVANCED_FACE('',(#249),#84,.T.);
#264=ADVANCED_FACE('',(#250),#444,.T.);
#265=ADVANCED_FACE('',(#251),#445,.T.);
#266=ADVANCED_FACE('',(#252),#85,.F.);
#267=ADVANCED_FACE('',(#253),#89,.T.);
#268=ADVANCED_FACE('',(#254),#86,.F.);
#269=ADVANCED_FACE('',(#255),#90,.T.);
#270=ADVANCED_FACE('',(#256),#91,.T.);
#271=ADVANCED_FACE('',(#257),#446,.T.);
#272=AXIS2_PLACEMENT_3D('',#380,#306,#307);
#273=AXIS2_PLACEMENT_3D('',#384,#309,#310);
#274=AXIS2_PLACEMENT_3D('',#385,#311,#312);
#275=AXIS2_PLACEMENT_3D('',#387,#313,#314);
#276=AXIS2_PLACEMENT_3D('',#390,#316,#317);
#277=AXIS2_PLACEMENT_3D('',#392,#318,#319);
#278=AXIS2_PLACEMENT_3D('',#395,#321,#322);
#279=AXIS2_PLACEMENT_3D('',#396,#323,#324);
#280=AXIS2_PLACEMENT_3D('',#399,#326,#327);
#281=AXIS2_PLACEMENT_3D('',#400,#328,$);
#282=AXIS2_PLACEMENT_3D('',#401,#329,$);
#283=AXIS2_PLACEMENT_3D('',#402,#330,#331);
#284=AXIS2_PLACEMENT_3D('',#406,#333,#334);
#285=AXIS2_PLACEMENT_3D('',#408,#335,#336);
#286=AXIS2_PLACEMENT_3D('',#409,#337,#338);
#287=AXIS2_PLACEMENT_3D('',#411,#339,#340);
#288=AXIS2_PLACEMENT_3D('',#412,#341,#342);
#289=AXIS2_PLACEMENT_3D('',#416,#344,#345);
#290=AXIS2_PLACEMENT_3D('',#417,#346,#347);
#291=AXIS2_PLACEMENT_3D('',#418,#348,$);
#292=AXIS2_PLACEMENT_3D('',#419,#349,#350);
#293=AXIS2_PLACEMENT_3D('',#422,#352,#353);
#294=AXIS2_PLACEMENT_3D('',#424,#354,#355);
#295=AXIS2_PLACEMENT_3D('',#425,#356,$);
#296=AXIS2_PLACEMENT_3D('',#426,#357,#358);
#297=AXIS2_PLACEMENT_3D('',#429,#360,#361);
#298=AXIS2_PLACEMENT_3D('',#431,#362,#363);
#299=AXIS2_PLACEMENT_3D('',#432,#364,#365);
#300=AXIS2_PLACEMENT_3D('',#435,#367,#368);
#301=AXIS2_PLACEMENT_3D('',#436,#369,#370);
#302=AXIS2_PLACEMENT_3D('AXIS_PLACEMENT_1',#438,#372,#373);
#303=AXIS2_PLACEMENT_3D('AXIS_PLACEMENT_5',#439,#374,#375);
#304=AXIS2_PLACEMENT_3D('AXIS_PLACEMENT_11',#440,#376,#377);
#305=AXIS2_PLACEMENT_3D('AXIS_PLACEMENT_15',#441,#378,#379);
#306=DIRECTION('',(0.,0.,-1.));
#307=DIRECTION('',(2.5,0.,0.));
#308=DIRECTION('',(0.,0.,1.));
#309=DIRECTION('',(0.,0.,-1.));
#310=DIRECTION('',(2.5,0.,0.));
#311=DIRECTION('',(0.,0.,1.));
#312=DIRECTION('',(2.5,0.,0.));
#313=DIRECTION('',(-2.94766201796379E-17,0.,-1.));
#314=DIRECTION('',(-2.5,0.,7.36915504490948E-17));
#315=DIRECTION('',(0.882947592278433,0.,0.469471563877642));
#316=DIRECTION('',(0.,0.,1.));
#317=DIRECTION('',(3.1,0.,0.));
#318=DIRECTION('',(0.,0.,-1.));
#319=DIRECTION('',(3.1,0.,0.));
#320=DIRECTION('',(0.,0.,1.));
#321=DIRECTION('',(0.,0.,1.));
#322=DIRECTION('',(3.1,0.,0.));
#323=DIRECTION('',(5.53401501672004E-17,0.,1.));
#324=DIRECTION('',(3.09,0.,-1.71001064016649E-16));
#325=DIRECTION('',(-0.707106780551956,0.,-0.70710678182114));
#326=DIRECTION('',(0.,0.,1.));
#327=DIRECTION('',(3.09,0.,0.));
#328=DIRECTION('',(0.,0.,-1.));
#329=DIRECTION('',(0.,0.,1.));
#330=DIRECTION('',(0.,0.,-1.));
#331=DIRECTION('',(3.001,0.,0.));
#332=DIRECTION('',(0.,0.,1.));
#333=DIRECTION('',(0.,0.,1.));
#334=DIRECTION('',(3.001,0.,0.));
#335=DIRECTION('',(0.,0.,1.));
#336=DIRECTION('',(3.001,0.,0.));
#337=DIRECTION('',(0.,0.,1.));
#338=DIRECTION('',(3.001,0.,0.));
#339=DIRECTION('',(0.,0.,1.));
#340=DIRECTION('',(3.001,0.,0.));
#341=DIRECTION('',(0.,0.,-1.));
#342=DIRECTION('',(2.5,0.,0.));
#343=DIRECTION('',(0.,0.,1.));
#344=DIRECTION('',(0.,0.,-1.));
#345=DIRECTION('',(2.5,0.,0.));
#346=DIRECTION('',(0.,0.,-1.));
#347=DIRECTION('',(2.5,0.,0.));
#348=DIRECTION('',(0.,0.,1.));
#349=DIRECTION('',(-8.43580214700147E-17,0.,-1.));
#350=DIRECTION('',(-3.001,0.,2.53158422431514E-16));
#351=DIRECTION('',(0.707106780551956,0.,0.707106781821139));
#352=DIRECTION('',(0.,0.,-1.));
#353=DIRECTION('',(-3.0000000000018,0.,2.53074064410196E-16));
#354=DIRECTION('',(0.,0.,-1.));
#355=DIRECTION('',(-3.0000000000018,0.,2.53074064410196E-16));
#356=DIRECTION('',(0.,0.,-1.));
#357=DIRECTION('',(1.0237287445381E-16,0.,-1.));
#358=DIRECTION('',(-4.,0.,-4.0949149781524E-16));
#359=DIRECTION('',(0.707106780551956,0.,0.70710678182114));
#360=DIRECTION('',(0.,0.,-1.));
#361=DIRECTION('',(4.,0.,0.));
#362=DIRECTION('',(0.,0.,-1.));
#363=DIRECTION('',(4.,0.,0.));
#364=DIRECTION('',(7.16149378953215E-17,0.,1.));
#365=DIRECTION('',(4.,0.,-2.86459751581286E-16));
#366=DIRECTION('',(-0.499999999481858,0.,-0.866025404083588));
#367=DIRECTION('',(0.,0.,1.));
#368=DIRECTION('',(4.,0.,0.));
#369=DIRECTION('',(0.,0.,-1.));
#370=DIRECTION('',(4.,0.,0.));
#371=DIRECTION('',(0.,0.,1.));
#372=DIRECTION('DIRECTION2',(0.,0.,1.));
#373=DIRECTION('DIRECTION3',(1.,0.,0.));
#374=DIRECTION('DIRECTION6',(0.,0.,1.));
#375=DIRECTION('DIRECTION7',(1.,0.,0.));
#376=DIRECTION('DIRECTION12',(0.,0.,1.));
#377=DIRECTION('DIRECTION13',(1.,0.,0.));
#378=DIRECTION('DIRECTION16',(0.,0.,1.));
#379=DIRECTION('DIRECTION17',(1.,0.,0.));
#380=CARTESIAN_POINT('',(0.,0.,-2.7896521898052E-15));
#381=CARTESIAN_POINT('',(2.5,0.,-122.249948682026));
#382=CARTESIAN_POINT('',(2.50000000000207,-1.53080849893165E-16,-61.2689743410092));
#383=CARTESIAN_POINT('',(2.5,3.06161699786838E-16,-60.9809743410081));
#384=CARTESIAN_POINT('',(0.,0.,-60.9809743410131));
#385=CARTESIAN_POINT('',(-4.81365916082361E-32,0.,-61.2689743410131));
#386=CARTESIAN_POINT('',(-2.50000000000207,0.,-61.2689743410092));
#387=CARTESIAN_POINT('',(0.,0.,-61.2689743410031));
#388=CARTESIAN_POINT('',(-3.03999999842684,0.,-61.5560974341203));
#389=CARTESIAN_POINT('',(-3.09999999911453,0.,-61.58800000001));
#390=CARTESIAN_POINT('',(7.39557098644699E-32,0.,-61.58800000001));
#391=CARTESIAN_POINT('',(3.09999999911453,2.78178265710609E-9,-61.58800000001));
#392=CARTESIAN_POINT('',(0.,0.,-2.7896521898052E-15));
#393=CARTESIAN_POINT('',(3.1,0.,-125.57800000002));
#394=CARTESIAN_POINT('',(3.09999999998603,-3.79640507735679E-16,-63.99000000001));
#395=CARTESIAN_POINT('',(1.94807813874769E-31,0.,-63.99000000001));
#396=CARTESIAN_POINT('',(0.,0.,-64.));
#397=CARTESIAN_POINT('',(3.09899999996384,0.,-63.99100000002));
#398=CARTESIAN_POINT('',(3.0899999999975,-3.78415860936532E-16,-64.000000000005));
#399=CARTESIAN_POINT('',(1.33048368893408E-31,0.,-64.00000000001));
#400=CARTESIAN_POINT('',(0.,3.09,-64.));
#401=CARTESIAN_POINT('',(0.,0.,-60.9809743410031));
#402=CARTESIAN_POINT('',(0.,0.,-2.7896521898052E-15));
#403=CARTESIAN_POINT('',(3.001,0.,-0.0111000000200011));
#404=CARTESIAN_POINT('',(3.001,-1.83758252129254E-16,-0.0100999982068878));
#405=CARTESIAN_POINT('',(3.001,-3.92731767693689E-12,-0.00100000000000234));
#406=CARTESIAN_POINT('',(0.,0.,-0.00100000000000234));
#407=CARTESIAN_POINT('',(-3.001000000005,3.9270696713733E-12,-0.00100000000750199));
#408=CARTESIAN_POINT('',(0.,0.,-0.00100000000000234));
#409=CARTESIAN_POINT('',(0.,0.,-0.0100999982068878));
#410=CARTESIAN_POINT('',(-3.00100000045078,0.,-0.0100999995592229));
#411=CARTESIAN_POINT('',(0.,0.,-0.0100999982068878));
#412=CARTESIAN_POINT('',(0.,0.,-2.7896521898052E-15));
#413=CARTESIAN_POINT('',(2.5,0.,-105.578948682026));
#414=CARTESIAN_POINT('',(2.5,3.06161699786838E-16,-60.9809743410081));
#415=CARTESIAN_POINT('',(2.50000000077505,-3.06161699786838E-16,-44.5979743414606));
#416=CARTESIAN_POINT('',(0.,0.,-44.5979743445929));
#417=CARTESIAN_POINT('',(0.,0.,-60.9809743410031));
#418=CARTESIAN_POINT('',(0.,0.,-60.9809743410031));
#419=CARTESIAN_POINT('',(0.,0.,-0.00100000000000234));
#420=CARTESIAN_POINT('',(-2.99990000002198,0.,9.9999979997065E-5));
#421=CARTESIAN_POINT('',(-3.0000000000018,9.26463071491861E-12,-2.97331603782425E-15));
#422=CARTESIAN_POINT('',(8.43580214699613E-20,0.,-2.97331603782425E-15));
#423=CARTESIAN_POINT('',(3.00000000000295,-4.63211085093524E-12,-5.00306512798282E-12));
#424=CARTESIAN_POINT('',(8.43580214699613E-20,0.,-2.97331603782425E-15));
#425=CARTESIAN_POINT('',(0.,3.,-2.97331603782425E-15));
#426=CARTESIAN_POINT('',(0.,0.,-1.00909999999999));
#427=CARTESIAN_POINT('',(-2.90110000199243,0.,0.0897999999799972));
#428=CARTESIAN_POINT('',(-4.000000000005,0.,-1.00910000000749));
#429=CARTESIAN_POINT('',(0.,0.,-1.00909999999999));
#430=CARTESIAN_POINT('',(4.0000000000025,-2.44929359829164E-16,-1.00910000000749));
#431=CARTESIAN_POINT('',(0.,0.,-1.00909999999999));
#432=CARTESIAN_POINT('',(0.,0.,-41.9998981296498));
#433=CARTESIAN_POINT('',(2.35000000226829,0.,-44.8577819621584));
#434=CARTESIAN_POINT('',(3.99999999999711,-4.89858719658941E-16,-41.9998981296598));
#435=CARTESIAN_POINT('',(0.,0.,-41.9998981296498));
#436=CARTESIAN_POINT('',(0.,0.,-2.7896521898052E-15));
#437=CARTESIAN_POINT('',(4.,0.,-43.0089981296698));
#438=CARTESIAN_POINT('CARTESIAN_POINT4',(0.,0.,0.));
#439=CARTESIAN_POINT('CARTESIAN_POINT8',(0.,0.,0.));
#440=CARTESIAN_POINT('CARTESIAN_POINT14',(0.,0.,0.));
#441=CARTESIAN_POINT('CARTESIAN_POINT18',(0.,0.,0.));
#442=CYLINDRICAL_SURFACE('',#272,2.5);
#443=CYLINDRICAL_SURFACE('',#277,3.1);
#444=CYLINDRICAL_SURFACE('',#283,3.001);
#445=CYLINDRICAL_SURFACE('',#288,2.5);
#446=CYLINDRICAL_SURFACE('',#301,4.);
#447=CLOSED_SHELL('',(#258,#259,#260,#261,#262,#263));
#448=CLOSED_SHELL('',(#264,#265,#266,#267,#268,#269,#270,#271));
#449=MANIFOLD_SOLID_BREP('',#447);
#450=MANIFOLD_SOLID_BREP('',#448);
#451=ADVANCED_BREP_SHAPE_REPRESENTATION('4228 9.728_PART2',(#449),#80);
#452=ADVANCED_BREP_SHAPE_REPRESENTATION('4228 9.728_PART1',(#450),#81);
ENDSEC;
END-ISO-10303-21;
