ISO-10303-21;
HEADER;

/* File generated by Alibre Version V23 */

FILE_DESCRIPTION(('HOOPS Exchange Step'),'2;1');

FILE_NAME('C:\\Users\\User\\AppData\\Local\\Temp\\Alibre Design\\export-83613EF1-06CE-4EE9-8C13-1B8C9A85C499.stp',
'2022-11-29T10:52:11+01:00',
('User'),
('Alibre'),
'HOOPS Exchange 2021.0',
'Alibre',
'Unknown authorisation');

FILE_SCHEMA( ('AP242_MANAGED_MODEL_BASED_3D_ENGINEERING_MIM_LF {1 0 10303 442 1 1 4 }') );

ENDSEC;

DATA;
#3=(NAMED_UNIT(*)PLANE_ANGLE_UNIT()SI_UNIT($,.RADIAN.));
#4=PLANE_ANGLE_MEASURE_WITH_UNIT(PLANE_ANGLE_MEASURE(0.0174532925),#3);
#5=(CONVERSION_BASED_UNIT('DEGREE',#4)NAMED_UNIT(#6)PLANE_ANGLE_UNIT());
#6=DIMENSIONAL_EXPONENTS(0.,0.,0.,0.,0.,0.,0.);
#7=(NAMED_UNIT(*)SI_UNIT($,.STERADIAN.)SOLID_ANGLE_UNIT());
#8=(LENGTH_UNIT()NAMED_UNIT(*)SI_UNIT(.MILLI.,.METRE.));
#9=UNCERTAINTY_MEASURE_WITH_UNIT(LENGTH_MEASURE(1.000000E-03),#8,'DISTANCE_ACCURACY_VALUE','Maximum Tolerance applied to model');
#10=(GEOMETRIC_REPRESENTATION_CONTEXT(3)GLOBAL_UNCERTAINTY_ASSIGNED_CONTEXT((#9))GLOBAL_UNIT_ASSIGNED_CONTEXT((#8,#5,#7))REPRESENTATION_CONTEXT('','6155 G1_16-G1_8 Micro-thread milling cutter, 9042280097280'));
#12=CARTESIAN_POINT('',(0.,0.,0.));
#13=DIRECTION('',(0.,0.,1.));
#14=DIRECTION('',(1.,0.,0.));
#15=AXIS2_PLACEMENT_3D('',#12,#13,#14);
#26=(NAMED_UNIT(*)PLANE_ANGLE_UNIT()SI_UNIT($,.RADIAN.));
#27=PLANE_ANGLE_MEASURE_WITH_UNIT(PLANE_ANGLE_MEASURE(0.0174532925),#26);
#28=(CONVERSION_BASED_UNIT('DEGREE',#27)NAMED_UNIT(#29)PLANE_ANGLE_UNIT());
#29=DIMENSIONAL_EXPONENTS(0.,0.,0.,0.,0.,0.,0.);
#30=(NAMED_UNIT(*)SI_UNIT($,.STERADIAN.)SOLID_ANGLE_UNIT());
#31=(LENGTH_UNIT()NAMED_UNIT(*)SI_UNIT(.MILLI.,.METRE.));
#32=UNCERTAINTY_MEASURE_WITH_UNIT(LENGTH_MEASURE(1.000000E-06),#31,'DISTANCE_ACCURACY_VALUE','Maximum Tolerance applied to model');
#33=(GEOMETRIC_REPRESENTATION_CONTEXT(3)GLOBAL_UNCERTAINTY_ASSIGNED_CONTEXT((#32))GLOBAL_UNIT_ASSIGNED_CONTEXT((#31,#28,#30))REPRESENTATION_CONTEXT('','4228 9.728_PART2'));
#35=CARTESIAN_POINT('',(0.,0.,0.));
#36=DIRECTION('',(0.,0.,1.));
#37=DIRECTION('',(1.,0.,0.));
#38=AXIS2_PLACEMENT_3D('',#35,#36,#37);
#49=CARTESIAN_POINT('',(0.,0.,0.));
#50=DIRECTION('',(0.,0.,1.));
#51=DIRECTION('',(1.,0.,-0.));
#52=AXIS2_PLACEMENT_3D('',#49,#50,#51);
#53=ITEM_DEFINED_TRANSFORMATION('','',#52,#38);
#54=(REPRESENTATION_RELATIONSHIP('','',#39,#16)REPRESENTATION_RELATIONSHIP_WITH_TRANSFORMATION(#53)SHAPE_REPRESENTATION_RELATIONSHIP());
#55=NEXT_ASSEMBLY_USAGE_OCCURRENCE('4228 9.728_PART2_1','4228 9.728_PART2','4228 9.728_PART2',#25,#48,$);
#56=PRODUCT_DEFINITION_SHAPE('','',#55);
#57=CONTEXT_DEPENDENT_SHAPE_REPRESENTATION(#54,#56);
#59=CARTESIAN_POINT('',(0.,0.,-0.));
#60=DIRECTION('',(0.,0.,-1.));
#61=DIRECTION('',(1.,0.,0.));
#62=AXIS2_PLACEMENT_3D('',#59,#60,#61);
#63=CYLINDRICAL_SURFACE('',#62,2.5);
#64=CARTESIAN_POINT('',(-2.5,0.,-61.268974341));
#65=VERTEX_POINT('',#64);
#66=CARTESIAN_POINT('',(-2.5,-0.,-60.980974341));
#67=VERTEX_POINT('',#66);
#68=CARTESIAN_POINT('',(-2.5,-0.,-61.268974341));
#69=DIRECTION('',(-0.,-0.,1.));
#70=VECTOR('',#69,0.288);
#71=LINE('',#68,#70);
#72=EDGE_CURVE('',#65,#67,#71,.T.);
#73=ORIENTED_EDGE('',*,*,#72,.T.);
#74=CARTESIAN_POINT('',(2.5,0.,-60.980974341));
#75=VERTEX_POINT('',#74);
#76=CARTESIAN_POINT('',(0.,0.,-60.980974341));
#77=DIRECTION('',(0.,0.,-1.));
#78=DIRECTION('',(1.,0.,0.));
#79=AXIS2_PLACEMENT_3D('',#76,#77,#78);
#80=CIRCLE('',#79,2.5);
#81=EDGE_CURVE('',#67,#75,#80,.T.);
#82=ORIENTED_EDGE('',*,*,#81,.T.);
#83=CARTESIAN_POINT('',(2.5,-0.,-61.268974341));
#84=VERTEX_POINT('',#83);
#85=CARTESIAN_POINT('',(2.5,0.,-61.268974341));
#86=DIRECTION('',(0.,-0.,1.));
#87=VECTOR('',#86,0.288);
#88=LINE('',#85,#87);
#89=EDGE_CURVE('',#84,#75,#88,.T.);
#90=ORIENTED_EDGE('',*,*,#89,.F.);
#91=CARTESIAN_POINT('',(-0.,0.,-61.268974341));
#92=DIRECTION('',(0.,0.,1.));
#93=DIRECTION('',(1.,0.,-0.));
#94=AXIS2_PLACEMENT_3D('',#91,#92,#93);
#95=CIRCLE('',#94,2.5);
#96=EDGE_CURVE('',#84,#65,#95,.T.);
#97=ORIENTED_EDGE('',*,*,#96,.T.);
#98=EDGE_LOOP('',(#73,#82,#90,#97));
#99=FACE_BOUND('',#98,.T.);
#100=ADVANCED_FACE('',(#99),#63,.T.);
#101=CARTESIAN_POINT('',(0.,0.,-61.268974341));
#102=DIRECTION('',(-0.,0.,-1.));
#103=DIRECTION('',(-1.,0.,0.));
#104=AXIS2_PLACEMENT_3D('',#101,#102,#103);
#105=CONICAL_SURFACE('',#104,2.5,61.999999929);
#106=CARTESIAN_POINT('',(3.099999999,0.000000003,-61.588));
#107=VERTEX_POINT('',#106);
#108=CARTESIAN_POINT('',(3.099999999,0.,-61.588));
#109=DIRECTION('',(-0.882947592,-0.,0.469471564));
#110=VECTOR('',#109,0.67954203);
#111=LINE('',#108,#110);
#112=EDGE_CURVE('',#107,#84,#111,.T.);
#113=ORIENTED_EDGE('',*,*,#112,.T.);
#114=CARTESIAN_POINT('',(-0.,0.,-61.268974341));
#115=DIRECTION('',(0.,0.,1.));
#116=DIRECTION('',(1.,0.,-0.));
#117=AXIS2_PLACEMENT_3D('',#114,#115,#116);
#118=CIRCLE('',#117,2.5);
#119=EDGE_CURVE('',#65,#84,#118,.T.);
#120=ORIENTED_EDGE('',*,*,#119,.F.);
#121=CARTESIAN_POINT('',(-3.099999999,0.,-61.588));
#122=VERTEX_POINT('',#121);
#123=CARTESIAN_POINT('',(-3.099999999,0.,-61.588));
#124=DIRECTION('',(0.882947592,0.,0.469471564));
#125=VECTOR('',#124,0.67954203);
#126=LINE('',#123,#125);
#127=EDGE_CURVE('',#122,#65,#126,.T.);
#128=ORIENTED_EDGE('',*,*,#127,.F.);
#129=CARTESIAN_POINT('',(0.,0.,-61.588));
#130=DIRECTION('',(0.,0.,1.));
#131=DIRECTION('',(1.,0.,-0.));
#132=AXIS2_PLACEMENT_3D('',#129,#130,#131);
#133=CIRCLE('',#132,3.1);
#134=EDGE_CURVE('',#122,#107,#133,.T.);
#135=ORIENTED_EDGE('',*,*,#134,.T.);
#136=EDGE_LOOP('',(#113,#120,#128,#135));
#137=FACE_BOUND('',#136,.T.);
#138=ADVANCED_FACE('',(#137),#105,.T.);
#139=CARTESIAN_POINT('',(0.,0.,-0.));
#140=DIRECTION('',(0.,0.,-1.));
#141=DIRECTION('',(1.,0.,0.));
#142=AXIS2_PLACEMENT_3D('',#139,#140,#141);
#143=CYLINDRICAL_SURFACE('',#142,3.1);
#144=CARTESIAN_POINT('',(-3.1,-0.,-63.99));
#145=VERTEX_POINT('',#144);
#146=CARTESIAN_POINT('',(-3.1,-0.,-63.99));
#147=DIRECTION('',(-0.,-0.,1.));
#148=VECTOR('',#147,2.402);
#149=LINE('',#146,#148);
#150=EDGE_CURVE('',#145,#122,#149,.T.);
#151=ORIENTED_EDGE('',*,*,#150,.T.);
#152=CARTESIAN_POINT('',(0.,0.,-61.588));
#153=DIRECTION('',(0.,0.,1.));
#154=DIRECTION('',(1.,0.,-0.));
#155=AXIS2_PLACEMENT_3D('',#152,#153,#154);
#156=CIRCLE('',#155,3.1);
#157=EDGE_CURVE('',#107,#122,#156,.T.);
#158=ORIENTED_EDGE('',*,*,#157,.F.);
#159=CARTESIAN_POINT('',(3.1,-0.,-63.99));
#160=VERTEX_POINT('',#159);
#161=CARTESIAN_POINT('',(3.1,0.,-63.99));
#162=DIRECTION('',(0.,-0.,1.));
#163=VECTOR('',#162,2.402);
#164=LINE('',#161,#163);
#165=EDGE_CURVE('',#160,#107,#164,.T.);
#166=ORIENTED_EDGE('',*,*,#165,.F.);
#167=CARTESIAN_POINT('',(0.,0.,-63.99));
#168=DIRECTION('',(0.,0.,1.));
#169=DIRECTION('',(1.,0.,-0.));
#170=AXIS2_PLACEMENT_3D('',#167,#168,#169);
#171=CIRCLE('',#170,3.1);
#172=EDGE_CURVE('',#160,#145,#171,.T.);
#173=ORIENTED_EDGE('',*,*,#172,.T.);
#174=EDGE_LOOP('',(#151,#158,#166,#173));
#175=FACE_BOUND('',#174,.T.);
#176=ADVANCED_FACE('',(#175),#143,.T.);
#177=CARTESIAN_POINT('',(0.,0.,-64.));
#178=DIRECTION('',(0.,0.,1.));
#179=DIRECTION('',(1.,0.,-0.));
#180=AXIS2_PLACEMENT_3D('',#177,#178,#179);
#181=CONICAL_SURFACE('',#180,3.09,44.999999949);
#182=CARTESIAN_POINT('',(-3.09,0.,-64.));
#183=VERTEX_POINT('',#182);
#184=CARTESIAN_POINT('',(-3.1,0.,-63.99));
#185=DIRECTION('',(0.707106781,-0.,-0.707106782));
#186=VECTOR('',#185,0.014142136);
#187=LINE('',#184,#186);
#188=EDGE_CURVE('',#145,#183,#187,.T.);
#189=ORIENTED_EDGE('',*,*,#188,.T.);
#190=CARTESIAN_POINT('',(3.09,-0.,-64.));
#191=VERTEX_POINT('',#190);
#192=CARTESIAN_POINT('',(0.,0.,-64.));
#193=DIRECTION('',(0.,0.,1.));
#194=DIRECTION('',(1.,0.,-0.));
#195=AXIS2_PLACEMENT_3D('',#192,#193,#194);
#196=CIRCLE('',#195,3.09);
#197=EDGE_CURVE('',#183,#191,#196,.T.);
#198=ORIENTED_EDGE('',*,*,#197,.T.);
#199=CARTESIAN_POINT('',(3.1,0.,-63.99));
#200=DIRECTION('',(-0.707106781,0.,-0.707106782));
#201=VECTOR('',#200,0.014142136);
#202=LINE('',#199,#201);
#203=EDGE_CURVE('',#160,#191,#202,.T.);
#204=ORIENTED_EDGE('',*,*,#203,.F.);
#205=CARTESIAN_POINT('',(0.,0.,-63.99));
#206=DIRECTION('',(0.,0.,1.));
#207=DIRECTION('',(1.,0.,-0.));
#208=AXIS2_PLACEMENT_3D('',#205,#206,#207);
#209=CIRCLE('',#208,3.1);
#210=EDGE_CURVE('',#145,#160,#209,.T.);
#211=ORIENTED_EDGE('',*,*,#210,.F.);
#212=EDGE_LOOP('',(#189,#198,#204,#211));
#213=FACE_BOUND('',#212,.T.);
#214=ADVANCED_FACE('',(#213),#181,.T.);
#215=CARTESIAN_POINT('',(0.,3.09,-64.));
#216=DIRECTION('',(0.,0.,-1.));
#217=DIRECTION('',(0.,-1.,0.));
#218=AXIS2_PLACEMENT_3D('',#215,#216,#217);
#219=PLANE('',#218);
#220=ORIENTED_EDGE('',*,*,#197,.F.);
#221=CARTESIAN_POINT('',(0.,0.,-64.));
#222=DIRECTION('',(0.,0.,1.));
#223=DIRECTION('',(1.,0.,-0.));
#224=AXIS2_PLACEMENT_3D('',#221,#222,#223);
#225=CIRCLE('',#224,3.09);
#226=EDGE_CURVE('',#191,#183,#225,.T.);
#227=ORIENTED_EDGE('',*,*,#226,.F.);
#228=EDGE_LOOP('',(#220,#227));
#229=FACE_BOUND('',#228,.T.);
#230=ADVANCED_FACE('',(#229),#219,.T.);
#231=CARTESIAN_POINT('',(0.,0.,-60.980974341));
#232=DIRECTION('',(0.,0.,1.));
#233=DIRECTION('',(1.,0.,0.));
#234=AXIS2_PLACEMENT_3D('',#231,#232,#233);
#235=PLANE('',#234);
#236=ORIENTED_EDGE('',*,*,#81,.F.);
#237=CARTESIAN_POINT('',(0.,0.,-60.980974341));
#238=DIRECTION('',(0.,0.,-1.));
#239=DIRECTION('',(1.,0.,0.));
#240=AXIS2_PLACEMENT_3D('',#237,#238,#239);
#241=CIRCLE('',#240,2.5);
#242=EDGE_CURVE('',#75,#67,#241,.T.);
#243=ORIENTED_EDGE('',*,*,#242,.F.);
#244=EDGE_LOOP('',(#236,#243));
#245=FACE_BOUND('',#244,.T.);
#246=ADVANCED_FACE('',(#245),#235,.T.);
#247=CARTESIAN_POINT('',(0.,0.,-0.));
#248=DIRECTION('',(0.,0.,-1.));
#249=DIRECTION('',(1.,0.,0.));
#250=AXIS2_PLACEMENT_3D('',#247,#248,#249);
#251=CYLINDRICAL_SURFACE('',#250,2.5);
#252=ORIENTED_EDGE('',*,*,#72,.F.);
#253=ORIENTED_EDGE('',*,*,#119,.T.);
#254=ORIENTED_EDGE('',*,*,#89,.T.);
#255=ORIENTED_EDGE('',*,*,#242,.T.);
#256=EDGE_LOOP('',(#252,#253,#254,#255));
#257=FACE_BOUND('',#256,.T.);
#258=ADVANCED_FACE('',(#257),#251,.T.);
#259=CARTESIAN_POINT('',(0.,0.,-61.268974341));
#260=DIRECTION('',(-0.,0.,-1.));
#261=DIRECTION('',(-1.,0.,0.));
#262=AXIS2_PLACEMENT_3D('',#259,#260,#261);
#263=CONICAL_SURFACE('',#262,2.5,61.999999929);
#264=ORIENTED_EDGE('',*,*,#112,.F.);
#265=ORIENTED_EDGE('',*,*,#157,.T.);
#266=ORIENTED_EDGE('',*,*,#127,.T.);
#267=ORIENTED_EDGE('',*,*,#96,.F.);
#268=EDGE_LOOP('',(#264,#265,#266,#267));
#269=FACE_BOUND('',#268,.T.);
#270=ADVANCED_FACE('',(#269),#263,.T.);
#271=CARTESIAN_POINT('',(0.,0.,-0.));
#272=DIRECTION('',(0.,0.,-1.));
#273=DIRECTION('',(1.,0.,0.));
#274=AXIS2_PLACEMENT_3D('',#271,#272,#273);
#275=CYLINDRICAL_SURFACE('',#274,3.1);
#276=ORIENTED_EDGE('',*,*,#150,.F.);
#277=ORIENTED_EDGE('',*,*,#210,.T.);
#278=ORIENTED_EDGE('',*,*,#165,.T.);
#279=ORIENTED_EDGE('',*,*,#134,.F.);
#280=EDGE_LOOP('',(#276,#277,#278,#279));
#281=FACE_BOUND('',#280,.T.);
#282=ADVANCED_FACE('',(#281),#275,.T.);
#283=CARTESIAN_POINT('',(0.,0.,-64.));
#284=DIRECTION('',(0.,0.,1.));
#285=DIRECTION('',(1.,0.,-0.));
#286=AXIS2_PLACEMENT_3D('',#283,#284,#285);
#287=CONICAL_SURFACE('',#286,3.09,44.999999949);
#288=ORIENTED_EDGE('',*,*,#188,.F.);
#289=ORIENTED_EDGE('',*,*,#172,.F.);
#290=ORIENTED_EDGE('',*,*,#203,.T.);
#291=ORIENTED_EDGE('',*,*,#226,.T.);
#292=EDGE_LOOP('',(#288,#289,#290,#291));
#293=FACE_BOUND('',#292,.T.);
#294=ADVANCED_FACE('',(#293),#287,.T.);
#295=CLOSED_SHELL('',(#100,#138,#176,#214,#230,#246,#258,#270,#282,#294));
#296=MANIFOLD_SOLID_BREP('1',#295);
#297=COLOUR_RGB('',0.800000012,0.800000012,0.800000012);
#298=FILL_AREA_STYLE_COLOUR('',#297);
#299=FILL_AREA_STYLE('',(#298));
#300=SURFACE_STYLE_FILL_AREA(#299);
#301=SURFACE_SIDE_STYLE('',(#300));
#302=SURFACE_STYLE_USAGE(.BOTH.,#301);
#303=PRESENTATION_STYLE_ASSIGNMENT((#302));
#58=STYLED_ITEM('',(#303),#296);
#304=INTEGER_REPRESENTATION_ITEM('ATTRIB_BOUNDING_BOX_ALGORITHM',3);
#305=ID_ATTRIBUTE('SA #306',#306);
#306=SHAPE_ASPECT('properties','',#46,.F.);
#307=GEOMETRIC_ITEM_SPECIFIC_USAGE('','properties',#306,#40,#296);
#308=PROPERTY_DEFINITION('ATTRIB_BOUNDING_BOX_ALGORITHM','',#306);
#309=REPRESENTATION('',(#304),#33);
#310=PROPERTY_DEFINITION_REPRESENTATION(#308,#309);
#311=GENERAL_PROPERTY('','ATTRIB_BOUNDING_BOX_ALGORITHM','');
#312=GENERAL_PROPERTY_ASSOCIATION('','',#311,#308);
#39=SHAPE_REPRESENTATION('4228 9.728_PART2',(#38),#33);
#40=ADVANCED_BREP_SHAPE_REPRESENTATION('4228 9.728_PART2',(#296),#33);
#320=SHAPE_REPRESENTATION_RELATIONSHIP('','',#39,#40);
#321=CARTESIAN_POINT('',(0.,0.,0.));
#322=DIRECTION('',(0.,0.,1.));
#323=DIRECTION('',(1.,0.,0.));
#324=AXIS2_PLACEMENT_3D('',#321,#322,#323);
#326=MAPPED_ITEM('',#325,#324);
#325=REPRESENTATION_MAP(#324,#39);
#327=APPLICATION_CONTEXT('Managed model based 3d engineering');
#328=APPLICATION_PROTOCOL_DEFINITION('international standard','ap242_managed_model_based_3d_engineering',2013,#327);
#329=PRODUCT_CONTEXT('',#327,'mechanical');
#330=PRODUCT_DEFINITION_CONTEXT('part definition',#327,'design');
#47=PRODUCT('4228 9.728_PART2','4228 9.728_PART2','',(#329));
#331=PRODUCT_RELATED_PRODUCT_CATEGORY('part','',(#47));
#332=PRODUCT_DEFINITION_FORMATION_WITH_SPECIFIED_SOURCE('','',#47,.NOT_KNOWN.);
#48=PRODUCT_DEFINITION('design','',#332,#330);
#46=PRODUCT_DEFINITION_SHAPE('','',#48);
#333=SHAPE_DEFINITION_REPRESENTATION(#46,#39);
#34=DRAUGHTING_MODEL('',(#326),#33);
#334=(NAMED_UNIT(*)PLANE_ANGLE_UNIT()SI_UNIT($,.RADIAN.));
#335=PLANE_ANGLE_MEASURE_WITH_UNIT(PLANE_ANGLE_MEASURE(0.0174532925),#334);
#336=(CONVERSION_BASED_UNIT('DEGREE',#335)NAMED_UNIT(#337)PLANE_ANGLE_UNIT());
#337=DIMENSIONAL_EXPONENTS(0.,0.,0.,0.,0.,0.,0.);
#338=(NAMED_UNIT(*)SI_UNIT($,.STERADIAN.)SOLID_ANGLE_UNIT());
#339=(LENGTH_UNIT()NAMED_UNIT(*)SI_UNIT(.MILLI.,.METRE.));
#340=UNCERTAINTY_MEASURE_WITH_UNIT(LENGTH_MEASURE(1.000000E-06),#339,'DISTANCE_ACCURACY_VALUE','Maximum Tolerance applied to model');
#341=(GEOMETRIC_REPRESENTATION_CONTEXT(3)GLOBAL_UNCERTAINTY_ASSIGNED_CONTEXT((#340))GLOBAL_UNIT_ASSIGNED_CONTEXT((#339,#336,#338))REPRESENTATION_CONTEXT('','4228 9.728_PART1'));
#343=CARTESIAN_POINT('',(0.,0.,0.));
#344=DIRECTION('',(0.,0.,1.));
#345=DIRECTION('',(1.,0.,0.));
#346=AXIS2_PLACEMENT_3D('',#343,#344,#345);
#357=CARTESIAN_POINT('',(0.,0.,0.));
#358=DIRECTION('',(0.,0.,1.));
#359=DIRECTION('',(1.,0.,-0.));
#360=AXIS2_PLACEMENT_3D('',#357,#358,#359);
#361=ITEM_DEFINED_TRANSFORMATION('','',#360,#346);
#362=(REPRESENTATION_RELATIONSHIP('','',#347,#16)REPRESENTATION_RELATIONSHIP_WITH_TRANSFORMATION(#361)SHAPE_REPRESENTATION_RELATIONSHIP());
#363=NEXT_ASSEMBLY_USAGE_OCCURRENCE('4228 9.728_PART1_2','4228 9.728_PART1','4228 9.728_PART1',#25,#356,$);
#364=PRODUCT_DEFINITION_SHAPE('','',#363);
#365=CONTEXT_DEPENDENT_SHAPE_REPRESENTATION(#362,#364);
#367=CARTESIAN_POINT('',(0.,0.,-0.));
#368=DIRECTION('',(0.,0.,-1.));
#369=DIRECTION('',(1.,0.,0.));
#370=AXIS2_PLACEMENT_3D('',#367,#368,#369);
#371=CYLINDRICAL_SURFACE('',#370,3.001);
#372=CARTESIAN_POINT('',(-3.001,0.,-0.0101));
#373=VERTEX_POINT('',#372);
#374=CARTESIAN_POINT('',(-3.001,0.,-0.001));
#375=VERTEX_POINT('',#374);
#376=CARTESIAN_POINT('',(-3.001,-0.,-0.011009998));
#377=DIRECTION('',(-0.,-0.,1.));
#378=VECTOR('',#377,0.010919998);
#379=LINE('',#376,#378);
#380=EDGE_CURVE('',#373,#375,#379,.T.);
#381=ORIENTED_EDGE('',*,*,#380,.T.);
#382=CARTESIAN_POINT('',(3.001,-0.,-0.001));
#383=VERTEX_POINT('',#382);
#384=CARTESIAN_POINT('',(0.,0.,-0.001));
#385=DIRECTION('',(0.,-0.,1.));
#386=DIRECTION('',(1.,0.,0.));
#387=AXIS2_PLACEMENT_3D('',#384,#385,#386);
#388=CIRCLE('',#387,3.001);
#389=EDGE_CURVE('',#383,#375,#388,.T.);
#390=ORIENTED_EDGE('',*,*,#389,.F.);
#391=CARTESIAN_POINT('',(3.001,-0.,-0.010099998));
#392=VERTEX_POINT('',#391);
#393=CARTESIAN_POINT('',(3.001,0.,-0.01101));
#394=DIRECTION('',(0.,-0.,1.));
#395=VECTOR('',#394,0.01092);
#396=LINE('',#393,#395);
#397=EDGE_CURVE('',#392,#383,#396,.T.);
#398=ORIENTED_EDGE('',*,*,#397,.F.);
#399=CARTESIAN_POINT('',(0.,0.,-0.010099998));
#400=DIRECTION('',(0.,-0.,1.));
#401=DIRECTION('',(1.,0.,0.));
#402=AXIS2_PLACEMENT_3D('',#399,#400,#401);
#403=CIRCLE('',#402,3.001);
#404=EDGE_CURVE('',#392,#373,#403,.T.);
#405=ORIENTED_EDGE('',*,*,#404,.T.);
#406=EDGE_LOOP('',(#381,#390,#398,#405));
#407=FACE_BOUND('',#406,.T.);
#408=ADVANCED_FACE('',(#407),#371,.T.);
#409=CARTESIAN_POINT('',(0.,0.,-0.));
#410=DIRECTION('',(0.,0.,-1.));
#411=DIRECTION('',(1.,0.,0.));
#412=AXIS2_PLACEMENT_3D('',#409,#410,#411);
#413=CYLINDRICAL_SURFACE('',#412,2.5);
#414=CARTESIAN_POINT('',(-2.5,-0.,-60.980974341));
#415=VERTEX_POINT('',#414);
#416=CARTESIAN_POINT('',(-2.5,-0.,-44.597974345));
#417=VERTEX_POINT('',#416);
#418=CARTESIAN_POINT('',(-2.5,-0.,-60.980974341));
#419=DIRECTION('',(-0.,-0.,1.));
#420=VECTOR('',#419,16.382999996);
#421=LINE('',#418,#420);
#422=EDGE_CURVE('',#415,#417,#421,.T.);
#423=ORIENTED_EDGE('',*,*,#422,.T.);
#424=CARTESIAN_POINT('',(2.500000001,-0.,-44.597974341));
#425=VERTEX_POINT('',#424);
#426=CARTESIAN_POINT('',(0.,0.,-44.597974345));
#427=DIRECTION('',(-0.,-0.,1.));
#428=DIRECTION('',(1.,0.,0.));
#429=AXIS2_PLACEMENT_3D('',#426,#427,#428);
#430=CIRCLE('',#429,2.5);
#431=EDGE_CURVE('',#425,#417,#430,.T.);
#432=ORIENTED_EDGE('',*,*,#431,.F.);
#433=CARTESIAN_POINT('',(2.5,0.,-60.980974341));
#434=VERTEX_POINT('',#433);
#435=CARTESIAN_POINT('',(2.5,0.,-60.980974341));
#436=DIRECTION('',(0.,-0.,1.));
#437=VECTOR('',#436,16.383);
#438=LINE('',#435,#437);
#439=EDGE_CURVE('',#434,#425,#438,.T.);
#440=ORIENTED_EDGE('',*,*,#439,.F.);
#441=CARTESIAN_POINT('',(0.,0.,-60.980974341));
#442=DIRECTION('',(0.,0.,-1.));
#443=DIRECTION('',(1.,0.,0.));
#444=AXIS2_PLACEMENT_3D('',#441,#442,#443);
#445=CIRCLE('',#444,2.5);
#446=EDGE_CURVE('',#415,#434,#445,.T.);
#447=ORIENTED_EDGE('',*,*,#446,.F.);
#448=EDGE_LOOP('',(#423,#432,#440,#447));
#449=FACE_BOUND('',#448,.T.);
#450=ADVANCED_FACE('',(#449),#413,.T.);
#451=CARTESIAN_POINT('',(0.,0.,-60.980974341));
#452=DIRECTION('',(0.,0.,1.));
#453=DIRECTION('',(1.,0.,0.));
#454=AXIS2_PLACEMENT_3D('',#451,#452,#453);
#455=PLANE('',#454);
#456=CARTESIAN_POINT('',(0.,0.,-60.980974341));
#457=DIRECTION('',(0.,0.,-1.));
#458=DIRECTION('',(1.,0.,0.));
#459=AXIS2_PLACEMENT_3D('',#456,#457,#458);
#460=CIRCLE('',#459,2.5);
#461=EDGE_CURVE('',#434,#415,#460,.T.);
#462=ORIENTED_EDGE('',*,*,#461,.T.);
#463=ORIENTED_EDGE('',*,*,#446,.T.);
#464=EDGE_LOOP('',(#462,#463));
#465=FACE_BOUND('',#464,.T.);
#466=ADVANCED_FACE('',(#465),#455,.F.);
#467=CARTESIAN_POINT('',(0.,0.,-0.001));
#468=DIRECTION('',(-0.,0.,-1.));
#469=DIRECTION('',(-1.,0.,0.));
#470=AXIS2_PLACEMENT_3D('',#467,#468,#469);
#471=CONICAL_SURFACE('',#470,3.001,44.999999949);
#472=CARTESIAN_POINT('',(3.,-0.,-0.));
#473=VERTEX_POINT('',#472);
#474=CARTESIAN_POINT('',(3.0011,0.,-0.0011));
#475=DIRECTION('',(-0.707106781,-0.,0.707106782));
#476=VECTOR('',#475,0.001555635);
#477=LINE('',#474,#476);
#478=EDGE_CURVE('',#383,#473,#477,.T.);
#479=ORIENTED_EDGE('',*,*,#478,.T.);
#480=CARTESIAN_POINT('',(-3.,0.,-0.));
#481=VERTEX_POINT('',#480);
#482=CARTESIAN_POINT('',(0.,0.,-0.));
#483=DIRECTION('',(0.,-0.,1.));
#484=DIRECTION('',(-1.,0.,0.));
#485=AXIS2_PLACEMENT_3D('',#482,#483,#484);
#486=CIRCLE('',#485,3.);
#487=EDGE_CURVE('',#481,#473,#486,.T.);
#488=ORIENTED_EDGE('',*,*,#487,.F.);
#489=CARTESIAN_POINT('',(-3.001,0.,-0.001));
#490=DIRECTION('',(0.707106781,0.,0.707106782));
#491=VECTOR('',#490,0.001555635);
#492=LINE('',#489,#491);
#493=EDGE_CURVE('',#375,#481,#492,.T.);
#494=ORIENTED_EDGE('',*,*,#493,.F.);
#495=CARTESIAN_POINT('',(0.,0.,-0.001));
#496=DIRECTION('',(0.,-0.,1.));
#497=DIRECTION('',(1.,0.,0.));
#498=AXIS2_PLACEMENT_3D('',#495,#496,#497);
#499=CIRCLE('',#498,3.001);
#500=EDGE_CURVE('',#375,#383,#499,.T.);
#501=ORIENTED_EDGE('',*,*,#500,.T.);
#502=EDGE_LOOP('',(#479,#488,#494,#501));
#503=FACE_BOUND('',#502,.T.);
#504=ADVANCED_FACE('',(#503),#471,.T.);
#505=CARTESIAN_POINT('',(0.,3.,-0.));
#506=DIRECTION('',(0.,0.,-1.));
#507=DIRECTION('',(0.,-1.,0.));
#508=AXIS2_PLACEMENT_3D('',#505,#506,#507);
#509=PLANE('',#508);
#510=CARTESIAN_POINT('',(0.,0.,-0.));
#511=DIRECTION('',(0.,-0.,1.));
#512=DIRECTION('',(-1.,0.,0.));
#513=AXIS2_PLACEMENT_3D('',#510,#511,#512);
#514=CIRCLE('',#513,3.);
#515=EDGE_CURVE('',#473,#481,#514,.T.);
#516=ORIENTED_EDGE('',*,*,#515,.T.);
#517=ORIENTED_EDGE('',*,*,#487,.T.);
#518=EDGE_LOOP('',(#516,#517));
#519=FACE_BOUND('',#518,.T.);
#520=ADVANCED_FACE('',(#519),#509,.F.);
#521=CARTESIAN_POINT('',(0.,0.,-1.0091));
#522=DIRECTION('',(0.,0.,-1.));
#523=DIRECTION('',(-1.,0.,-0.));
#524=AXIS2_PLACEMENT_3D('',#521,#522,#523);
#525=CONICAL_SURFACE('',#524,4.,44.999999949);
#526=CARTESIAN_POINT('',(4.,-0.,-1.0091));
#527=VERTEX_POINT('',#526);
#528=CARTESIAN_POINT('',(4.,0.,-1.0091));
#529=DIRECTION('',(-0.707106781,-0.,0.707106782));
#530=VECTOR('',#529,1.41279935);
#531=LINE('',#528,#530);
#532=EDGE_CURVE('',#527,#392,#531,.T.);
#533=ORIENTED_EDGE('',*,*,#532,.T.);
#534=CARTESIAN_POINT('',(0.,0.,-0.010099998));
#535=DIRECTION('',(0.,-0.,1.));
#536=DIRECTION('',(1.,0.,0.));
#537=AXIS2_PLACEMENT_3D('',#534,#535,#536);
#538=CIRCLE('',#537,3.001);
#539=EDGE_CURVE('',#373,#392,#538,.T.);
#540=ORIENTED_EDGE('',*,*,#539,.F.);
#541=CARTESIAN_POINT('',(-4.,0.,-1.0091));
#542=VERTEX_POINT('',#541);
#543=CARTESIAN_POINT('',(-4.,0.,-1.0091));
#544=DIRECTION('',(0.707106781,0.,0.707106782));
#545=VECTOR('',#544,1.412799349);
#546=LINE('',#543,#545);
#547=EDGE_CURVE('',#542,#373,#546,.T.);
#548=ORIENTED_EDGE('',*,*,#547,.F.);
#549=CARTESIAN_POINT('',(0.,0.,-1.0091));
#550=DIRECTION('',(-0.,-0.,1.));
#551=DIRECTION('',(1.,0.,0.));
#552=AXIS2_PLACEMENT_3D('',#549,#550,#551);
#553=CIRCLE('',#552,4.);
#554=EDGE_CURVE('',#542,#527,#553,.T.);
#555=ORIENTED_EDGE('',*,*,#554,.T.);
#556=EDGE_LOOP('',(#533,#540,#548,#555));
#557=FACE_BOUND('',#556,.T.);
#558=ADVANCED_FACE('',(#557),#525,.T.);
#559=CARTESIAN_POINT('',(0.,0.,-41.99989813));
#560=DIRECTION('',(0.,0.,1.));
#561=DIRECTION('',(1.,0.,-0.));
#562=AXIS2_PLACEMENT_3D('',#559,#560,#561);
#563=CONICAL_SURFACE('',#562,4.,29.999999966);
#564=CARTESIAN_POINT('',(-4.,0.,-41.99989813));
#565=VERTEX_POINT('',#564);
#566=CARTESIAN_POINT('',(-4.,0.,-41.99989813));
#567=DIRECTION('',(0.499999999,-0.,-0.866025404));
#568=VECTOR('',#567,3.000000003);
#569=LINE('',#566,#568);
#570=EDGE_CURVE('',#565,#417,#569,.T.);
#571=ORIENTED_EDGE('',*,*,#570,.T.);
#572=CARTESIAN_POINT('',(0.,0.,-44.597974345));
#573=DIRECTION('',(-0.,-0.,1.));
#574=DIRECTION('',(1.,0.,0.));
#575=AXIS2_PLACEMENT_3D('',#572,#573,#574);
#576=CIRCLE('',#575,2.5);
#577=EDGE_CURVE('',#417,#425,#576,.T.);
#578=ORIENTED_EDGE('',*,*,#577,.T.);
#579=CARTESIAN_POINT('',(4.,-0.,-41.99989813));
#580=VERTEX_POINT('',#579);
#581=CARTESIAN_POINT('',(4.,0.,-41.99989813));
#582=DIRECTION('',(-0.499999999,0.,-0.866025404));
#583=VECTOR('',#582,3.);
#584=LINE('',#581,#583);
#585=EDGE_CURVE('',#580,#425,#584,.T.);
#586=ORIENTED_EDGE('',*,*,#585,.F.);
#587=CARTESIAN_POINT('',(0.,0.,-41.99989813));
#588=DIRECTION('',(0.,-0.,1.));
#589=DIRECTION('',(1.,0.,0.));
#590=AXIS2_PLACEMENT_3D('',#587,#588,#589);
#591=CIRCLE('',#590,4.);
#592=EDGE_CURVE('',#565,#580,#591,.T.);
#593=ORIENTED_EDGE('',*,*,#592,.F.);
#594=EDGE_LOOP('',(#571,#578,#586,#593));
#595=FACE_BOUND('',#594,.T.);
#596=ADVANCED_FACE('',(#595),#563,.T.);
#597=CARTESIAN_POINT('',(0.,0.,-0.));
#598=DIRECTION('',(0.,0.,-1.));
#599=DIRECTION('',(1.,0.,0.));
#600=AXIS2_PLACEMENT_3D('',#597,#598,#599);
#601=CYLINDRICAL_SURFACE('',#600,4.);
#602=CARTESIAN_POINT('',(-4.,-0.,-41.99989813));
#603=DIRECTION('',(-0.,-0.,1.));
#604=VECTOR('',#603,40.99079813);
#605=LINE('',#602,#604);
#606=EDGE_CURVE('',#565,#542,#605,.T.);
#607=ORIENTED_EDGE('',*,*,#606,.T.);
#608=CARTESIAN_POINT('',(0.,0.,-1.0091));
#609=DIRECTION('',(-0.,-0.,1.));
#610=DIRECTION('',(1.,0.,0.));
#611=AXIS2_PLACEMENT_3D('',#608,#609,#610);
#612=CIRCLE('',#611,4.);
#613=EDGE_CURVE('',#527,#542,#612,.T.);
#614=ORIENTED_EDGE('',*,*,#613,.F.);
#615=CARTESIAN_POINT('',(4.,0.,-41.99989813));
#616=DIRECTION('',(0.,-0.,1.));
#617=VECTOR('',#616,40.99079813);
#618=LINE('',#615,#617);
#619=EDGE_CURVE('',#580,#527,#618,.T.);
#620=ORIENTED_EDGE('',*,*,#619,.F.);
#621=CARTESIAN_POINT('',(0.,0.,-41.99989813));
#622=DIRECTION('',(0.,-0.,1.));
#623=DIRECTION('',(1.,0.,0.));
#624=AXIS2_PLACEMENT_3D('',#621,#622,#623);
#625=CIRCLE('',#624,4.);
#626=EDGE_CURVE('',#580,#565,#625,.T.);
#627=ORIENTED_EDGE('',*,*,#626,.T.);
#628=EDGE_LOOP('',(#607,#614,#620,#627));
#629=FACE_BOUND('',#628,.T.);
#630=ADVANCED_FACE('',(#629),#601,.T.);
#631=CARTESIAN_POINT('',(0.,0.,-0.));
#632=DIRECTION('',(0.,0.,-1.));
#633=DIRECTION('',(1.,0.,0.));
#634=AXIS2_PLACEMENT_3D('',#631,#632,#633);
#635=CYLINDRICAL_SURFACE('',#634,3.001);
#636=ORIENTED_EDGE('',*,*,#380,.F.);
#637=ORIENTED_EDGE('',*,*,#539,.T.);
#638=ORIENTED_EDGE('',*,*,#397,.T.);
#639=ORIENTED_EDGE('',*,*,#500,.F.);
#640=EDGE_LOOP('',(#636,#637,#638,#639));
#641=FACE_BOUND('',#640,.T.);
#642=ADVANCED_FACE('',(#641),#635,.T.);
#643=CARTESIAN_POINT('',(0.,0.,-0.));
#644=DIRECTION('',(0.,0.,-1.));
#645=DIRECTION('',(1.,0.,0.));
#646=AXIS2_PLACEMENT_3D('',#643,#644,#645);
#647=CYLINDRICAL_SURFACE('',#646,2.5);
#648=ORIENTED_EDGE('',*,*,#422,.F.);
#649=ORIENTED_EDGE('',*,*,#461,.F.);
#650=ORIENTED_EDGE('',*,*,#439,.T.);
#651=ORIENTED_EDGE('',*,*,#577,.F.);
#652=EDGE_LOOP('',(#648,#649,#650,#651));
#653=FACE_BOUND('',#652,.T.);
#654=ADVANCED_FACE('',(#653),#647,.T.);
#655=CARTESIAN_POINT('',(0.,0.,-0.001));
#656=DIRECTION('',(-0.,0.,-1.));
#657=DIRECTION('',(-1.,0.,0.));
#658=AXIS2_PLACEMENT_3D('',#655,#656,#657);
#659=CONICAL_SURFACE('',#658,3.001,44.999999949);
#660=ORIENTED_EDGE('',*,*,#478,.F.);
#661=ORIENTED_EDGE('',*,*,#389,.T.);
#662=ORIENTED_EDGE('',*,*,#493,.T.);
#663=ORIENTED_EDGE('',*,*,#515,.F.);
#664=EDGE_LOOP('',(#660,#661,#662,#663));
#665=FACE_BOUND('',#664,.T.);
#666=ADVANCED_FACE('',(#665),#659,.T.);
#667=CARTESIAN_POINT('',(0.,0.,-1.0091));
#668=DIRECTION('',(0.,0.,-1.));
#669=DIRECTION('',(-1.,0.,-0.));
#670=AXIS2_PLACEMENT_3D('',#667,#668,#669);
#671=CONICAL_SURFACE('',#670,4.,44.999999949);
#672=ORIENTED_EDGE('',*,*,#532,.F.);
#673=ORIENTED_EDGE('',*,*,#613,.T.);
#674=ORIENTED_EDGE('',*,*,#547,.T.);
#675=ORIENTED_EDGE('',*,*,#404,.F.);
#676=EDGE_LOOP('',(#672,#673,#674,#675));
#677=FACE_BOUND('',#676,.T.);
#678=ADVANCED_FACE('',(#677),#671,.T.);
#679=CARTESIAN_POINT('',(0.,0.,-41.99989813));
#680=DIRECTION('',(0.,0.,1.));
#681=DIRECTION('',(1.,0.,-0.));
#682=AXIS2_PLACEMENT_3D('',#679,#680,#681);
#683=CONICAL_SURFACE('',#682,4.,29.999999966);
#684=ORIENTED_EDGE('',*,*,#570,.F.);
#685=ORIENTED_EDGE('',*,*,#626,.F.);
#686=ORIENTED_EDGE('',*,*,#585,.T.);
#687=ORIENTED_EDGE('',*,*,#431,.T.);
#688=EDGE_LOOP('',(#684,#685,#686,#687));
#689=FACE_BOUND('',#688,.T.);
#690=ADVANCED_FACE('',(#689),#683,.T.);
#691=CARTESIAN_POINT('',(0.,0.,-0.));
#692=DIRECTION('',(0.,0.,-1.));
#693=DIRECTION('',(1.,0.,0.));
#694=AXIS2_PLACEMENT_3D('',#691,#692,#693);
#695=CYLINDRICAL_SURFACE('',#694,4.);
#696=ORIENTED_EDGE('',*,*,#606,.F.);
#697=ORIENTED_EDGE('',*,*,#592,.T.);
#698=ORIENTED_EDGE('',*,*,#619,.T.);
#699=ORIENTED_EDGE('',*,*,#554,.F.);
#700=EDGE_LOOP('',(#696,#697,#698,#699));
#701=FACE_BOUND('',#700,.T.);
#702=ADVANCED_FACE('',(#701),#695,.T.);
#703=CLOSED_SHELL('',(#408,#450,#466,#504,#520,#558,#596,#630,#642,#654,#666,#678,#690,#702));
#704=MANIFOLD_SOLID_BREP('1',#703);
#705=COLOUR_RGB('',0.498039216,0.498039216,0.498039216);
#706=FILL_AREA_STYLE_COLOUR('',#705);
#707=FILL_AREA_STYLE('',(#706));
#708=SURFACE_STYLE_FILL_AREA(#707);
#709=SURFACE_SIDE_STYLE('',(#708));
#710=SURFACE_STYLE_USAGE(.BOTH.,#709);
#711=PRESENTATION_STYLE_ASSIGNMENT((#710));
#366=STYLED_ITEM('',(#711),#704);
#712=INTEGER_REPRESENTATION_ITEM('ATTRIB_BOUNDING_BOX_ALGORITHM',3);
#713=ID_ATTRIBUTE('SA #714',#714);
#714=SHAPE_ASPECT('properties','',#354,.F.);
#715=GEOMETRIC_ITEM_SPECIFIC_USAGE('','properties',#714,#348,#704);
#716=PROPERTY_DEFINITION('ATTRIB_BOUNDING_BOX_ALGORITHM','',#714);
#717=REPRESENTATION('',(#712),#341);
#718=PROPERTY_DEFINITION_REPRESENTATION(#716,#717);
#719=GENERAL_PROPERTY('','ATTRIB_BOUNDING_BOX_ALGORITHM','');
#720=GENERAL_PROPERTY_ASSOCIATION('','',#719,#716);
#347=SHAPE_REPRESENTATION('4228 9.728_PART1',(#346),#341);
#348=ADVANCED_BREP_SHAPE_REPRESENTATION('4228 9.728_PART1',(#704),#341);
#728=SHAPE_REPRESENTATION_RELATIONSHIP('','',#347,#348);
#729=CARTESIAN_POINT('',(0.,0.,0.));
#730=DIRECTION('',(0.,0.,1.));
#731=DIRECTION('',(1.,0.,0.));
#732=AXIS2_PLACEMENT_3D('',#729,#730,#731);
#734=MAPPED_ITEM('',#733,#732);
#733=REPRESENTATION_MAP(#732,#347);
#355=PRODUCT('4228 9.728_PART1','4228 9.728_PART1','',(#329));
#735=PRODUCT_RELATED_PRODUCT_CATEGORY('part','',(#355));
#736=PRODUCT_DEFINITION_FORMATION_WITH_SPECIFIED_SOURCE('','',#355,.NOT_KNOWN.);
#356=PRODUCT_DEFINITION('design','',#736,#330);
#354=PRODUCT_DEFINITION_SHAPE('','',#356);
#737=SHAPE_DEFINITION_REPRESENTATION(#354,#347);
#342=DRAUGHTING_MODEL('',(#734),#341);
#16=SHAPE_REPRESENTATION('6155 G1_16-G1_8 Micro-thread milling cutter, 9042280097280',(#15,#52,#360),#10);
#738=CARTESIAN_POINT('',(0.,0.,0.));
#739=DIRECTION('',(0.,0.,1.));
#740=DIRECTION('',(1.,0.,0.));
#741=AXIS2_PLACEMENT_3D('',#738,#739,#740);
#743=MAPPED_ITEM('',#742,#741);
#742=REPRESENTATION_MAP(#741,#16);
#24=PRODUCT('6155 G1_16-G1_8 Micro-thread milling cutter, 9042280097280','6155 G1_16-G1_8 Micro-thread milling cutter, 9042280097280','',(#329));
#744=PRODUCT_RELATED_PRODUCT_CATEGORY('part','',(#24));
#745=PRODUCT_DEFINITION_FORMATION_WITH_SPECIFIED_SOURCE('','',#24,.NOT_KNOWN.);
#25=PRODUCT_DEFINITION('design','',#745,#330);
#23=PRODUCT_DEFINITION_SHAPE('','',#25);
#746=SHAPE_DEFINITION_REPRESENTATION(#23,#16);
#11=DRAUGHTING_MODEL('',(#743),#10);
#1=MECHANICAL_DESIGN_GEOMETRIC_PRESENTATION_REPRESENTATION('',(#58,#366),#10);
ENDSEC;
END-ISO-10303-21;
