ISO-10303-21;
HEADER;
/* Generated by software containing ST-Developer
 * from STEP Tools, Inc. (www.steptools.com) 
 */

FILE_DESCRIPTION(
/* description */ ('Alibre Inc.'),
/* implementation_level */ '2;1');

FILE_NAME(
/* name */ 'export-C060C562-13EB-46B7-9E97-788ED8CC4B68',
/* time_stamp */ '2022-11-29T10:53:39+01:00',
/* author */ (''),
/* organization */ (''),
/* preprocessor_version */ 'ST-DEVELOPER v17',
/* originating_system */ 'Alibre',
/* authorisation */ '');

FILE_SCHEMA (('AUTOMOTIVE_DESIGN'));
ENDSEC;

DATA;
#10=CONTEXT_DEPENDENT_SHAPE_REPRESENTATION(#16,#44);
#11=CONTEXT_DEPENDENT_SHAPE_REPRESENTATION(#17,#45);
#12=NEXT_ASSEMBLY_USAGE_OCCURRENCE('NAUO_ID9','NAUO_NAME9',$,#48,#46,$);
#13=NEXT_ASSEMBLY_USAGE_OCCURRENCE('NAUO_ID19','NAUO_NAME19',$,#48,#47,
$);
#14=ITEM_DEFINED_TRANSFORMATION('ITD_NAME0',$,#303,#302);
#15=ITEM_DEFINED_TRANSFORMATION('ITD_NAME10',$,#305,#304);
#16=(
REPRESENTATION_RELATIONSHIP('4228 16.662_PART2',$,#63,#65)
REPRESENTATION_RELATIONSHIP_WITH_TRANSFORMATION(#14)
SHAPE_REPRESENTATION_RELATIONSHIP()
);
#17=(
REPRESENTATION_RELATIONSHIP('4228 16.662_PART1',$,#64,#65)
REPRESENTATION_RELATIONSHIP_WITH_TRANSFORMATION(#15)
SHAPE_REPRESENTATION_RELATIONSHIP()
);
#18=STYLED_ITEM('NAME_0',(#33),#449);
#19=STYLED_ITEM('NAME_0',(#34),#450);
#20=MECHANICAL_DESIGN_GEOMETRIC_PRESENTATION_REPRESENTATION('NAME_0',(#18,
#19),#80);
#21=COLOUR_RGB('',0.8,0.8,0.8);
#22=COLOUR_RGB('',0.498039215686275,0.498039215686275,0.498039215686275);
#23=FILL_AREA_STYLE_COLOUR('NAME_0',#21);
#24=FILL_AREA_STYLE_COLOUR('NAME_0',#22);
#25=FILL_AREA_STYLE('NAME_0',(#23));
#26=FILL_AREA_STYLE('NAME_0',(#24));
#27=SURFACE_STYLE_FILL_AREA(#25);
#28=SURFACE_STYLE_FILL_AREA(#26);
#29=SURFACE_SIDE_STYLE('NAME_0',(#27));
#30=SURFACE_SIDE_STYLE('NAME_0',(#28));
#31=SURFACE_STYLE_USAGE(.POSITIVE.,#29);
#32=SURFACE_STYLE_USAGE(.POSITIVE.,#30);
#33=PRESENTATION_STYLE_ASSIGNMENT((#31));
#34=PRESENTATION_STYLE_ASSIGNMENT((#32));
#35=PRODUCT_DEFINITION_CONTEXT('part definition',#56,'design');
#36=PRODUCT_DEFINITION_CONTEXT('part definition',#56,'design');
#37=PRODUCT_DEFINITION_CONTEXT('part definition',#56,'design');
#38=SHAPE_DEFINITION_REPRESENTATION(#41,#63);
#39=SHAPE_DEFINITION_REPRESENTATION(#42,#64);
#40=SHAPE_DEFINITION_REPRESENTATION(#43,#65);
#41=PRODUCT_DEFINITION_SHAPE('PRODUCT_VERSION_ID',
'PRODUCT_VERSION_DESCR',#46);
#42=PRODUCT_DEFINITION_SHAPE('PRODUCT_VERSION_ID',
'PRODUCT_VERSION_DESCR',#47);
#43=PRODUCT_DEFINITION_SHAPE('PRODUCT_VERSION_ID',
'PRODUCT_VERSION_DESCR',#48);
#44=PRODUCT_DEFINITION_SHAPE('NAME_10',$,#12);
#45=PRODUCT_DEFINITION_SHAPE('NAME_20',$,#13);
#46=PRODUCT_DEFINITION('4228 16.662_PART2','PRODUCT_VERSION_DESCR',#49,
#35);
#47=PRODUCT_DEFINITION('4228 16.662_PART1','PRODUCT_VERSION_DESCR',#50,
#36);
#48=PRODUCT_DEFINITION('PRODUCT_VERSION_ID','PRODUCT_VERSION_DESCR',#51,
#37);
#49=PRODUCT_DEFINITION_FORMATION_WITH_SPECIFIED_SOURCE(
'PRODUCT_VERSION_ID','PRODUCT_VERSION_DESCR',#60,.MADE.);
#50=PRODUCT_DEFINITION_FORMATION_WITH_SPECIFIED_SOURCE(
'PRODUCT_VERSION_ID','PRODUCT_VERSION_DESCR',#61,.MADE.);
#51=PRODUCT_DEFINITION_FORMATION_WITH_SPECIFIED_SOURCE(
'PRODUCT_VERSION_ID','PRODUCT_VERSION_DESCR',#62,.MADE.);
#52=PRODUCT_RELATED_PRODUCT_CATEGORY('part','part',(#60));
#53=PRODUCT_RELATED_PRODUCT_CATEGORY('part','part',(#61));
#54=PRODUCT_RELATED_PRODUCT_CATEGORY('part','part',(#62));
#55=APPLICATION_PROTOCOL_DEFINITION('Draft International Standard',
'automotive_design',1994,#56);
#56=APPLICATION_CONTEXT('automotive_Design');
#57=PRODUCT_CONTEXT('3D Mechanical Parts',#56,'mechanical');
#58=PRODUCT_CONTEXT('3D Mechanical Parts',#56,'mechanical');
#59=PRODUCT_CONTEXT('3D Mechanical Parts',#56,'mechanical');
#60=PRODUCT('4228 16.662_PART2','4228 16.662_PART2','',(#57));
#61=PRODUCT('4228 16.662_PART1','4228 16.662_PART1','',(#58));
#62=PRODUCT('4228 16.662',
'6156 G1_4-G3_8 Micro-thread milling cutter, 9042280166620','',(#59));
#63=SHAPE_REPRESENTATION('4228 16.662_PART2',(#303),#80);
#64=SHAPE_REPRESENTATION('4228 16.662_PART1',(#305),#81);
#65=SHAPE_REPRESENTATION('NAME_0',(#302,#304),#82);
#66=SHAPE_REPRESENTATION_RELATIONSHIP('NAME_0',$,#63,#451);
#67=SHAPE_REPRESENTATION_RELATIONSHIP('NAME_0',$,#64,#452);
#68=(
LENGTH_UNIT()
NAMED_UNIT(*)
SI_UNIT(.MILLI.,.METRE.)
);
#69=(
LENGTH_UNIT()
NAMED_UNIT(*)
SI_UNIT(.MILLI.,.METRE.)
);
#70=(
LENGTH_UNIT()
NAMED_UNIT(*)
SI_UNIT(.MILLI.,.METRE.)
);
#71=(
NAMED_UNIT(*)
PLANE_ANGLE_UNIT()
SI_UNIT($,.RADIAN.)
);
#72=(
NAMED_UNIT(*)
PLANE_ANGLE_UNIT()
SI_UNIT($,.RADIAN.)
);
#73=(
NAMED_UNIT(*)
PLANE_ANGLE_UNIT()
SI_UNIT($,.RADIAN.)
);
#74=(
NAMED_UNIT(*)
SI_UNIT($,.STERADIAN.)
SOLID_ANGLE_UNIT()
);
#75=(
NAMED_UNIT(*)
SI_UNIT($,.STERADIAN.)
SOLID_ANGLE_UNIT()
);
#76=(
NAMED_UNIT(*)
SI_UNIT($,.STERADIAN.)
SOLID_ANGLE_UNIT()
);
#77=UNCERTAINTY_MEASURE_WITH_UNIT(LENGTH_MEASURE(1.E-6),#68,
'DISTANCE_ACCURACY_VALUE',
'Maximum model space distance between geometric entities at asserted c
onnectivities');
#78=UNCERTAINTY_MEASURE_WITH_UNIT(LENGTH_MEASURE(1.E-6),#69,
'DISTANCE_ACCURACY_VALUE',
'Maximum model space distance between geometric entities at asserted c
onnectivities');
#79=UNCERTAINTY_MEASURE_WITH_UNIT(LENGTH_MEASURE(1.E-6),#70,
'DISTANCE_ACCURACY_VALUE',
'Maximum model space distance between geometric entities at asserted c
onnectivities');
#80=(
GEOMETRIC_REPRESENTATION_CONTEXT(3)
GLOBAL_UNCERTAINTY_ASSIGNED_CONTEXT((#77))
GLOBAL_UNIT_ASSIGNED_CONTEXT((#74,#71,#68))
REPRESENTATION_CONTEXT('ID1','3D')
);
#81=(
GEOMETRIC_REPRESENTATION_CONTEXT(3)
GLOBAL_UNCERTAINTY_ASSIGNED_CONTEXT((#78))
GLOBAL_UNIT_ASSIGNED_CONTEXT((#75,#72,#69))
REPRESENTATION_CONTEXT('ID1','3D')
);
#82=(
GEOMETRIC_REPRESENTATION_CONTEXT(3)
GLOBAL_UNCERTAINTY_ASSIGNED_CONTEXT((#79))
GLOBAL_UNIT_ASSIGNED_CONTEXT((#76,#73,#70))
REPRESENTATION_CONTEXT('ID1','3D')
);
#83=PLANE('',#281);
#84=PLANE('',#282);
#85=PLANE('',#296);
#86=PLANE('',#299);
#87=CONICAL_SURFACE('',#278,4.,1.082104135);
#88=CONICAL_SURFACE('',#279,4.965,0.7853981625);
#89=CONICAL_SURFACE('',#292,5.,0.7853981625);
#90=CONICAL_SURFACE('',#293,4.001,0.7853981625);
#91=CONICAL_SURFACE('',#297,5.,0.523598775);
#92=CIRCLE('',#273,4.975);
#93=CIRCLE('',#274,4.975);
#94=CIRCLE('',#276,4.);
#95=CIRCLE('',#277,4.);
#96=CIRCLE('',#280,4.965);
#97=CIRCLE('',#284,4.001);
#98=CIRCLE('',#285,4.001);
#99=CIRCLE('',#286,4.001);
#100=CIRCLE('',#287,4.001);
#101=CIRCLE('',#289,5.);
#102=CIRCLE('',#290,5.);
#103=CIRCLE('',#291,5.);
#104=CIRCLE('',#294,4.0000000000018);
#105=CIRCLE('',#295,4.0000000000018);
#106=CIRCLE('',#298,4.);
#107=CIRCLE('',#300,4.);
#108=VERTEX_POINT('',#382);
#109=VERTEX_POINT('',#383);
#110=VERTEX_POINT('',#385);
#111=VERTEX_POINT('',#389);
#112=VERTEX_POINT('',#390);
#113=VERTEX_POINT('',#393);
#114=VERTEX_POINT('',#398);
#115=VERTEX_POINT('',#404);
#116=VERTEX_POINT('',#405);
#117=VERTEX_POINT('',#407);
#118=VERTEX_POINT('',#410);
#119=VERTEX_POINT('',#414);
#120=VERTEX_POINT('',#415);
#121=VERTEX_POINT('',#417);
#122=VERTEX_POINT('',#424);
#123=VERTEX_POINT('',#426);
#124=VERTEX_POINT('',#431);
#125=VERTEX_POINT('',#435);
#126=VECTOR('',#308,1.);
#127=VECTOR('',#315,1.);
#128=VECTOR('',#322,1.);
#129=VECTOR('',#325,1.);
#130=VECTOR('',#332,1.);
#131=VECTOR('',#343,1.);
#132=VECTOR('',#352,1.);
#133=VECTOR('',#355,1.);
#134=VECTOR('',#363,1.);
#135=VECTOR('',#371,1.);
#136=LINE('',#381,#126);
#137=LINE('',#388,#127);
#138=LINE('',#395,#128);
#139=LINE('',#397,#129);
#140=LINE('',#403,#130);
#141=LINE('',#413,#131);
#142=LINE('',#421,#132);
#143=LINE('',#423,#133);
#144=LINE('',#430,#134);
#145=LINE('',#437,#135);
#146=EDGE_CURVE('',#108,#109,#136,.T.);
#147=EDGE_CURVE('',#110,#109,#92,.T.);
#148=EDGE_CURVE('',#109,#110,#92,.T.);
#149=EDGE_CURVE('',#108,#108,#93,.T.);
#150=EDGE_CURVE('',#111,#112,#137,.T.);
#151=EDGE_CURVE('',#112,#112,#94,.T.);
#152=EDGE_CURVE('',#111,#113,#95,.T.);
#153=EDGE_CURVE('',#113,#111,#95,.T.);
#154=EDGE_CURVE('',#110,#113,#138,.T.);
#155=EDGE_CURVE('',#108,#114,#139,.T.);
#156=EDGE_CURVE('',#114,#114,#96,.T.);
#157=EDGE_CURVE('',#115,#116,#140,.T.);
#158=EDGE_CURVE('',#117,#116,#97,.T.);
#159=EDGE_CURVE('',#116,#117,#98,.T.);
#160=EDGE_CURVE('',#115,#118,#99,.T.);
#161=EDGE_CURVE('',#118,#115,#100,.T.);
#162=EDGE_CURVE('',#119,#120,#141,.T.);
#163=EDGE_CURVE('',#121,#120,#101,.T.);
#164=EDGE_CURVE('',#120,#121,#102,.T.);
#165=EDGE_CURVE('',#119,#119,#103,.F.);
#166=EDGE_CURVE('',#121,#118,#142,.T.);
#167=EDGE_CURVE('',#117,#122,#143,.T.);
#168=EDGE_CURVE('',#123,#122,#104,.F.);
#169=EDGE_CURVE('',#122,#123,#105,.F.);
#170=EDGE_CURVE('',#119,#124,#144,.T.);
#171=EDGE_CURVE('',#124,#124,#106,.T.);
#172=EDGE_CURVE('',#125,#125,#107,.F.);
#173=EDGE_CURVE('',#125,#124,#145,.T.);
#174=ORIENTED_EDGE('',*,*,#146,.T.);
#175=ORIENTED_EDGE('',*,*,#147,.F.);
#176=ORIENTED_EDGE('',*,*,#148,.F.);
#177=ORIENTED_EDGE('',*,*,#146,.F.);
#178=ORIENTED_EDGE('',*,*,#149,.T.);
#179=ORIENTED_EDGE('',*,*,#150,.T.);
#180=ORIENTED_EDGE('',*,*,#151,.T.);
#181=ORIENTED_EDGE('',*,*,#150,.F.);
#182=ORIENTED_EDGE('',*,*,#152,.T.);
#183=ORIENTED_EDGE('',*,*,#153,.T.);
#184=ORIENTED_EDGE('',*,*,#154,.T.);
#185=ORIENTED_EDGE('',*,*,#152,.F.);
#186=ORIENTED_EDGE('',*,*,#153,.F.);
#187=ORIENTED_EDGE('',*,*,#154,.F.);
#188=ORIENTED_EDGE('',*,*,#147,.T.);
#189=ORIENTED_EDGE('',*,*,#148,.T.);
#190=ORIENTED_EDGE('',*,*,#155,.T.);
#191=ORIENTED_EDGE('',*,*,#156,.T.);
#192=ORIENTED_EDGE('',*,*,#155,.F.);
#193=ORIENTED_EDGE('',*,*,#149,.F.);
#194=ORIENTED_EDGE('',*,*,#156,.F.);
#195=ORIENTED_EDGE('',*,*,#151,.F.);
#196=ORIENTED_EDGE('',*,*,#157,.T.);
#197=ORIENTED_EDGE('',*,*,#158,.F.);
#198=ORIENTED_EDGE('',*,*,#159,.F.);
#199=ORIENTED_EDGE('',*,*,#157,.F.);
#200=ORIENTED_EDGE('',*,*,#160,.T.);
#201=ORIENTED_EDGE('',*,*,#161,.T.);
#202=ORIENTED_EDGE('',*,*,#162,.T.);
#203=ORIENTED_EDGE('',*,*,#163,.F.);
#204=ORIENTED_EDGE('',*,*,#164,.F.);
#205=ORIENTED_EDGE('',*,*,#162,.F.);
#206=ORIENTED_EDGE('',*,*,#165,.T.);
#207=ORIENTED_EDGE('',*,*,#166,.T.);
#208=ORIENTED_EDGE('',*,*,#160,.F.);
#209=ORIENTED_EDGE('',*,*,#161,.F.);
#210=ORIENTED_EDGE('',*,*,#166,.F.);
#211=ORIENTED_EDGE('',*,*,#163,.T.);
#212=ORIENTED_EDGE('',*,*,#164,.T.);
#213=ORIENTED_EDGE('',*,*,#167,.T.);
#214=ORIENTED_EDGE('',*,*,#168,.F.);
#215=ORIENTED_EDGE('',*,*,#169,.F.);
#216=ORIENTED_EDGE('',*,*,#167,.F.);
#217=ORIENTED_EDGE('',*,*,#158,.T.);
#218=ORIENTED_EDGE('',*,*,#159,.T.);
#219=ORIENTED_EDGE('',*,*,#168,.T.);
#220=ORIENTED_EDGE('',*,*,#169,.T.);
#221=ORIENTED_EDGE('',*,*,#170,.T.);
#222=ORIENTED_EDGE('',*,*,#171,.T.);
#223=ORIENTED_EDGE('',*,*,#170,.F.);
#224=ORIENTED_EDGE('',*,*,#165,.F.);
#225=ORIENTED_EDGE('',*,*,#172,.T.);
#226=ORIENTED_EDGE('',*,*,#173,.T.);
#227=ORIENTED_EDGE('',*,*,#171,.F.);
#228=ORIENTED_EDGE('',*,*,#173,.F.);
#229=ORIENTED_EDGE('',*,*,#172,.F.);
#230=EDGE_LOOP('',(#174,#175,#176,#177,#178));
#231=EDGE_LOOP('',(#179,#180,#181,#182,#183));
#232=EDGE_LOOP('',(#184,#185,#186,#187,#188,#189));
#233=EDGE_LOOP('',(#190,#191,#192,#193));
#234=EDGE_LOOP('',(#194));
#235=EDGE_LOOP('',(#195));
#236=EDGE_LOOP('',(#196,#197,#198,#199,#200,#201));
#237=EDGE_LOOP('',(#202,#203,#204,#205,#206));
#238=EDGE_LOOP('',(#207,#208,#209,#210,#211,#212));
#239=EDGE_LOOP('',(#213,#214,#215,#216,#217,#218));
#240=EDGE_LOOP('',(#219,#220));
#241=EDGE_LOOP('',(#221,#222,#223,#224));
#242=EDGE_LOOP('',(#225));
#243=EDGE_LOOP('',(#226,#227,#228,#229));
#244=FACE_BOUND('',#230,.T.);
#245=FACE_BOUND('',#231,.T.);
#246=FACE_BOUND('',#232,.T.);
#247=FACE_BOUND('',#233,.T.);
#248=FACE_BOUND('',#234,.T.);
#249=FACE_BOUND('',#235,.T.);
#250=FACE_BOUND('',#236,.T.);
#251=FACE_BOUND('',#237,.T.);
#252=FACE_BOUND('',#238,.T.);
#253=FACE_BOUND('',#239,.T.);
#254=FACE_BOUND('',#240,.T.);
#255=FACE_BOUND('',#241,.T.);
#256=FACE_BOUND('',#242,.T.);
#257=FACE_BOUND('',#243,.T.);
#258=ADVANCED_FACE('',(#244),#442,.T.);
#259=ADVANCED_FACE('',(#245),#443,.T.);
#260=ADVANCED_FACE('',(#246),#87,.T.);
#261=ADVANCED_FACE('',(#247),#88,.T.);
#262=ADVANCED_FACE('',(#248),#83,.T.);
#263=ADVANCED_FACE('',(#249),#84,.T.);
#264=ADVANCED_FACE('',(#250),#444,.T.);
#265=ADVANCED_FACE('',(#251),#445,.T.);
#266=ADVANCED_FACE('',(#252),#89,.T.);
#267=ADVANCED_FACE('',(#253),#90,.T.);
#268=ADVANCED_FACE('',(#254),#85,.F.);
#269=ADVANCED_FACE('',(#255),#91,.T.);
#270=ADVANCED_FACE('',(#256),#86,.F.);
#271=ADVANCED_FACE('',(#257),#446,.T.);
#272=AXIS2_PLACEMENT_3D('',#380,#306,#307);
#273=AXIS2_PLACEMENT_3D('',#384,#309,#310);
#274=AXIS2_PLACEMENT_3D('',#386,#311,#312);
#275=AXIS2_PLACEMENT_3D('',#387,#313,#314);
#276=AXIS2_PLACEMENT_3D('',#391,#316,#317);
#277=AXIS2_PLACEMENT_3D('',#392,#318,#319);
#278=AXIS2_PLACEMENT_3D('',#394,#320,#321);
#279=AXIS2_PLACEMENT_3D('',#396,#323,#324);
#280=AXIS2_PLACEMENT_3D('',#399,#326,#327);
#281=AXIS2_PLACEMENT_3D('',#400,#328,$);
#282=AXIS2_PLACEMENT_3D('',#401,#329,$);
#283=AXIS2_PLACEMENT_3D('',#402,#330,#331);
#284=AXIS2_PLACEMENT_3D('',#406,#333,#334);
#285=AXIS2_PLACEMENT_3D('',#408,#335,#336);
#286=AXIS2_PLACEMENT_3D('',#409,#337,#338);
#287=AXIS2_PLACEMENT_3D('',#411,#339,#340);
#288=AXIS2_PLACEMENT_3D('',#412,#341,#342);
#289=AXIS2_PLACEMENT_3D('',#416,#344,#345);
#290=AXIS2_PLACEMENT_3D('',#418,#346,#347);
#291=AXIS2_PLACEMENT_3D('',#419,#348,#349);
#292=AXIS2_PLACEMENT_3D('',#420,#350,#351);
#293=AXIS2_PLACEMENT_3D('',#422,#353,#354);
#294=AXIS2_PLACEMENT_3D('',#425,#356,#357);
#295=AXIS2_PLACEMENT_3D('',#427,#358,#359);
#296=AXIS2_PLACEMENT_3D('',#428,#360,$);
#297=AXIS2_PLACEMENT_3D('',#429,#361,#362);
#298=AXIS2_PLACEMENT_3D('',#432,#364,#365);
#299=AXIS2_PLACEMENT_3D('',#433,#366,$);
#300=AXIS2_PLACEMENT_3D('',#434,#367,#368);
#301=AXIS2_PLACEMENT_3D('',#436,#369,#370);
#302=AXIS2_PLACEMENT_3D('AXIS_PLACEMENT_1',#438,#372,#373);
#303=AXIS2_PLACEMENT_3D('AXIS_PLACEMENT_5',#439,#374,#375);
#304=AXIS2_PLACEMENT_3D('AXIS_PLACEMENT_11',#440,#376,#377);
#305=AXIS2_PLACEMENT_3D('AXIS_PLACEMENT_15',#441,#378,#379);
#306=DIRECTION('',(0.,0.,-1.));
#307=DIRECTION('',(4.975,0.,0.));
#308=DIRECTION('',(0.,0.,1.));
#309=DIRECTION('',(0.,0.,1.));
#310=DIRECTION('',(4.975,0.,0.));
#311=DIRECTION('',(0.,0.,1.));
#312=DIRECTION('',(4.975,0.,0.));
#313=DIRECTION('',(0.,0.,-1.));
#314=DIRECTION('',(4.,0.,0.));
#315=DIRECTION('',(0.,0.,1.));
#316=DIRECTION('',(0.,0.,-1.));
#317=DIRECTION('',(4.,0.,0.));
#318=DIRECTION('',(0.,0.,1.));
#319=DIRECTION('',(4.,0.,0.));
#320=DIRECTION('',(-7.36329014473948E-18,0.,-1.));
#321=DIRECTION('',(-4.,0.,2.94531605789579E-17));
#322=DIRECTION('',(0.882947592278433,0.,0.469471563877642));
#323=DIRECTION('',(-4.14276750169912E-17,0.,1.));
#324=DIRECTION('',(4.965,0.,2.05688406459361E-16));
#325=DIRECTION('',(-0.707106780551956,0.,-0.70710678182114));
#326=DIRECTION('',(0.,0.,1.));
#327=DIRECTION('',(4.965,0.,0.));
#328=DIRECTION('',(0.,0.,-1.));
#329=DIRECTION('',(0.,0.,1.));
#330=DIRECTION('',(0.,0.,-1.));
#331=DIRECTION('',(4.001,0.,0.));
#332=DIRECTION('',(0.,0.,1.));
#333=DIRECTION('',(0.,0.,1.));
#334=DIRECTION('',(4.001,0.,0.));
#335=DIRECTION('',(0.,0.,1.));
#336=DIRECTION('',(4.001,0.,0.));
#337=DIRECTION('',(0.,0.,1.));
#338=DIRECTION('',(4.001,0.,0.));
#339=DIRECTION('',(0.,0.,1.));
#340=DIRECTION('',(4.001,0.,0.));
#341=DIRECTION('',(0.,0.,-1.));
#342=DIRECTION('',(5.,0.,0.));
#343=DIRECTION('',(0.,0.,1.));
#344=DIRECTION('',(0.,0.,1.));
#345=DIRECTION('',(5.,0.,0.));
#346=DIRECTION('',(0.,0.,1.));
#347=DIRECTION('',(5.,0.,0.));
#348=DIRECTION('',(0.,0.,-1.));
#349=DIRECTION('',(5.,0.,0.));
#350=DIRECTION('',(1.0227101089714E-16,0.,-1.));
#351=DIRECTION('',(-5.,0.,-5.113550544857E-16));
#352=DIRECTION('',(0.707106780551956,0.,0.70710678182114));
#353=DIRECTION('',(-8.427399961992E-17,0.,-1.));
#354=DIRECTION('',(-4.001,0.,3.371802724793E-16));
#355=DIRECTION('',(0.707106780551956,0.,0.707106781821139));
#356=DIRECTION('',(0.,0.,-1.));
#357=DIRECTION('',(-4.0000000000018,0.,3.37095998479831E-16));
#358=DIRECTION('',(0.,0.,-1.));
#359=DIRECTION('',(-4.0000000000018,0.,3.37095998479831E-16));
#360=DIRECTION('',(0.,0.,-1.));
#361=DIRECTION('',(-7.14919621851957E-17,0.,1.));
#362=DIRECTION('',(5.,0.,3.57459810925978E-16));
#363=DIRECTION('',(-0.499999999481858,0.,-0.866025404083588));
#364=DIRECTION('',(0.,0.,1.));
#365=DIRECTION('',(4.,0.,0.));
#366=DIRECTION('',(0.,0.,1.));
#367=DIRECTION('',(0.,0.,1.));
#368=DIRECTION('',(4.,0.,0.));
#369=DIRECTION('',(0.,0.,-1.));
#370=DIRECTION('',(4.,0.,0.));
#371=DIRECTION('',(0.,0.,1.));
#372=DIRECTION('DIRECTION2',(0.,0.,1.));
#373=DIRECTION('DIRECTION3',(1.,0.,0.));
#374=DIRECTION('DIRECTION6',(0.,0.,1.));
#375=DIRECTION('DIRECTION7',(1.,0.,0.));
#376=DIRECTION('DIRECTION12',(0.,0.,1.));
#377=DIRECTION('DIRECTION13',(1.,0.,0.));
#378=DIRECTION('DIRECTION16',(0.,0.,1.));
#379=DIRECTION('DIRECTION17',(1.,0.,0.));
#380=CARTESIAN_POINT('',(0.,0.,-2.7896521898052E-15));
#381=CARTESIAN_POINT('',(4.975,0.,-142.45800000002));
#382=CARTESIAN_POINT('',(4.97499999998603,-6.09261782575808E-16,-72.99000000001));
#383=CARTESIAN_POINT('',(4.97499999855527,6.80813685655236E-9,-69.46800000001));
#384=CARTESIAN_POINT('',(6.08593862426367E-32,0.,-69.46800000001));
#385=CARTESIAN_POINT('',(-4.97499999855527,0.,-69.46800000001));
#386=CARTESIAN_POINT('',(1.05348367957982E-31,0.,-72.99000000001));
#387=CARTESIAN_POINT('',(0.,0.,-2.7896521898052E-15));
#388=CARTESIAN_POINT('',(4.,0.,-137.43116660828));
#389=CARTESIAN_POINT('',(4.00000000000207,-2.44929359829217E-16,-68.9495833041361));
#390=CARTESIAN_POINT('',(4.,4.89858719658941E-16,-68.4815833041351));
#391=CARTESIAN_POINT('',(0.,0.,-68.4815833041401));
#392=CARTESIAN_POINT('',(-5.72009181914715E-33,0.,-68.94958330414));
#393=CARTESIAN_POINT('',(-4.00000000000207,0.,-68.9495833041361));
#394=CARTESIAN_POINT('',(0.,0.,-68.94958330413));
#395=CARTESIAN_POINT('',(-4.87749999742018,0.,-69.416158330433));
#396=CARTESIAN_POINT('',(0.,0.,-73.));
#397=CARTESIAN_POINT('',(4.97399999996384,0.,-72.99100000002));
#398=CARTESIAN_POINT('',(4.9649999999975,-6.08037135776661E-16,-73.000000000005));
#399=CARTESIAN_POINT('',(3.08785040935032E-31,0.,-73.00000000001));
#400=CARTESIAN_POINT('',(0.,4.96500000000001,-73.));
#401=CARTESIAN_POINT('',(0.,0.,-68.4815833041301));
#402=CARTESIAN_POINT('',(0.,0.,-2.7896521898052E-15));
#403=CARTESIAN_POINT('',(4.001,0.,-0.0111000000200011));
#404=CARTESIAN_POINT('',(4.001,-2.44990592086621E-16,-0.0100999982068883));
#405=CARTESIAN_POINT('',(4.001,-3.92648506163861E-12,-0.00100000000000234));
#406=CARTESIAN_POINT('',(0.,0.,-0.00100000000000234));
#407=CARTESIAN_POINT('',(-4.001000000005,3.92633240292008E-12,-0.00100000000750195));
#408=CARTESIAN_POINT('',(0.,0.,-0.00100000000000234));
#409=CARTESIAN_POINT('',(0.,0.,-0.0100999982068883));
#410=CARTESIAN_POINT('',(-4.00100000045078,0.,-0.0100999995592232));
#411=CARTESIAN_POINT('',(0.,0.,-0.0100999982068883));
#412=CARTESIAN_POINT('',(0.,0.,-2.7896521898052E-15));
#413=CARTESIAN_POINT('',(5.,0.,-47.3086324965812));
#414=CARTESIAN_POINT('',(4.99999999999711,-6.12323399573677E-16,-46.2995324965712));
#415=CARTESIAN_POINT('',(5.0000000000025,-3.06161699786532E-16,-1.00910000000749));
#416=CARTESIAN_POINT('',(0.,0.,-1.00909999999999));
#417=CARTESIAN_POINT('',(-5.000000000005,0.,-1.00910000000749));
#418=CARTESIAN_POINT('',(0.,0.,-1.00909999999999));
#419=CARTESIAN_POINT('',(0.,0.,-46.2995324965612));
#420=CARTESIAN_POINT('',(0.,0.,-1.00909999999999));
#421=CARTESIAN_POINT('',(-3.90110000199242,0.,0.0897999999799972));
#422=CARTESIAN_POINT('',(0.,0.,-0.00100000000000234));
#423=CARTESIAN_POINT('',(-3.99990000002198,0.,9.99999799970311E-5));
#424=CARTESIAN_POINT('',(-4.0000000000018,9.26528969422843E-12,-3.03468188078693E-15));
#425=CARTESIAN_POINT('',(8.42739996198615E-20,0.,-3.03468188078693E-15));
#426=CARTESIAN_POINT('',(4.00000000000295,-4.63160552938315E-12,-5.00315701411694E-12));
#427=CARTESIAN_POINT('',(8.42739996198615E-20,0.,-3.03468188078693E-15));
#428=CARTESIAN_POINT('',(0.,4.,-3.03457346056968E-15));
#429=CARTESIAN_POINT('',(0.,0.,-46.2995324965612));
#430=CARTESIAN_POINT('',(3.90000000150832,0.,-48.204788384907));
#431=CARTESIAN_POINT('',(4.00000000051597,-4.89858719658941E-16,-48.031583304438));
#432=CARTESIAN_POINT('',(0.,0.,-48.0315833065233));
#433=CARTESIAN_POINT('',(0.,0.,-68.4815833041301));
#434=CARTESIAN_POINT('',(0.,0.,-68.4815833041301));
#435=CARTESIAN_POINT('',(4.,4.89858719658941E-16,-68.4815833041351));
#436=CARTESIAN_POINT('',(0.,0.,-2.7896521898052E-15));
#437=CARTESIAN_POINT('',(4.,0.,-116.51316660828));
#438=CARTESIAN_POINT('CARTESIAN_POINT4',(0.,0.,0.));
#439=CARTESIAN_POINT('CARTESIAN_POINT8',(0.,0.,0.));
#440=CARTESIAN_POINT('CARTESIAN_POINT14',(0.,0.,0.));
#441=CARTESIAN_POINT('CARTESIAN_POINT18',(0.,0.,0.));
#442=CYLINDRICAL_SURFACE('',#272,4.975);
#443=CYLINDRICAL_SURFACE('',#275,4.);
#444=CYLINDRICAL_SURFACE('',#283,4.001);
#445=CYLINDRICAL_SURFACE('',#288,5.);
#446=CYLINDRICAL_SURFACE('',#301,4.);
#447=CLOSED_SHELL('',(#258,#259,#260,#261,#262,#263));
#448=CLOSED_SHELL('',(#264,#265,#266,#267,#268,#269,#270,#271));
#449=MANIFOLD_SOLID_BREP('',#447);
#450=MANIFOLD_SOLID_BREP('',#448);
#451=ADVANCED_BREP_SHAPE_REPRESENTATION('4228 16.662_PART2',(#449),#80);
#452=ADVANCED_BREP_SHAPE_REPRESENTATION('4228 16.662_PART1',(#450),#81);
ENDSEC;
END-ISO-10303-21;
