ISO-10303-21;
HEADER;

/* File generated by Alibre Version V23 */

FILE_DESCRIPTION(('HOOPS Exchange Step'),'2;1');

FILE_NAME('C:\\Users\\User\\AppData\\Local\\Temp\\Alibre Design\\export-AF2E9776-BD5A-4B5D-A64B-656C5D8A3642.stp',
'2022-11-29T10:56:23+01:00',
('User'),
('Alibre'),
'HOOPS Exchange 2021.0',
'Alibre',
'Unknown authorisation');

FILE_SCHEMA( ('AP242_MANAGED_MODEL_BASED_3D_ENGINEERING_MIM_LF {1 0 10303 442 1 1 4 }') );

ENDSEC;

DATA;
#3=(NAMED_UNIT(*)PLANE_ANGLE_UNIT()SI_UNIT($,.RADIAN.));
#4=PLANE_ANGLE_MEASURE_WITH_UNIT(PLANE_ANGLE_MEASURE(0.0174532925),#3);
#5=(CONVERSION_BASED_UNIT('DEGREE',#4)NAMED_UNIT(#6)PLANE_ANGLE_UNIT());
#6=DIMENSIONAL_EXPONENTS(0.,0.,0.,0.,0.,0.,0.);
#7=(NAMED_UNIT(*)SI_UNIT($,.STERADIAN.)SOLID_ANGLE_UNIT());
#8=(LENGTH_UNIT()NAMED_UNIT(*)SI_UNIT(.MILLI.,.METRE.));
#9=UNCERTAINTY_MEASURE_WITH_UNIT(LENGTH_MEASURE(1.000000E-03),#8,'DISTANCE_ACCURACY_VALUE','Maximum Tolerance applied to model');
#10=(GEOMETRIC_REPRESENTATION_CONTEXT(3)GLOBAL_UNCERTAINTY_ASSIGNED_CONTEXT((#9))GLOBAL_UNIT_ASSIGNED_CONTEXT((#8,#5,#7))REPRESENTATION_CONTEXT('','6156 G1_4-G3_8 Micro-thread milling cutter, 9042280166620'));
#12=CARTESIAN_POINT('',(0.,0.,0.));
#13=DIRECTION('',(0.,0.,1.));
#14=DIRECTION('',(1.,0.,0.));
#15=AXIS2_PLACEMENT_3D('',#12,#13,#14);
#26=(NAMED_UNIT(*)PLANE_ANGLE_UNIT()SI_UNIT($,.RADIAN.));
#27=PLANE_ANGLE_MEASURE_WITH_UNIT(PLANE_ANGLE_MEASURE(0.0174532925),#26);
#28=(CONVERSION_BASED_UNIT('DEGREE',#27)NAMED_UNIT(#29)PLANE_ANGLE_UNIT());
#29=DIMENSIONAL_EXPONENTS(0.,0.,0.,0.,0.,0.,0.);
#30=(NAMED_UNIT(*)SI_UNIT($,.STERADIAN.)SOLID_ANGLE_UNIT());
#31=(LENGTH_UNIT()NAMED_UNIT(*)SI_UNIT(.MILLI.,.METRE.));
#32=UNCERTAINTY_MEASURE_WITH_UNIT(LENGTH_MEASURE(1.000000E-06),#31,'DISTANCE_ACCURACY_VALUE','Maximum Tolerance applied to model');
#33=(GEOMETRIC_REPRESENTATION_CONTEXT(3)GLOBAL_UNCERTAINTY_ASSIGNED_CONTEXT((#32))GLOBAL_UNIT_ASSIGNED_CONTEXT((#31,#28,#30))REPRESENTATION_CONTEXT('','4228 16.662_PART2'));
#35=CARTESIAN_POINT('',(0.,0.,0.));
#36=DIRECTION('',(0.,0.,1.));
#37=DIRECTION('',(1.,0.,0.));
#38=AXIS2_PLACEMENT_3D('',#35,#36,#37);
#49=CARTESIAN_POINT('',(0.,0.,0.));
#50=DIRECTION('',(0.,0.,1.));
#51=DIRECTION('',(1.,0.,-0.));
#52=AXIS2_PLACEMENT_3D('',#49,#50,#51);
#53=ITEM_DEFINED_TRANSFORMATION('','',#52,#38);
#54=(REPRESENTATION_RELATIONSHIP('','',#39,#16)REPRESENTATION_RELATIONSHIP_WITH_TRANSFORMATION(#53)SHAPE_REPRESENTATION_RELATIONSHIP());
#55=NEXT_ASSEMBLY_USAGE_OCCURRENCE('4228 16.662_PART2_1','4228 16.662_PART2','4228 16.662_PART2',#25,#48,$);
#56=PRODUCT_DEFINITION_SHAPE('','',#55);
#57=CONTEXT_DEPENDENT_SHAPE_REPRESENTATION(#54,#56);
#59=CARTESIAN_POINT('',(0.,0.,-0.));
#60=DIRECTION('',(0.,0.,-1.));
#61=DIRECTION('',(1.,0.,0.));
#62=AXIS2_PLACEMENT_3D('',#59,#60,#61);
#63=CYLINDRICAL_SURFACE('',#62,4.975);
#64=CARTESIAN_POINT('',(-4.975,-0.,-72.99));
#65=VERTEX_POINT('',#64);
#66=CARTESIAN_POINT('',(-4.974999999,0.,-69.468));
#67=VERTEX_POINT('',#66);
#68=CARTESIAN_POINT('',(-4.975,-0.,-72.99));
#69=DIRECTION('',(-0.,-0.,1.));
#70=VECTOR('',#69,3.522);
#71=LINE('',#68,#70);
#72=EDGE_CURVE('',#65,#67,#71,.T.);
#73=ORIENTED_EDGE('',*,*,#72,.T.);
#74=CARTESIAN_POINT('',(4.974999999,0.000000007,-69.468));
#75=VERTEX_POINT('',#74);
#76=CARTESIAN_POINT('',(0.,0.,-69.468));
#77=DIRECTION('',(0.,0.,1.));
#78=DIRECTION('',(1.,0.,-0.));
#79=AXIS2_PLACEMENT_3D('',#76,#77,#78);
#80=CIRCLE('',#79,4.975);
#81=EDGE_CURVE('',#75,#67,#80,.T.);
#82=ORIENTED_EDGE('',*,*,#81,.F.);
#83=CARTESIAN_POINT('',(4.975,-0.,-72.99));
#84=VERTEX_POINT('',#83);
#85=CARTESIAN_POINT('',(4.975,0.,-72.99));
#86=DIRECTION('',(0.,-0.,1.));
#87=VECTOR('',#86,3.522);
#88=LINE('',#85,#87);
#89=EDGE_CURVE('',#84,#75,#88,.T.);
#90=ORIENTED_EDGE('',*,*,#89,.F.);
#91=CARTESIAN_POINT('',(0.,0.,-72.99));
#92=DIRECTION('',(0.,0.,1.));
#93=DIRECTION('',(1.,0.,-0.));
#94=AXIS2_PLACEMENT_3D('',#91,#92,#93);
#95=CIRCLE('',#94,4.975);
#96=EDGE_CURVE('',#84,#65,#95,.T.);
#97=ORIENTED_EDGE('',*,*,#96,.T.);
#98=EDGE_LOOP('',(#73,#82,#90,#97));
#99=FACE_BOUND('',#98,.T.);
#100=ADVANCED_FACE('',(#99),#63,.T.);
#101=CARTESIAN_POINT('',(0.,0.,-0.));
#102=DIRECTION('',(0.,0.,-1.));
#103=DIRECTION('',(1.,0.,0.));
#104=AXIS2_PLACEMENT_3D('',#101,#102,#103);
#105=CYLINDRICAL_SURFACE('',#104,4.);
#106=CARTESIAN_POINT('',(-4.,0.,-68.949583304));
#107=VERTEX_POINT('',#106);
#108=CARTESIAN_POINT('',(-4.,-0.,-68.481583304));
#109=VERTEX_POINT('',#108);
#110=CARTESIAN_POINT('',(-4.,-0.,-68.949583304));
#111=DIRECTION('',(-0.,-0.,1.));
#112=VECTOR('',#111,0.468);
#113=LINE('',#110,#112);
#114=EDGE_CURVE('',#107,#109,#113,.T.);
#115=ORIENTED_EDGE('',*,*,#114,.T.);
#116=CARTESIAN_POINT('',(4.,0.,-68.481583304));
#117=VERTEX_POINT('',#116);
#118=CARTESIAN_POINT('',(0.,0.,-68.481583304));
#119=DIRECTION('',(0.,0.,-1.));
#120=DIRECTION('',(1.,0.,0.));
#121=AXIS2_PLACEMENT_3D('',#118,#119,#120);
#122=CIRCLE('',#121,4.);
#123=EDGE_CURVE('',#109,#117,#122,.T.);
#124=ORIENTED_EDGE('',*,*,#123,.T.);
#125=CARTESIAN_POINT('',(4.,-0.,-68.949583304));
#126=VERTEX_POINT('',#125);
#127=CARTESIAN_POINT('',(4.,0.,-68.949583304));
#128=DIRECTION('',(0.,-0.,1.));
#129=VECTOR('',#128,0.468);
#130=LINE('',#127,#129);
#131=EDGE_CURVE('',#126,#117,#130,.T.);
#132=ORIENTED_EDGE('',*,*,#131,.F.);
#133=CARTESIAN_POINT('',(-0.,0.,-68.949583304));
#134=DIRECTION('',(0.,0.,1.));
#135=DIRECTION('',(1.,0.,-0.));
#136=AXIS2_PLACEMENT_3D('',#133,#134,#135);
#137=CIRCLE('',#136,4.);
#138=EDGE_CURVE('',#126,#107,#137,.T.);
#139=ORIENTED_EDGE('',*,*,#138,.T.);
#140=EDGE_LOOP('',(#115,#124,#132,#139));
#141=FACE_BOUND('',#140,.T.);
#142=ADVANCED_FACE('',(#141),#105,.T.);
#143=CARTESIAN_POINT('',(0.,0.,-68.949583304));
#144=DIRECTION('',(-0.,0.,-1.));
#145=DIRECTION('',(-1.,0.,0.));
#146=AXIS2_PLACEMENT_3D('',#143,#144,#145);
#147=CONICAL_SURFACE('',#146,4.,61.999999929);
#148=CARTESIAN_POINT('',(4.974999998,0.,-69.468000001));
#149=DIRECTION('',(-0.882947592,-0.,0.469471564));
#150=VECTOR('',#149,1.104255798);
#151=LINE('',#148,#150);
#152=EDGE_CURVE('',#75,#126,#151,.T.);
#153=ORIENTED_EDGE('',*,*,#152,.T.);
#154=CARTESIAN_POINT('',(-0.,0.,-68.949583304));
#155=DIRECTION('',(0.,0.,1.));
#156=DIRECTION('',(1.,0.,-0.));
#157=AXIS2_PLACEMENT_3D('',#154,#155,#156);
#158=CIRCLE('',#157,4.);
#159=EDGE_CURVE('',#107,#126,#158,.T.);
#160=ORIENTED_EDGE('',*,*,#159,.F.);
#161=CARTESIAN_POINT('',(-4.974999998,0.,-69.468000001));
#162=DIRECTION('',(0.882947592,0.,0.469471564));
#163=VECTOR('',#162,1.104255798);
#164=LINE('',#161,#163);
#165=EDGE_CURVE('',#67,#107,#164,.T.);
#166=ORIENTED_EDGE('',*,*,#165,.F.);
#167=CARTESIAN_POINT('',(0.,0.,-69.468));
#168=DIRECTION('',(0.,0.,1.));
#169=DIRECTION('',(1.,0.,-0.));
#170=AXIS2_PLACEMENT_3D('',#167,#168,#169);
#171=CIRCLE('',#170,4.975);
#172=EDGE_CURVE('',#67,#75,#171,.T.);
#173=ORIENTED_EDGE('',*,*,#172,.T.);
#174=EDGE_LOOP('',(#153,#160,#166,#173));
#175=FACE_BOUND('',#174,.T.);
#176=ADVANCED_FACE('',(#175),#147,.T.);
#177=CARTESIAN_POINT('',(0.,0.,-73.));
#178=DIRECTION('',(-0.,0.,1.));
#179=DIRECTION('',(1.,0.,0.));
#180=AXIS2_PLACEMENT_3D('',#177,#178,#179);
#181=CONICAL_SURFACE('',#180,4.965,44.999999949);
#182=CARTESIAN_POINT('',(-4.965,0.,-73.));
#183=VERTEX_POINT('',#182);
#184=CARTESIAN_POINT('',(-4.975,0.,-72.99));
#185=DIRECTION('',(0.707106781,-0.,-0.707106782));
#186=VECTOR('',#185,0.014142136);
#187=LINE('',#184,#186);
#188=EDGE_CURVE('',#65,#183,#187,.T.);
#189=ORIENTED_EDGE('',*,*,#188,.T.);
#190=CARTESIAN_POINT('',(4.965,-0.,-73.));
#191=VERTEX_POINT('',#190);
#192=CARTESIAN_POINT('',(0.,0.,-73.));
#193=DIRECTION('',(0.,0.,1.));
#194=DIRECTION('',(1.,0.,-0.));
#195=AXIS2_PLACEMENT_3D('',#192,#193,#194);
#196=CIRCLE('',#195,4.965);
#197=EDGE_CURVE('',#183,#191,#196,.T.);
#198=ORIENTED_EDGE('',*,*,#197,.T.);
#199=CARTESIAN_POINT('',(4.975,0.,-72.99));
#200=DIRECTION('',(-0.707106781,0.,-0.707106782));
#201=VECTOR('',#200,0.014142136);
#202=LINE('',#199,#201);
#203=EDGE_CURVE('',#84,#191,#202,.T.);
#204=ORIENTED_EDGE('',*,*,#203,.F.);
#205=CARTESIAN_POINT('',(0.,0.,-72.99));
#206=DIRECTION('',(0.,0.,1.));
#207=DIRECTION('',(1.,0.,-0.));
#208=AXIS2_PLACEMENT_3D('',#205,#206,#207);
#209=CIRCLE('',#208,4.975);
#210=EDGE_CURVE('',#65,#84,#209,.T.);
#211=ORIENTED_EDGE('',*,*,#210,.F.);
#212=EDGE_LOOP('',(#189,#198,#204,#211));
#213=FACE_BOUND('',#212,.T.);
#214=ADVANCED_FACE('',(#213),#181,.T.);
#215=CARTESIAN_POINT('',(0.,4.965,-73.));
#216=DIRECTION('',(0.,0.,-1.));
#217=DIRECTION('',(0.,-1.,0.));
#218=AXIS2_PLACEMENT_3D('',#215,#216,#217);
#219=PLANE('',#218);
#220=ORIENTED_EDGE('',*,*,#197,.F.);
#221=CARTESIAN_POINT('',(0.,0.,-73.));
#222=DIRECTION('',(0.,0.,1.));
#223=DIRECTION('',(1.,0.,-0.));
#224=AXIS2_PLACEMENT_3D('',#221,#222,#223);
#225=CIRCLE('',#224,4.965);
#226=EDGE_CURVE('',#191,#183,#225,.T.);
#227=ORIENTED_EDGE('',*,*,#226,.F.);
#228=EDGE_LOOP('',(#220,#227));
#229=FACE_BOUND('',#228,.T.);
#230=ADVANCED_FACE('',(#229),#219,.T.);
#231=CARTESIAN_POINT('',(0.,0.,-68.481583304));
#232=DIRECTION('',(0.,0.,1.));
#233=DIRECTION('',(1.,0.,0.));
#234=AXIS2_PLACEMENT_3D('',#231,#232,#233);
#235=PLANE('',#234);
#236=ORIENTED_EDGE('',*,*,#123,.F.);
#237=CARTESIAN_POINT('',(0.,0.,-68.481583304));
#238=DIRECTION('',(0.,0.,-1.));
#239=DIRECTION('',(1.,0.,0.));
#240=AXIS2_PLACEMENT_3D('',#237,#238,#239);
#241=CIRCLE('',#240,4.);
#242=EDGE_CURVE('',#117,#109,#241,.T.);
#243=ORIENTED_EDGE('',*,*,#242,.F.);
#244=EDGE_LOOP('',(#236,#243));
#245=FACE_BOUND('',#244,.T.);
#246=ADVANCED_FACE('',(#245),#235,.T.);
#247=CARTESIAN_POINT('',(0.,0.,-0.));
#248=DIRECTION('',(0.,0.,-1.));
#249=DIRECTION('',(1.,0.,0.));
#250=AXIS2_PLACEMENT_3D('',#247,#248,#249);
#251=CYLINDRICAL_SURFACE('',#250,4.975);
#252=ORIENTED_EDGE('',*,*,#72,.F.);
#253=ORIENTED_EDGE('',*,*,#210,.T.);
#254=ORIENTED_EDGE('',*,*,#89,.T.);
#255=ORIENTED_EDGE('',*,*,#172,.F.);
#256=EDGE_LOOP('',(#252,#253,#254,#255));
#257=FACE_BOUND('',#256,.T.);
#258=ADVANCED_FACE('',(#257),#251,.T.);
#259=CARTESIAN_POINT('',(0.,0.,-0.));
#260=DIRECTION('',(0.,0.,-1.));
#261=DIRECTION('',(1.,0.,0.));
#262=AXIS2_PLACEMENT_3D('',#259,#260,#261);
#263=CYLINDRICAL_SURFACE('',#262,4.);
#264=ORIENTED_EDGE('',*,*,#114,.F.);
#265=ORIENTED_EDGE('',*,*,#159,.T.);
#266=ORIENTED_EDGE('',*,*,#131,.T.);
#267=ORIENTED_EDGE('',*,*,#242,.T.);
#268=EDGE_LOOP('',(#264,#265,#266,#267));
#269=FACE_BOUND('',#268,.T.);
#270=ADVANCED_FACE('',(#269),#263,.T.);
#271=CARTESIAN_POINT('',(0.,0.,-68.949583304));
#272=DIRECTION('',(-0.,0.,-1.));
#273=DIRECTION('',(-1.,0.,0.));
#274=AXIS2_PLACEMENT_3D('',#271,#272,#273);
#275=CONICAL_SURFACE('',#274,4.,61.999999929);
#276=ORIENTED_EDGE('',*,*,#152,.F.);
#277=ORIENTED_EDGE('',*,*,#81,.T.);
#278=ORIENTED_EDGE('',*,*,#165,.T.);
#279=ORIENTED_EDGE('',*,*,#138,.F.);
#280=EDGE_LOOP('',(#276,#277,#278,#279));
#281=FACE_BOUND('',#280,.T.);
#282=ADVANCED_FACE('',(#281),#275,.T.);
#283=CARTESIAN_POINT('',(0.,0.,-73.));
#284=DIRECTION('',(-0.,0.,1.));
#285=DIRECTION('',(1.,0.,0.));
#286=AXIS2_PLACEMENT_3D('',#283,#284,#285);
#287=CONICAL_SURFACE('',#286,4.965,44.999999949);
#288=ORIENTED_EDGE('',*,*,#188,.F.);
#289=ORIENTED_EDGE('',*,*,#96,.F.);
#290=ORIENTED_EDGE('',*,*,#203,.T.);
#291=ORIENTED_EDGE('',*,*,#226,.T.);
#292=EDGE_LOOP('',(#288,#289,#290,#291));
#293=FACE_BOUND('',#292,.T.);
#294=ADVANCED_FACE('',(#293),#287,.T.);
#295=CLOSED_SHELL('',(#100,#142,#176,#214,#230,#246,#258,#270,#282,#294));
#296=MANIFOLD_SOLID_BREP('1',#295);
#297=COLOUR_RGB('',0.800000012,0.800000012,0.800000012);
#298=FILL_AREA_STYLE_COLOUR('',#297);
#299=FILL_AREA_STYLE('',(#298));
#300=SURFACE_STYLE_FILL_AREA(#299);
#301=SURFACE_SIDE_STYLE('',(#300));
#302=SURFACE_STYLE_USAGE(.BOTH.,#301);
#303=PRESENTATION_STYLE_ASSIGNMENT((#302));
#58=STYLED_ITEM('',(#303),#296);
#304=INTEGER_REPRESENTATION_ITEM('ATTRIB_BOUNDING_BOX_ALGORITHM',3);
#305=ID_ATTRIBUTE('SA #306',#306);
#306=SHAPE_ASPECT('properties','',#46,.F.);
#307=GEOMETRIC_ITEM_SPECIFIC_USAGE('','properties',#306,#40,#296);
#308=PROPERTY_DEFINITION('ATTRIB_BOUNDING_BOX_ALGORITHM','',#306);
#309=REPRESENTATION('',(#304),#33);
#310=PROPERTY_DEFINITION_REPRESENTATION(#308,#309);
#311=GENERAL_PROPERTY('','ATTRIB_BOUNDING_BOX_ALGORITHM','');
#312=GENERAL_PROPERTY_ASSOCIATION('','',#311,#308);
#39=SHAPE_REPRESENTATION('4228 16.662_PART2',(#38),#33);
#40=ADVANCED_BREP_SHAPE_REPRESENTATION('4228 16.662_PART2',(#296),#33);
#320=SHAPE_REPRESENTATION_RELATIONSHIP('','',#39,#40);
#321=CARTESIAN_POINT('',(0.,0.,0.));
#322=DIRECTION('',(0.,0.,1.));
#323=DIRECTION('',(1.,0.,0.));
#324=AXIS2_PLACEMENT_3D('',#321,#322,#323);
#326=MAPPED_ITEM('',#325,#324);
#325=REPRESENTATION_MAP(#324,#39);
#327=APPLICATION_CONTEXT('Managed model based 3d engineering');
#328=APPLICATION_PROTOCOL_DEFINITION('international standard','ap242_managed_model_based_3d_engineering',2013,#327);
#329=PRODUCT_CONTEXT('',#327,'mechanical');
#330=PRODUCT_DEFINITION_CONTEXT('part definition',#327,'design');
#47=PRODUCT('4228 16.662_PART2','4228 16.662_PART2','',(#329));
#331=PRODUCT_RELATED_PRODUCT_CATEGORY('part','',(#47));
#332=PRODUCT_DEFINITION_FORMATION_WITH_SPECIFIED_SOURCE('','',#47,.NOT_KNOWN.);
#48=PRODUCT_DEFINITION('design','',#332,#330);
#46=PRODUCT_DEFINITION_SHAPE('','',#48);
#333=SHAPE_DEFINITION_REPRESENTATION(#46,#39);
#34=DRAUGHTING_MODEL('',(#326),#33);
#334=(NAMED_UNIT(*)PLANE_ANGLE_UNIT()SI_UNIT($,.RADIAN.));
#335=PLANE_ANGLE_MEASURE_WITH_UNIT(PLANE_ANGLE_MEASURE(0.0174532925),#334);
#336=(CONVERSION_BASED_UNIT('DEGREE',#335)NAMED_UNIT(#337)PLANE_ANGLE_UNIT());
#337=DIMENSIONAL_EXPONENTS(0.,0.,0.,0.,0.,0.,0.);
#338=(NAMED_UNIT(*)SI_UNIT($,.STERADIAN.)SOLID_ANGLE_UNIT());
#339=(LENGTH_UNIT()NAMED_UNIT(*)SI_UNIT(.MILLI.,.METRE.));
#340=UNCERTAINTY_MEASURE_WITH_UNIT(LENGTH_MEASURE(1.000000E-06),#339,'DISTANCE_ACCURACY_VALUE','Maximum Tolerance applied to model');
#341=(GEOMETRIC_REPRESENTATION_CONTEXT(3)GLOBAL_UNCERTAINTY_ASSIGNED_CONTEXT((#340))GLOBAL_UNIT_ASSIGNED_CONTEXT((#339,#336,#338))REPRESENTATION_CONTEXT('','4228 16.662_PART1'));
#343=CARTESIAN_POINT('',(0.,0.,0.));
#344=DIRECTION('',(0.,0.,1.));
#345=DIRECTION('',(1.,0.,0.));
#346=AXIS2_PLACEMENT_3D('',#343,#344,#345);
#357=CARTESIAN_POINT('',(0.,0.,0.));
#358=DIRECTION('',(0.,0.,1.));
#359=DIRECTION('',(1.,0.,-0.));
#360=AXIS2_PLACEMENT_3D('',#357,#358,#359);
#361=ITEM_DEFINED_TRANSFORMATION('','',#360,#346);
#362=(REPRESENTATION_RELATIONSHIP('','',#347,#16)REPRESENTATION_RELATIONSHIP_WITH_TRANSFORMATION(#361)SHAPE_REPRESENTATION_RELATIONSHIP());
#363=NEXT_ASSEMBLY_USAGE_OCCURRENCE('4228 16.662_PART1_2','4228 16.662_PART1','4228 16.662_PART1',#25,#356,$);
#364=PRODUCT_DEFINITION_SHAPE('','',#363);
#365=CONTEXT_DEPENDENT_SHAPE_REPRESENTATION(#362,#364);
#367=CARTESIAN_POINT('',(0.,0.,-0.));
#368=DIRECTION('',(0.,0.,-1.));
#369=DIRECTION('',(1.,0.,0.));
#370=AXIS2_PLACEMENT_3D('',#367,#368,#369);
#371=CYLINDRICAL_SURFACE('',#370,4.001);
#372=CARTESIAN_POINT('',(-4.001,0.,-0.0101));
#373=VERTEX_POINT('',#372);
#374=CARTESIAN_POINT('',(-4.001,0.,-0.001));
#375=VERTEX_POINT('',#374);
#376=CARTESIAN_POINT('',(-4.001,-0.,-0.011009998));
#377=DIRECTION('',(-0.,-0.,1.));
#378=VECTOR('',#377,0.010919998);
#379=LINE('',#376,#378);
#380=EDGE_CURVE('',#373,#375,#379,.T.);
#381=ORIENTED_EDGE('',*,*,#380,.T.);
#382=CARTESIAN_POINT('',(4.001,-0.,-0.001));
#383=VERTEX_POINT('',#382);
#384=CARTESIAN_POINT('',(0.,0.,-0.001));
#385=DIRECTION('',(0.,-0.,1.));
#386=DIRECTION('',(1.,0.,0.));
#387=AXIS2_PLACEMENT_3D('',#384,#385,#386);
#388=CIRCLE('',#387,4.001);
#389=EDGE_CURVE('',#383,#375,#388,.T.);
#390=ORIENTED_EDGE('',*,*,#389,.F.);
#391=CARTESIAN_POINT('',(4.001,-0.,-0.010099998));
#392=VERTEX_POINT('',#391);
#393=CARTESIAN_POINT('',(4.001,0.,-0.01101));
#394=DIRECTION('',(0.,-0.,1.));
#395=VECTOR('',#394,0.01092);
#396=LINE('',#393,#395);
#397=EDGE_CURVE('',#392,#383,#396,.T.);
#398=ORIENTED_EDGE('',*,*,#397,.F.);
#399=CARTESIAN_POINT('',(0.,0.,-0.010099998));
#400=DIRECTION('',(0.,-0.,1.));
#401=DIRECTION('',(1.,0.,0.));
#402=AXIS2_PLACEMENT_3D('',#399,#400,#401);
#403=CIRCLE('',#402,4.001);
#404=EDGE_CURVE('',#392,#373,#403,.T.);
#405=ORIENTED_EDGE('',*,*,#404,.T.);
#406=EDGE_LOOP('',(#381,#390,#398,#405));
#407=FACE_BOUND('',#406,.T.);
#408=ADVANCED_FACE('',(#407),#371,.T.);
#409=CARTESIAN_POINT('',(0.,0.,-0.));
#410=DIRECTION('',(0.,0.,-1.));
#411=DIRECTION('',(1.,0.,0.));
#412=AXIS2_PLACEMENT_3D('',#409,#410,#411);
#413=CYLINDRICAL_SURFACE('',#412,5.);
#414=CARTESIAN_POINT('',(-5.,-0.,-46.299532497));
#415=VERTEX_POINT('',#414);
#416=CARTESIAN_POINT('',(-5.,0.,-1.0091));
#417=VERTEX_POINT('',#416);
#418=CARTESIAN_POINT('',(-5.,-0.,-46.299532497));
#419=DIRECTION('',(-0.,-0.,1.));
#420=VECTOR('',#419,45.290432497);
#421=LINE('',#418,#420);
#422=EDGE_CURVE('',#415,#417,#421,.T.);
#423=ORIENTED_EDGE('',*,*,#422,.T.);
#424=CARTESIAN_POINT('',(5.,-0.,-1.0091));
#425=VERTEX_POINT('',#424);
#426=CARTESIAN_POINT('',(0.,0.,-1.0091));
#427=DIRECTION('',(0.,-0.,1.));
#428=DIRECTION('',(1.,0.,0.));
#429=AXIS2_PLACEMENT_3D('',#426,#427,#428);
#430=CIRCLE('',#429,5.);
#431=EDGE_CURVE('',#425,#417,#430,.T.);
#432=ORIENTED_EDGE('',*,*,#431,.F.);
#433=CARTESIAN_POINT('',(5.,-0.,-46.299532497));
#434=VERTEX_POINT('',#433);
#435=CARTESIAN_POINT('',(5.,0.,-46.299532497));
#436=DIRECTION('',(0.,-0.,1.));
#437=VECTOR('',#436,45.290432497);
#438=LINE('',#435,#437);
#439=EDGE_CURVE('',#434,#425,#438,.T.);
#440=ORIENTED_EDGE('',*,*,#439,.F.);
#441=CARTESIAN_POINT('',(0.,0.,-46.299532497));
#442=DIRECTION('',(-0.,-0.,1.));
#443=DIRECTION('',(1.,0.,0.));
#444=AXIS2_PLACEMENT_3D('',#441,#442,#443);
#445=CIRCLE('',#444,5.);
#446=EDGE_CURVE('',#434,#415,#445,.T.);
#447=ORIENTED_EDGE('',*,*,#446,.T.);
#448=EDGE_LOOP('',(#423,#432,#440,#447));
#449=FACE_BOUND('',#448,.T.);
#450=ADVANCED_FACE('',(#449),#413,.T.);
#451=CARTESIAN_POINT('',(0.,0.,-1.0091));
#452=DIRECTION('',(0.,0.,-1.));
#453=DIRECTION('',(-1.,0.,-0.));
#454=AXIS2_PLACEMENT_3D('',#451,#452,#453);
#455=CONICAL_SURFACE('',#454,5.,44.999999949);
#456=CARTESIAN_POINT('',(5.,0.,-1.0091));
#457=DIRECTION('',(-0.707106781,-0.,0.707106782));
#458=VECTOR('',#457,1.41279935);
#459=LINE('',#456,#458);
#460=EDGE_CURVE('',#425,#392,#459,.T.);
#461=ORIENTED_EDGE('',*,*,#460,.T.);
#462=CARTESIAN_POINT('',(0.,0.,-0.010099998));
#463=DIRECTION('',(0.,-0.,1.));
#464=DIRECTION('',(1.,0.,0.));
#465=AXIS2_PLACEMENT_3D('',#462,#463,#464);
#466=CIRCLE('',#465,4.001);
#467=EDGE_CURVE('',#373,#392,#466,.T.);
#468=ORIENTED_EDGE('',*,*,#467,.F.);
#469=CARTESIAN_POINT('',(-5.,0.,-1.0091));
#470=DIRECTION('',(0.707106781,0.,0.707106782));
#471=VECTOR('',#470,1.412799349);
#472=LINE('',#469,#471);
#473=EDGE_CURVE('',#417,#373,#472,.T.);
#474=ORIENTED_EDGE('',*,*,#473,.F.);
#475=CARTESIAN_POINT('',(0.,0.,-1.0091));
#476=DIRECTION('',(0.,-0.,1.));
#477=DIRECTION('',(1.,0.,0.));
#478=AXIS2_PLACEMENT_3D('',#475,#476,#477);
#479=CIRCLE('',#478,5.);
#480=EDGE_CURVE('',#417,#425,#479,.T.);
#481=ORIENTED_EDGE('',*,*,#480,.T.);
#482=EDGE_LOOP('',(#461,#468,#474,#481));
#483=FACE_BOUND('',#482,.T.);
#484=ADVANCED_FACE('',(#483),#455,.T.);
#485=CARTESIAN_POINT('',(0.,0.,-0.001));
#486=DIRECTION('',(-0.,0.,-1.));
#487=DIRECTION('',(-1.,0.,0.));
#488=AXIS2_PLACEMENT_3D('',#485,#486,#487);
#489=CONICAL_SURFACE('',#488,4.001,44.999999949);
#490=CARTESIAN_POINT('',(4.,-0.,-0.));
#491=VERTEX_POINT('',#490);
#492=CARTESIAN_POINT('',(4.0011,0.,-0.0011));
#493=DIRECTION('',(-0.707106781,-0.,0.707106782));
#494=VECTOR('',#493,0.001555635);
#495=LINE('',#492,#494);
#496=EDGE_CURVE('',#383,#491,#495,.T.);
#497=ORIENTED_EDGE('',*,*,#496,.T.);
#498=CARTESIAN_POINT('',(-4.,0.,-0.));
#499=VERTEX_POINT('',#498);
#500=CARTESIAN_POINT('',(0.,0.,-0.));
#501=DIRECTION('',(0.,-0.,1.));
#502=DIRECTION('',(-1.,0.,0.));
#503=AXIS2_PLACEMENT_3D('',#500,#501,#502);
#504=CIRCLE('',#503,4.);
#505=EDGE_CURVE('',#499,#491,#504,.T.);
#506=ORIENTED_EDGE('',*,*,#505,.F.);
#507=CARTESIAN_POINT('',(-4.001,0.,-0.001));
#508=DIRECTION('',(0.707106781,0.,0.707106782));
#509=VECTOR('',#508,0.001555635);
#510=LINE('',#507,#509);
#511=EDGE_CURVE('',#375,#499,#510,.T.);
#512=ORIENTED_EDGE('',*,*,#511,.F.);
#513=CARTESIAN_POINT('',(0.,0.,-0.001));
#514=DIRECTION('',(0.,-0.,1.));
#515=DIRECTION('',(1.,0.,0.));
#516=AXIS2_PLACEMENT_3D('',#513,#514,#515);
#517=CIRCLE('',#516,4.001);
#518=EDGE_CURVE('',#375,#383,#517,.T.);
#519=ORIENTED_EDGE('',*,*,#518,.T.);
#520=EDGE_LOOP('',(#497,#506,#512,#519));
#521=FACE_BOUND('',#520,.T.);
#522=ADVANCED_FACE('',(#521),#489,.T.);
#523=CARTESIAN_POINT('',(0.,4.,-0.));
#524=DIRECTION('',(0.,0.,-1.));
#525=DIRECTION('',(0.,-1.,0.));
#526=AXIS2_PLACEMENT_3D('',#523,#524,#525);
#527=PLANE('',#526);
#528=CARTESIAN_POINT('',(0.,0.,-0.));
#529=DIRECTION('',(0.,-0.,1.));
#530=DIRECTION('',(-1.,0.,0.));
#531=AXIS2_PLACEMENT_3D('',#528,#529,#530);
#532=CIRCLE('',#531,4.);
#533=EDGE_CURVE('',#491,#499,#532,.T.);
#534=ORIENTED_EDGE('',*,*,#533,.T.);
#535=ORIENTED_EDGE('',*,*,#505,.T.);
#536=EDGE_LOOP('',(#534,#535));
#537=FACE_BOUND('',#536,.T.);
#538=ADVANCED_FACE('',(#537),#527,.F.);
#539=CARTESIAN_POINT('',(0.,0.,-46.299532497));
#540=DIRECTION('',(-0.,0.,1.));
#541=DIRECTION('',(1.,0.,0.));
#542=AXIS2_PLACEMENT_3D('',#539,#540,#541);
#543=CONICAL_SURFACE('',#542,5.,29.999999966);
#544=CARTESIAN_POINT('',(-4.,0.,-48.031583307));
#545=VERTEX_POINT('',#544);
#546=CARTESIAN_POINT('',(-5.,0.,-46.299532497));
#547=DIRECTION('',(0.499999999,-0.,-0.866025404));
#548=VECTOR('',#547,2.000000002);
#549=LINE('',#546,#548);
#550=EDGE_CURVE('',#415,#545,#549,.T.);
#551=ORIENTED_EDGE('',*,*,#550,.T.);
#552=CARTESIAN_POINT('',(4.000000001,-0.,-48.031583304));
#553=VERTEX_POINT('',#552);
#554=CARTESIAN_POINT('',(0.,0.,-48.031583307));
#555=DIRECTION('',(0.,-0.,1.));
#556=DIRECTION('',(1.,0.,0.));
#557=AXIS2_PLACEMENT_3D('',#554,#555,#556);
#558=CIRCLE('',#557,4.);
#559=EDGE_CURVE('',#545,#553,#558,.T.);
#560=ORIENTED_EDGE('',*,*,#559,.T.);
#561=CARTESIAN_POINT('',(5.,0.,-46.299532497));
#562=DIRECTION('',(-0.499999999,0.,-0.866025404));
#563=VECTOR('',#562,2.);
#564=LINE('',#561,#563);
#565=EDGE_CURVE('',#434,#553,#564,.T.);
#566=ORIENTED_EDGE('',*,*,#565,.F.);
#567=CARTESIAN_POINT('',(0.,0.,-46.299532497));
#568=DIRECTION('',(-0.,-0.,1.));
#569=DIRECTION('',(1.,0.,0.));
#570=AXIS2_PLACEMENT_3D('',#567,#568,#569);
#571=CIRCLE('',#570,5.);
#572=EDGE_CURVE('',#415,#434,#571,.T.);
#573=ORIENTED_EDGE('',*,*,#572,.F.);
#574=EDGE_LOOP('',(#551,#560,#566,#573));
#575=FACE_BOUND('',#574,.T.);
#576=ADVANCED_FACE('',(#575),#543,.T.);
#577=CARTESIAN_POINT('',(0.,0.,-68.481583304));
#578=DIRECTION('',(0.,0.,1.));
#579=DIRECTION('',(1.,0.,0.));
#580=AXIS2_PLACEMENT_3D('',#577,#578,#579);
#581=PLANE('',#580);
#582=CARTESIAN_POINT('',(4.,0.,-68.481583304));
#583=VERTEX_POINT('',#582);
#584=CARTESIAN_POINT('',(-4.,0.,-68.481583304));
#585=VERTEX_POINT('',#584);
#586=CARTESIAN_POINT('',(0.,0.,-68.481583304));
#587=DIRECTION('',(-0.,-0.,-1.));
#588=DIRECTION('',(1.,0.,-0.));
#589=AXIS2_PLACEMENT_3D('',#586,#587,#588);
#590=CIRCLE('',#589,4.);
#591=EDGE_CURVE('',#583,#585,#590,.T.);
#592=ORIENTED_EDGE('',*,*,#591,.T.);
#593=CARTESIAN_POINT('',(0.,0.,-68.481583304));
#594=DIRECTION('',(-0.,-0.,-1.));
#595=DIRECTION('',(1.,0.,-0.));
#596=AXIS2_PLACEMENT_3D('',#593,#594,#595);
#597=CIRCLE('',#596,4.);
#598=EDGE_CURVE('',#585,#583,#597,.T.);
#599=ORIENTED_EDGE('',*,*,#598,.T.);
#600=EDGE_LOOP('',(#592,#599));
#601=FACE_BOUND('',#600,.T.);
#602=ADVANCED_FACE('',(#601),#581,.F.);
#603=CARTESIAN_POINT('',(0.,0.,-0.));
#604=DIRECTION('',(0.,0.,-1.));
#605=DIRECTION('',(1.,0.,0.));
#606=AXIS2_PLACEMENT_3D('',#603,#604,#605);
#607=CYLINDRICAL_SURFACE('',#606,4.);
#608=CARTESIAN_POINT('',(-4.,-0.,-68.481583304));
#609=DIRECTION('',(-0.,-0.,1.));
#610=VECTOR('',#609,20.449999998);
#611=LINE('',#608,#610);
#612=EDGE_CURVE('',#585,#545,#611,.T.);
#613=ORIENTED_EDGE('',*,*,#612,.T.);
#614=CARTESIAN_POINT('',(0.,0.,-48.031583307));
#615=DIRECTION('',(0.,-0.,1.));
#616=DIRECTION('',(1.,0.,0.));
#617=AXIS2_PLACEMENT_3D('',#614,#615,#616);
#618=CIRCLE('',#617,4.);
#619=EDGE_CURVE('',#553,#545,#618,.T.);
#620=ORIENTED_EDGE('',*,*,#619,.F.);
#621=CARTESIAN_POINT('',(4.,0.,-68.481583304));
#622=DIRECTION('',(0.,-0.,1.));
#623=VECTOR('',#622,20.45);
#624=LINE('',#621,#623);
#625=EDGE_CURVE('',#583,#553,#624,.T.);
#626=ORIENTED_EDGE('',*,*,#625,.F.);
#627=ORIENTED_EDGE('',*,*,#598,.F.);
#628=EDGE_LOOP('',(#613,#620,#626,#627));
#629=FACE_BOUND('',#628,.T.);
#630=ADVANCED_FACE('',(#629),#607,.T.);
#631=CARTESIAN_POINT('',(0.,0.,-0.));
#632=DIRECTION('',(0.,0.,-1.));
#633=DIRECTION('',(1.,0.,0.));
#634=AXIS2_PLACEMENT_3D('',#631,#632,#633);
#635=CYLINDRICAL_SURFACE('',#634,4.001);
#636=ORIENTED_EDGE('',*,*,#380,.F.);
#637=ORIENTED_EDGE('',*,*,#467,.T.);
#638=ORIENTED_EDGE('',*,*,#397,.T.);
#639=ORIENTED_EDGE('',*,*,#518,.F.);
#640=EDGE_LOOP('',(#636,#637,#638,#639));
#641=FACE_BOUND('',#640,.T.);
#642=ADVANCED_FACE('',(#641),#635,.T.);
#643=CARTESIAN_POINT('',(0.,0.,-0.));
#644=DIRECTION('',(0.,0.,-1.));
#645=DIRECTION('',(1.,0.,0.));
#646=AXIS2_PLACEMENT_3D('',#643,#644,#645);
#647=CYLINDRICAL_SURFACE('',#646,5.);
#648=ORIENTED_EDGE('',*,*,#422,.F.);
#649=ORIENTED_EDGE('',*,*,#572,.T.);
#650=ORIENTED_EDGE('',*,*,#439,.T.);
#651=ORIENTED_EDGE('',*,*,#480,.F.);
#652=EDGE_LOOP('',(#648,#649,#650,#651));
#653=FACE_BOUND('',#652,.T.);
#654=ADVANCED_FACE('',(#653),#647,.T.);
#655=CARTESIAN_POINT('',(0.,0.,-1.0091));
#656=DIRECTION('',(0.,0.,-1.));
#657=DIRECTION('',(-1.,0.,-0.));
#658=AXIS2_PLACEMENT_3D('',#655,#656,#657);
#659=CONICAL_SURFACE('',#658,5.,44.999999949);
#660=ORIENTED_EDGE('',*,*,#460,.F.);
#661=ORIENTED_EDGE('',*,*,#431,.T.);
#662=ORIENTED_EDGE('',*,*,#473,.T.);
#663=ORIENTED_EDGE('',*,*,#404,.F.);
#664=EDGE_LOOP('',(#660,#661,#662,#663));
#665=FACE_BOUND('',#664,.T.);
#666=ADVANCED_FACE('',(#665),#659,.T.);
#667=CARTESIAN_POINT('',(0.,0.,-0.001));
#668=DIRECTION('',(-0.,0.,-1.));
#669=DIRECTION('',(-1.,0.,0.));
#670=AXIS2_PLACEMENT_3D('',#667,#668,#669);
#671=CONICAL_SURFACE('',#670,4.001,44.999999949);
#672=ORIENTED_EDGE('',*,*,#496,.F.);
#673=ORIENTED_EDGE('',*,*,#389,.T.);
#674=ORIENTED_EDGE('',*,*,#511,.T.);
#675=ORIENTED_EDGE('',*,*,#533,.F.);
#676=EDGE_LOOP('',(#672,#673,#674,#675));
#677=FACE_BOUND('',#676,.T.);
#678=ADVANCED_FACE('',(#677),#671,.T.);
#679=CARTESIAN_POINT('',(0.,0.,-46.299532497));
#680=DIRECTION('',(-0.,0.,1.));
#681=DIRECTION('',(1.,0.,0.));
#682=AXIS2_PLACEMENT_3D('',#679,#680,#681);
#683=CONICAL_SURFACE('',#682,5.,29.999999966);
#684=ORIENTED_EDGE('',*,*,#550,.F.);
#685=ORIENTED_EDGE('',*,*,#446,.F.);
#686=ORIENTED_EDGE('',*,*,#565,.T.);
#687=ORIENTED_EDGE('',*,*,#619,.T.);
#688=EDGE_LOOP('',(#684,#685,#686,#687));
#689=FACE_BOUND('',#688,.T.);
#690=ADVANCED_FACE('',(#689),#683,.T.);
#691=CARTESIAN_POINT('',(0.,0.,-0.));
#692=DIRECTION('',(0.,0.,-1.));
#693=DIRECTION('',(1.,0.,0.));
#694=AXIS2_PLACEMENT_3D('',#691,#692,#693);
#695=CYLINDRICAL_SURFACE('',#694,4.);
#696=ORIENTED_EDGE('',*,*,#612,.F.);
#697=ORIENTED_EDGE('',*,*,#591,.F.);
#698=ORIENTED_EDGE('',*,*,#625,.T.);
#699=ORIENTED_EDGE('',*,*,#559,.F.);
#700=EDGE_LOOP('',(#696,#697,#698,#699));
#701=FACE_BOUND('',#700,.T.);
#702=ADVANCED_FACE('',(#701),#695,.T.);
#703=CLOSED_SHELL('',(#408,#450,#484,#522,#538,#576,#602,#630,#642,#654,#666,#678,#690,#702));
#704=MANIFOLD_SOLID_BREP('1',#703);
#705=COLOUR_RGB('',0.498039216,0.498039216,0.498039216);
#706=FILL_AREA_STYLE_COLOUR('',#705);
#707=FILL_AREA_STYLE('',(#706));
#708=SURFACE_STYLE_FILL_AREA(#707);
#709=SURFACE_SIDE_STYLE('',(#708));
#710=SURFACE_STYLE_USAGE(.BOTH.,#709);
#711=PRESENTATION_STYLE_ASSIGNMENT((#710));
#366=STYLED_ITEM('',(#711),#704);
#712=INTEGER_REPRESENTATION_ITEM('ATTRIB_BOUNDING_BOX_ALGORITHM',3);
#713=ID_ATTRIBUTE('SA #714',#714);
#714=SHAPE_ASPECT('properties','',#354,.F.);
#715=GEOMETRIC_ITEM_SPECIFIC_USAGE('','properties',#714,#348,#704);
#716=PROPERTY_DEFINITION('ATTRIB_BOUNDING_BOX_ALGORITHM','',#714);
#717=REPRESENTATION('',(#712),#341);
#718=PROPERTY_DEFINITION_REPRESENTATION(#716,#717);
#719=GENERAL_PROPERTY('','ATTRIB_BOUNDING_BOX_ALGORITHM','');
#720=GENERAL_PROPERTY_ASSOCIATION('','',#719,#716);
#347=SHAPE_REPRESENTATION('4228 16.662_PART1',(#346),#341);
#348=ADVANCED_BREP_SHAPE_REPRESENTATION('4228 16.662_PART1',(#704),#341);
#728=SHAPE_REPRESENTATION_RELATIONSHIP('','',#347,#348);
#729=CARTESIAN_POINT('',(0.,0.,0.));
#730=DIRECTION('',(0.,0.,1.));
#731=DIRECTION('',(1.,0.,0.));
#732=AXIS2_PLACEMENT_3D('',#729,#730,#731);
#734=MAPPED_ITEM('',#733,#732);
#733=REPRESENTATION_MAP(#732,#347);
#355=PRODUCT('4228 16.662_PART1','4228 16.662_PART1','',(#329));
#735=PRODUCT_RELATED_PRODUCT_CATEGORY('part','',(#355));
#736=PRODUCT_DEFINITION_FORMATION_WITH_SPECIFIED_SOURCE('','',#355,.NOT_KNOWN.);
#356=PRODUCT_DEFINITION('design','',#736,#330);
#354=PRODUCT_DEFINITION_SHAPE('','',#356);
#737=SHAPE_DEFINITION_REPRESENTATION(#354,#347);
#342=DRAUGHTING_MODEL('',(#734),#341);
#16=SHAPE_REPRESENTATION('6156 G1_4-G3_8 Micro-thread milling cutter, 9042280166620',(#15,#52,#360),#10);
#738=CARTESIAN_POINT('',(0.,0.,0.));
#739=DIRECTION('',(0.,0.,1.));
#740=DIRECTION('',(1.,0.,0.));
#741=AXIS2_PLACEMENT_3D('',#738,#739,#740);
#743=MAPPED_ITEM('',#742,#741);
#742=REPRESENTATION_MAP(#741,#16);
#24=PRODUCT('6156 G1_4-G3_8 Micro-thread milling cutter, 9042280166620','6156 G1_4-G3_8 Micro-thread milling cutter, 9042280166620','',(#329));
#744=PRODUCT_RELATED_PRODUCT_CATEGORY('part','',(#24));
#745=PRODUCT_DEFINITION_FORMATION_WITH_SPECIFIED_SOURCE('','',#24,.NOT_KNOWN.);
#25=PRODUCT_DEFINITION('design','',#745,#330);
#23=PRODUCT_DEFINITION_SHAPE('','',#25);
#746=SHAPE_DEFINITION_REPRESENTATION(#23,#16);
#11=DRAUGHTING_MODEL('',(#743),#10);
#1=MECHANICAL_DESIGN_GEOMETRIC_PRESENTATION_REPRESENTATION('',(#58,#366),#10);
ENDSEC;
END-ISO-10303-21;
