ISO-10303-21;
HEADER;
/* Generated by software containing ST-Developer
 * from STEP Tools, Inc. (www.steptools.com) 
 */

FILE_DESCRIPTION(
/* description */ ('Alibre Inc.'),
/* implementation_level */ '2;1');

FILE_NAME(
/* name */ 'export-B15419CC-E4EA-4C60-8C13-3B09061AB831',
/* time_stamp */ '2022-11-29T10:58:43+01:00',
/* author */ (''),
/* organization */ (''),
/* preprocessor_version */ 'ST-DEVELOPER v17',
/* originating_system */ 'Alibre',
/* authorisation */ '');

FILE_SCHEMA (('AUTOMOTIVE_DESIGN'));
ENDSEC;

DATA;
#10=CONTEXT_DEPENDENT_SHAPE_REPRESENTATION(#16,#44);
#11=CONTEXT_DEPENDENT_SHAPE_REPRESENTATION(#17,#45);
#12=NEXT_ASSEMBLY_USAGE_OCCURRENCE('NAUO_ID9','NAUO_NAME9',$,#48,#46,$);
#13=NEXT_ASSEMBLY_USAGE_OCCURRENCE('NAUO_ID19','NAUO_NAME19',$,#48,#47,
$);
#14=ITEM_DEFINED_TRANSFORMATION('ITD_NAME0',$,#303,#302);
#15=ITEM_DEFINED_TRANSFORMATION('ITD_NAME10',$,#305,#304);
#16=(
REPRESENTATION_RELATIONSHIP('4228 30.201_PART2',$,#63,#65)
REPRESENTATION_RELATIONSHIP_WITH_TRANSFORMATION(#14)
SHAPE_REPRESENTATION_RELATIONSHIP()
);
#17=(
REPRESENTATION_RELATIONSHIP('4228 30.201_PART1',$,#64,#65)
REPRESENTATION_RELATIONSHIP_WITH_TRANSFORMATION(#15)
SHAPE_REPRESENTATION_RELATIONSHIP()
);
#18=STYLED_ITEM('NAME_0',(#33),#449);
#19=STYLED_ITEM('NAME_0',(#34),#450);
#20=MECHANICAL_DESIGN_GEOMETRIC_PRESENTATION_REPRESENTATION('NAME_0',(#18,
#19),#80);
#21=COLOUR_RGB('',0.8,0.8,0.8);
#22=COLOUR_RGB('',0.498039215686275,0.498039215686275,0.498039215686275);
#23=FILL_AREA_STYLE_COLOUR('NAME_0',#21);
#24=FILL_AREA_STYLE_COLOUR('NAME_0',#22);
#25=FILL_AREA_STYLE('NAME_0',(#23));
#26=FILL_AREA_STYLE('NAME_0',(#24));
#27=SURFACE_STYLE_FILL_AREA(#25);
#28=SURFACE_STYLE_FILL_AREA(#26);
#29=SURFACE_SIDE_STYLE('NAME_0',(#27));
#30=SURFACE_SIDE_STYLE('NAME_0',(#28));
#31=SURFACE_STYLE_USAGE(.POSITIVE.,#29);
#32=SURFACE_STYLE_USAGE(.POSITIVE.,#30);
#33=PRESENTATION_STYLE_ASSIGNMENT((#31));
#34=PRESENTATION_STYLE_ASSIGNMENT((#32));
#35=PRODUCT_DEFINITION_CONTEXT('part definition',#56,'design');
#36=PRODUCT_DEFINITION_CONTEXT('part definition',#56,'design');
#37=PRODUCT_DEFINITION_CONTEXT('part definition',#56,'design');
#38=SHAPE_DEFINITION_REPRESENTATION(#41,#63);
#39=SHAPE_DEFINITION_REPRESENTATION(#42,#64);
#40=SHAPE_DEFINITION_REPRESENTATION(#43,#65);
#41=PRODUCT_DEFINITION_SHAPE('PRODUCT_VERSION_ID',
'PRODUCT_VERSION_DESCR',#46);
#42=PRODUCT_DEFINITION_SHAPE('PRODUCT_VERSION_ID',
'PRODUCT_VERSION_DESCR',#47);
#43=PRODUCT_DEFINITION_SHAPE('PRODUCT_VERSION_ID',
'PRODUCT_VERSION_DESCR',#48);
#44=PRODUCT_DEFINITION_SHAPE('NAME_10',$,#12);
#45=PRODUCT_DEFINITION_SHAPE('NAME_20',$,#13);
#46=PRODUCT_DEFINITION('4228 30.201_PART2','PRODUCT_VERSION_DESCR',#49,
#35);
#47=PRODUCT_DEFINITION('4228 30.201_PART1','PRODUCT_VERSION_DESCR',#50,
#36);
#48=PRODUCT_DEFINITION('PRODUCT_VERSION_ID','PRODUCT_VERSION_DESCR',#51,
#37);
#49=PRODUCT_DEFINITION_FORMATION_WITH_SPECIFIED_SOURCE(
'PRODUCT_VERSION_ID','PRODUCT_VERSION_DESCR',#60,.MADE.);
#50=PRODUCT_DEFINITION_FORMATION_WITH_SPECIFIED_SOURCE(
'PRODUCT_VERSION_ID','PRODUCT_VERSION_DESCR',#61,.MADE.);
#51=PRODUCT_DEFINITION_FORMATION_WITH_SPECIFIED_SOURCE(
'PRODUCT_VERSION_ID','PRODUCT_VERSION_DESCR',#62,.MADE.);
#52=PRODUCT_RELATED_PRODUCT_CATEGORY('part','part',(#60));
#53=PRODUCT_RELATED_PRODUCT_CATEGORY('part','part',(#61));
#54=PRODUCT_RELATED_PRODUCT_CATEGORY('part','part',(#62));
#55=APPLICATION_PROTOCOL_DEFINITION('Draft International Standard',
'automotive_design',1994,#56);
#56=APPLICATION_CONTEXT('automotive_Design');
#57=PRODUCT_CONTEXT('3D Mechanical Parts',#56,'mechanical');
#58=PRODUCT_CONTEXT('3D Mechanical Parts',#56,'mechanical');
#59=PRODUCT_CONTEXT('3D Mechanical Parts',#56,'mechanical');
#60=PRODUCT('4228 30.201_PART2','4228 30.201_PART2','',(#57));
#61=PRODUCT('4228 30.201_PART1','4228 30.201_PART1','',(#58));
#62=PRODUCT('4228 30.201',
'6157 G1_2-G7_8 Micro-thread milling cutter, 9042280302010','',(#59));
#63=SHAPE_REPRESENTATION('4228 30.201_PART2',(#303),#80);
#64=SHAPE_REPRESENTATION('4228 30.201_PART1',(#305),#81);
#65=SHAPE_REPRESENTATION('NAME_0',(#302,#304),#82);
#66=SHAPE_REPRESENTATION_RELATIONSHIP('NAME_0',$,#63,#451);
#67=SHAPE_REPRESENTATION_RELATIONSHIP('NAME_0',$,#64,#452);
#68=(
LENGTH_UNIT()
NAMED_UNIT(*)
SI_UNIT(.MILLI.,.METRE.)
);
#69=(
LENGTH_UNIT()
NAMED_UNIT(*)
SI_UNIT(.MILLI.,.METRE.)
);
#70=(
LENGTH_UNIT()
NAMED_UNIT(*)
SI_UNIT(.MILLI.,.METRE.)
);
#71=(
NAMED_UNIT(*)
PLANE_ANGLE_UNIT()
SI_UNIT($,.RADIAN.)
);
#72=(
NAMED_UNIT(*)
PLANE_ANGLE_UNIT()
SI_UNIT($,.RADIAN.)
);
#73=(
NAMED_UNIT(*)
PLANE_ANGLE_UNIT()
SI_UNIT($,.RADIAN.)
);
#74=(
NAMED_UNIT(*)
SI_UNIT($,.STERADIAN.)
SOLID_ANGLE_UNIT()
);
#75=(
NAMED_UNIT(*)
SI_UNIT($,.STERADIAN.)
SOLID_ANGLE_UNIT()
);
#76=(
NAMED_UNIT(*)
SI_UNIT($,.STERADIAN.)
SOLID_ANGLE_UNIT()
);
#77=UNCERTAINTY_MEASURE_WITH_UNIT(LENGTH_MEASURE(1.E-6),#68,
'DISTANCE_ACCURACY_VALUE',
'Maximum model space distance between geometric entities at asserted c
onnectivities');
#78=UNCERTAINTY_MEASURE_WITH_UNIT(LENGTH_MEASURE(1.E-6),#69,
'DISTANCE_ACCURACY_VALUE',
'Maximum model space distance between geometric entities at asserted c
onnectivities');
#79=UNCERTAINTY_MEASURE_WITH_UNIT(LENGTH_MEASURE(1.E-6),#70,
'DISTANCE_ACCURACY_VALUE',
'Maximum model space distance between geometric entities at asserted c
onnectivities');
#80=(
GEOMETRIC_REPRESENTATION_CONTEXT(3)
GLOBAL_UNCERTAINTY_ASSIGNED_CONTEXT((#77))
GLOBAL_UNIT_ASSIGNED_CONTEXT((#74,#71,#68))
REPRESENTATION_CONTEXT('ID1','3D')
);
#81=(
GEOMETRIC_REPRESENTATION_CONTEXT(3)
GLOBAL_UNCERTAINTY_ASSIGNED_CONTEXT((#78))
GLOBAL_UNIT_ASSIGNED_CONTEXT((#75,#72,#69))
REPRESENTATION_CONTEXT('ID1','3D')
);
#82=(
GEOMETRIC_REPRESENTATION_CONTEXT(3)
GLOBAL_UNCERTAINTY_ASSIGNED_CONTEXT((#79))
GLOBAL_UNIT_ASSIGNED_CONTEXT((#76,#73,#70))
REPRESENTATION_CONTEXT('ID1','3D')
);
#83=CONICAL_SURFACE('',#278,5.965,0.7853981625);
#84=CONICAL_SURFACE('',#280,4.675,1.082104135);
#85=CONICAL_SURFACE('',#283,6.,0.523598775);
#86=CONICAL_SURFACE('',#289,5.001,0.7853981625);
#87=CONICAL_SURFACE('',#301,6.,0.7853981625);
#88=PLANE('',#275);
#89=PLANE('',#277);
#90=PLANE('',#288);
#91=PLANE('',#294);
#92=CIRCLE('',#273,4.675);
#93=CIRCLE('',#274,4.675);
#94=CIRCLE('',#276,5.965);
#95=CIRCLE('',#279,5.975);
#96=CIRCLE('',#281,5.975);
#97=CIRCLE('',#284,4.675);
#98=CIRCLE('',#285,6.);
#99=CIRCLE('',#287,4.675);
#100=CIRCLE('',#290,5.0000000000018);
#101=CIRCLE('',#291,5.0000000000018);
#102=CIRCLE('',#292,5.001);
#103=CIRCLE('',#293,5.001);
#104=CIRCLE('',#296,5.001);
#105=CIRCLE('',#297,5.001);
#106=CIRCLE('',#299,6.);
#107=CIRCLE('',#300,6.);
#108=VERTEX_POINT('',#382);
#109=VERTEX_POINT('',#383);
#110=VERTEX_POINT('',#386);
#111=VERTEX_POINT('',#389);
#112=VERTEX_POINT('',#393);
#113=VERTEX_POINT('',#397);
#114=VERTEX_POINT('',#399);
#115=VERTEX_POINT('',#404);
#116=VERTEX_POINT('',#405);
#117=VERTEX_POINT('',#410);
#118=VERTEX_POINT('',#415);
#119=VERTEX_POINT('',#416);
#120=VERTEX_POINT('',#418);
#121=VERTEX_POINT('',#421);
#122=VERTEX_POINT('',#426);
#123=VERTEX_POINT('',#428);
#124=VERTEX_POINT('',#432);
#125=VERTEX_POINT('',#434);
#126=VECTOR('',#308,1.);
#127=VECTOR('',#319,1.);
#128=VECTOR('',#324,1.);
#129=VECTOR('',#329,1.);
#130=VECTOR('',#332,1.);
#131=VECTOR('',#339,1.);
#132=VECTOR('',#345,1.);
#133=VECTOR('',#357,1.);
#134=VECTOR('',#364,1.);
#135=VECTOR('',#371,1.);
#136=LINE('',#381,#126);
#137=LINE('',#392,#127);
#138=LINE('',#396,#128);
#139=LINE('',#401,#129);
#140=LINE('',#403,#130);
#141=LINE('',#409,#131);
#142=LINE('',#414,#132);
#143=LINE('',#425,#133);
#144=LINE('',#431,#134);
#145=LINE('',#437,#135);
#146=EDGE_CURVE('',#108,#109,#136,.T.);
#147=EDGE_CURVE('',#109,#109,#92,.T.);
#148=EDGE_CURVE('',#108,#110,#93,.T.);
#149=EDGE_CURVE('',#110,#108,#93,.T.);
#150=EDGE_CURVE('',#111,#111,#94,.T.);
#151=EDGE_CURVE('',#112,#111,#137,.T.);
#152=EDGE_CURVE('',#112,#112,#95,.T.);
#153=EDGE_CURVE('',#113,#110,#138,.T.);
#154=EDGE_CURVE('',#113,#114,#96,.T.);
#155=EDGE_CURVE('',#114,#113,#96,.T.);
#156=EDGE_CURVE('',#112,#114,#139,.T.);
#157=EDGE_CURVE('',#115,#116,#140,.T.);
#158=EDGE_CURVE('',#116,#116,#97,.T.);
#159=EDGE_CURVE('',#115,#115,#98,.T.);
#160=EDGE_CURVE('',#117,#116,#141,.T.);
#161=EDGE_CURVE('',#117,#117,#99,.T.);
#162=EDGE_CURVE('',#118,#119,#142,.T.);
#163=EDGE_CURVE('',#120,#119,#100,.F.);
#164=EDGE_CURVE('',#119,#120,#101,.F.);
#165=EDGE_CURVE('',#118,#121,#102,.F.);
#166=EDGE_CURVE('',#121,#118,#103,.F.);
#167=EDGE_CURVE('',#122,#121,#143,.T.);
#168=EDGE_CURVE('',#122,#123,#104,.T.);
#169=EDGE_CURVE('',#123,#122,#105,.T.);
#170=EDGE_CURVE('',#115,#124,#144,.T.);
#171=EDGE_CURVE('',#125,#124,#106,.T.);
#172=EDGE_CURVE('',#124,#125,#107,.T.);
#173=EDGE_CURVE('',#125,#123,#145,.T.);
#174=ORIENTED_EDGE('',*,*,#146,.T.);
#175=ORIENTED_EDGE('',*,*,#147,.T.);
#176=ORIENTED_EDGE('',*,*,#146,.F.);
#177=ORIENTED_EDGE('',*,*,#148,.T.);
#178=ORIENTED_EDGE('',*,*,#149,.T.);
#179=ORIENTED_EDGE('',*,*,#150,.F.);
#180=ORIENTED_EDGE('',*,*,#147,.F.);
#181=ORIENTED_EDGE('',*,*,#151,.T.);
#182=ORIENTED_EDGE('',*,*,#150,.T.);
#183=ORIENTED_EDGE('',*,*,#151,.F.);
#184=ORIENTED_EDGE('',*,*,#152,.F.);
#185=ORIENTED_EDGE('',*,*,#153,.T.);
#186=ORIENTED_EDGE('',*,*,#148,.F.);
#187=ORIENTED_EDGE('',*,*,#149,.F.);
#188=ORIENTED_EDGE('',*,*,#153,.F.);
#189=ORIENTED_EDGE('',*,*,#154,.T.);
#190=ORIENTED_EDGE('',*,*,#155,.T.);
#191=ORIENTED_EDGE('',*,*,#156,.T.);
#192=ORIENTED_EDGE('',*,*,#154,.F.);
#193=ORIENTED_EDGE('',*,*,#155,.F.);
#194=ORIENTED_EDGE('',*,*,#156,.F.);
#195=ORIENTED_EDGE('',*,*,#152,.T.);
#196=ORIENTED_EDGE('',*,*,#157,.T.);
#197=ORIENTED_EDGE('',*,*,#158,.T.);
#198=ORIENTED_EDGE('',*,*,#157,.F.);
#199=ORIENTED_EDGE('',*,*,#159,.F.);
#200=ORIENTED_EDGE('',*,*,#160,.T.);
#201=ORIENTED_EDGE('',*,*,#158,.F.);
#202=ORIENTED_EDGE('',*,*,#160,.F.);
#203=ORIENTED_EDGE('',*,*,#161,.F.);
#204=ORIENTED_EDGE('',*,*,#161,.T.);
#205=ORIENTED_EDGE('',*,*,#162,.T.);
#206=ORIENTED_EDGE('',*,*,#163,.F.);
#207=ORIENTED_EDGE('',*,*,#164,.F.);
#208=ORIENTED_EDGE('',*,*,#162,.F.);
#209=ORIENTED_EDGE('',*,*,#165,.T.);
#210=ORIENTED_EDGE('',*,*,#166,.T.);
#211=ORIENTED_EDGE('',*,*,#163,.T.);
#212=ORIENTED_EDGE('',*,*,#164,.T.);
#213=ORIENTED_EDGE('',*,*,#167,.T.);
#214=ORIENTED_EDGE('',*,*,#165,.F.);
#215=ORIENTED_EDGE('',*,*,#166,.F.);
#216=ORIENTED_EDGE('',*,*,#167,.F.);
#217=ORIENTED_EDGE('',*,*,#168,.T.);
#218=ORIENTED_EDGE('',*,*,#169,.T.);
#219=ORIENTED_EDGE('',*,*,#170,.T.);
#220=ORIENTED_EDGE('',*,*,#171,.F.);
#221=ORIENTED_EDGE('',*,*,#172,.F.);
#222=ORIENTED_EDGE('',*,*,#170,.F.);
#223=ORIENTED_EDGE('',*,*,#159,.T.);
#224=ORIENTED_EDGE('',*,*,#173,.T.);
#225=ORIENTED_EDGE('',*,*,#168,.F.);
#226=ORIENTED_EDGE('',*,*,#169,.F.);
#227=ORIENTED_EDGE('',*,*,#173,.F.);
#228=ORIENTED_EDGE('',*,*,#171,.T.);
#229=ORIENTED_EDGE('',*,*,#172,.T.);
#230=EDGE_LOOP('',(#174,#175,#176,#177,#178));
#231=EDGE_LOOP('',(#179));
#232=EDGE_LOOP('',(#180));
#233=EDGE_LOOP('',(#181,#182,#183,#184));
#234=EDGE_LOOP('',(#185,#186,#187,#188,#189,#190));
#235=EDGE_LOOP('',(#191,#192,#193,#194,#195));
#236=EDGE_LOOP('',(#196,#197,#198,#199));
#237=EDGE_LOOP('',(#200,#201,#202,#203));
#238=EDGE_LOOP('',(#204));
#239=EDGE_LOOP('',(#205,#206,#207,#208,#209,#210));
#240=EDGE_LOOP('',(#211,#212));
#241=EDGE_LOOP('',(#213,#214,#215,#216,#217,#218));
#242=EDGE_LOOP('',(#219,#220,#221,#222,#223));
#243=EDGE_LOOP('',(#224,#225,#226,#227,#228,#229));
#244=FACE_BOUND('',#230,.T.);
#245=FACE_BOUND('',#231,.T.);
#246=FACE_BOUND('',#232,.T.);
#247=FACE_BOUND('',#233,.T.);
#248=FACE_BOUND('',#234,.T.);
#249=FACE_BOUND('',#235,.T.);
#250=FACE_BOUND('',#236,.T.);
#251=FACE_BOUND('',#237,.T.);
#252=FACE_BOUND('',#238,.T.);
#253=FACE_BOUND('',#239,.T.);
#254=FACE_BOUND('',#240,.T.);
#255=FACE_BOUND('',#241,.T.);
#256=FACE_BOUND('',#242,.T.);
#257=FACE_BOUND('',#243,.T.);
#258=ADVANCED_FACE('',(#244),#442,.T.);
#259=ADVANCED_FACE('',(#245),#88,.T.);
#260=ADVANCED_FACE('',(#246),#89,.T.);
#261=ADVANCED_FACE('',(#247),#83,.T.);
#262=ADVANCED_FACE('',(#248),#84,.T.);
#263=ADVANCED_FACE('',(#249),#443,.T.);
#264=ADVANCED_FACE('',(#250),#85,.T.);
#265=ADVANCED_FACE('',(#251),#444,.T.);
#266=ADVANCED_FACE('',(#252),#90,.F.);
#267=ADVANCED_FACE('',(#253),#86,.T.);
#268=ADVANCED_FACE('',(#254),#91,.F.);
#269=ADVANCED_FACE('',(#255),#445,.T.);
#270=ADVANCED_FACE('',(#256),#446,.T.);
#271=ADVANCED_FACE('',(#257),#87,.T.);
#272=AXIS2_PLACEMENT_3D('',#380,#306,#307);
#273=AXIS2_PLACEMENT_3D('',#384,#309,#310);
#274=AXIS2_PLACEMENT_3D('',#385,#311,#312);
#275=AXIS2_PLACEMENT_3D('',#387,#313,$);
#276=AXIS2_PLACEMENT_3D('',#388,#314,#315);
#277=AXIS2_PLACEMENT_3D('',#390,#316,$);
#278=AXIS2_PLACEMENT_3D('',#391,#317,#318);
#279=AXIS2_PLACEMENT_3D('',#394,#320,#321);
#280=AXIS2_PLACEMENT_3D('',#395,#322,#323);
#281=AXIS2_PLACEMENT_3D('',#398,#325,#326);
#282=AXIS2_PLACEMENT_3D('',#400,#327,#328);
#283=AXIS2_PLACEMENT_3D('',#402,#330,#331);
#284=AXIS2_PLACEMENT_3D('',#406,#333,#334);
#285=AXIS2_PLACEMENT_3D('',#407,#335,#336);
#286=AXIS2_PLACEMENT_3D('',#408,#337,#338);
#287=AXIS2_PLACEMENT_3D('',#411,#340,#341);
#288=AXIS2_PLACEMENT_3D('',#412,#342,$);
#289=AXIS2_PLACEMENT_3D('',#413,#343,#344);
#290=AXIS2_PLACEMENT_3D('',#417,#346,#347);
#291=AXIS2_PLACEMENT_3D('',#419,#348,#349);
#292=AXIS2_PLACEMENT_3D('',#420,#350,#351);
#293=AXIS2_PLACEMENT_3D('',#422,#352,#353);
#294=AXIS2_PLACEMENT_3D('',#423,#354,$);
#295=AXIS2_PLACEMENT_3D('',#424,#355,#356);
#296=AXIS2_PLACEMENT_3D('',#427,#358,#359);
#297=AXIS2_PLACEMENT_3D('',#429,#360,#361);
#298=AXIS2_PLACEMENT_3D('',#430,#362,#363);
#299=AXIS2_PLACEMENT_3D('',#433,#365,#366);
#300=AXIS2_PLACEMENT_3D('',#435,#367,#368);
#301=AXIS2_PLACEMENT_3D('',#436,#369,#370);
#302=AXIS2_PLACEMENT_3D('AXIS_PLACEMENT_1',#438,#372,#373);
#303=AXIS2_PLACEMENT_3D('AXIS_PLACEMENT_5',#439,#374,#375);
#304=AXIS2_PLACEMENT_3D('AXIS_PLACEMENT_11',#440,#376,#377);
#305=AXIS2_PLACEMENT_3D('AXIS_PLACEMENT_15',#441,#378,#379);
#306=DIRECTION('',(0.,0.,-1.));
#307=DIRECTION('',(4.675,0.,0.));
#308=DIRECTION('',(0.,0.,1.));
#309=DIRECTION('',(0.,0.,-1.));
#310=DIRECTION('',(4.675,0.,0.));
#311=DIRECTION('',(0.,0.,1.));
#312=DIRECTION('',(4.675,0.,0.));
#313=DIRECTION('',(0.,0.,-1.));
#314=DIRECTION('',(0.,0.,1.));
#315=DIRECTION('',(5.965,0.,0.));
#316=DIRECTION('',(0.,0.,1.));
#317=DIRECTION('',(-4.13864929927488E-17,0.,1.));
#318=DIRECTION('',(5.965,0.,2.46870430701747E-16));
#319=DIRECTION('',(-0.707106780551956,0.,-0.70710678182114));
#320=DIRECTION('',(0.,0.,1.));
#321=DIRECTION('',(5.975,0.,0.));
#322=DIRECTION('',(-1.47213079685022E-17,0.,-1.));
#323=DIRECTION('',(-4.675,0.,6.88221147527478E-17));
#324=DIRECTION('',(0.882947592278433,0.,0.469471563877642));
#325=DIRECTION('',(0.,0.,1.));
#326=DIRECTION('',(5.975,0.,0.));
#327=DIRECTION('',(0.,0.,-1.));
#328=DIRECTION('',(5.975,0.,0.));
#329=DIRECTION('',(0.,0.,1.));
#330=DIRECTION('',(-2.37898026979452E-17,0.,1.));
#331=DIRECTION('',(6.,0.,1.42738816187671E-16));
#332=DIRECTION('',(-0.499999999481858,0.,-0.866025404083588));
#333=DIRECTION('',(0.,0.,1.));
#334=DIRECTION('',(4.675,0.,0.));
#335=DIRECTION('',(0.,0.,1.));
#336=DIRECTION('',(6.,0.,0.));
#337=DIRECTION('',(0.,0.,-1.));
#338=DIRECTION('',(4.675,0.,0.));
#339=DIRECTION('',(0.,0.,1.));
#340=DIRECTION('',(0.,0.,-1.));
#341=DIRECTION('',(4.675,0.,0.));
#342=DIRECTION('',(0.,0.,1.));
#343=DIRECTION('',(-8.50738396654932E-17,0.,-1.));
#344=DIRECTION('',(-5.001,0.,4.25454272167132E-16));
#345=DIRECTION('',(0.707106780551956,0.,0.707106781821139));
#346=DIRECTION('',(0.,0.,-1.));
#347=DIRECTION('',(-5.0000000000018,0.,4.25369198327619E-16));
#348=DIRECTION('',(0.,0.,-1.));
#349=DIRECTION('',(-5.0000000000018,0.,4.25369198327619E-16));
#350=DIRECTION('',(0.,0.,-1.));
#351=DIRECTION('',(5.001,0.,0.));
#352=DIRECTION('',(0.,0.,-1.));
#353=DIRECTION('',(5.001,0.,0.));
#354=DIRECTION('',(0.,0.,-1.));
#355=DIRECTION('',(0.,0.,-1.));
#356=DIRECTION('',(5.001,0.,0.));
#357=DIRECTION('',(0.,0.,1.));
#358=DIRECTION('',(0.,0.,1.));
#359=DIRECTION('',(5.001,0.,0.));
#360=DIRECTION('',(0.,0.,1.));
#361=DIRECTION('',(5.001,0.,0.));
#362=DIRECTION('',(0.,0.,-1.));
#363=DIRECTION('',(6.,0.,0.));
#364=DIRECTION('',(0.,0.,1.));
#365=DIRECTION('',(0.,0.,1.));
#366=DIRECTION('',(6.,0.,0.));
#367=DIRECTION('',(0.,0.,1.));
#368=DIRECTION('',(6.,0.,0.));
#369=DIRECTION('',(1.02169349852511E-16,0.,-1.));
#370=DIRECTION('',(-6.,0.,-6.13016099115066E-16));
#371=DIRECTION('',(0.707106780551956,0.,0.70710678182114));
#372=DIRECTION('DIRECTION2',(0.,0.,1.));
#373=DIRECTION('DIRECTION3',(1.,0.,0.));
#374=DIRECTION('DIRECTION6',(0.,0.,1.));
#375=DIRECTION('DIRECTION7',(1.,0.,0.));
#376=DIRECTION('DIRECTION12',(0.,0.,1.));
#377=DIRECTION('DIRECTION13',(1.,0.,0.));
#378=DIRECTION('DIRECTION16',(0.,0.,1.));
#379=DIRECTION('DIRECTION17',(1.,0.,0.));
#380=CARTESIAN_POINT('',(0.,0.,-2.7896521898052E-15));
#381=CARTESIAN_POINT('',(4.675,0.,-156.4415554777));
#382=CARTESIAN_POINT('',(4.67500000000207,-2.8626118930044E-16,-78.5327777388462));
#383=CARTESIAN_POINT('',(4.675,5.72522378601388E-16,-77.9087777388451));
#384=CARTESIAN_POINT('',(0.,0.,-77.9087777388501));
#385=CARTESIAN_POINT('',(4.13064443002198E-32,0.,-78.5327777388501));
#386=CARTESIAN_POINT('',(-4.67500000000207,0.,-78.5327777388462));
#387=CARTESIAN_POINT('',(0.,5.96499999999999,-84.));
#388=CARTESIAN_POINT('',(-1.0321812048916E-31,0.,-84.00000000001));
#389=CARTESIAN_POINT('',(5.9649999999975,-7.30501815691396E-16,-84.000000000005));
#390=CARTESIAN_POINT('',(0.,0.,-77.9087777388401));
#391=CARTESIAN_POINT('',(0.,0.,-84.));
#392=CARTESIAN_POINT('',(5.97399999996384,0.,-83.99100000002));
#393=CARTESIAN_POINT('',(5.97499999998603,-7.31726462490544E-16,-83.99000000001));
#394=CARTESIAN_POINT('',(8.39705455752835E-32,0.,-83.99000000001));
#395=CARTESIAN_POINT('',(0.,0.,-78.5327777388401));
#396=CARTESIAN_POINT('',(-5.84499999654754,0.,-79.154877773904));
#397=CARTESIAN_POINT('',(-5.97499999807047,0.,-79.22400000001));
#398=CARTESIAN_POINT('',(8.62816615085482E-32,0.,-79.22400000001));
#399=CARTESIAN_POINT('',(5.97499999807047,9.09269371481842E-9,-79.22400000001));
#400=CARTESIAN_POINT('',(0.,0.,-2.7896521898052E-15));
#401=CARTESIAN_POINT('',(5.975,0.,-163.21400000002));
#402=CARTESIAN_POINT('',(0.,0.,-44.7998104188113));
#403=CARTESIAN_POINT('',(4.54250000200227,0.,-47.324274470863));
#404=CARTESIAN_POINT('',(5.99999999999711,-7.34788079488412E-16,-44.7998104188213));
#405=CARTESIAN_POINT('',(4.67500000068437,-5.72522378601388E-16,-47.0947777392452));
#406=CARTESIAN_POINT('',(0.,0.,-47.094777742011));
#407=CARTESIAN_POINT('',(0.,0.,-44.7998104188113));
#408=CARTESIAN_POINT('',(0.,0.,-2.7896521898052E-15));
#409=CARTESIAN_POINT('',(4.675,0.,-125.0035554777));
#410=CARTESIAN_POINT('',(4.675,5.72522378601388E-16,-77.9087777388451));
#411=CARTESIAN_POINT('',(0.,0.,-77.9087777388401));
#412=CARTESIAN_POINT('',(0.,0.,-77.9087777388401));
#413=CARTESIAN_POINT('',(0.,0.,-0.00100000000000323));
#414=CARTESIAN_POINT('',(-4.99990000002197,0.,9.99999799970914E-5));
#415=CARTESIAN_POINT('',(-5.001000000005,3.92694703229734E-12,-0.00100000000750235));
#416=CARTESIAN_POINT('',(-5.0000000000018,9.26387136942232E-12,-3.09583088331511E-15));
#417=CARTESIAN_POINT('',(8.50738396655046E-20,0.,-3.09583088331511E-15));
#418=CARTESIAN_POINT('',(5.00000000000295,-4.63154429704183E-12,-5.003248873146E-12));
#419=CARTESIAN_POINT('',(8.50738396655046E-20,0.,-3.09583088331511E-15));
#420=CARTESIAN_POINT('',(0.,0.,-0.00100000000000323));
#421=CARTESIAN_POINT('',(5.001,-3.06222932126336E-16,-0.00100000000000323));
#422=CARTESIAN_POINT('',(0.,0.,-0.00100000000000323));
#423=CARTESIAN_POINT('',(0.,5.,-3.09577667320649E-15));
#424=CARTESIAN_POINT('',(0.,0.,-2.7896521898052E-15));
#425=CARTESIAN_POINT('',(5.001,0.,-0.011100000020002));
#426=CARTESIAN_POINT('',(5.001,-3.06222932043989E-16,-0.0100999982068883));
#427=CARTESIAN_POINT('',(0.,0.,-0.0100999982068883));
#428=CARTESIAN_POINT('',(-5.00100000045078,0.,-0.0100999995592229));
#429=CARTESIAN_POINT('',(0.,0.,-0.0100999982068883));
#430=CARTESIAN_POINT('',(0.,0.,-2.7896521898052E-15));
#431=CARTESIAN_POINT('',(6.,0.,-45.8089104188313));
#432=CARTESIAN_POINT('',(6.0000000000025,-3.673940397439E-16,-1.00910000000749));
#433=CARTESIAN_POINT('',(0.,0.,-1.00909999999999));
#434=CARTESIAN_POINT('',(-6.000000000005,0.,-1.00910000000749));
#435=CARTESIAN_POINT('',(0.,0.,-1.00909999999999));
#436=CARTESIAN_POINT('',(0.,0.,-1.00909999999999));
#437=CARTESIAN_POINT('',(-4.90110000199243,0.,0.089799999979997));
#438=CARTESIAN_POINT('CARTESIAN_POINT4',(0.,0.,0.));
#439=CARTESIAN_POINT('CARTESIAN_POINT8',(0.,0.,0.));
#440=CARTESIAN_POINT('CARTESIAN_POINT14',(0.,0.,0.));
#441=CARTESIAN_POINT('CARTESIAN_POINT18',(0.,0.,0.));
#442=CYLINDRICAL_SURFACE('',#272,4.675);
#443=CYLINDRICAL_SURFACE('',#282,5.975);
#444=CYLINDRICAL_SURFACE('',#286,4.675);
#445=CYLINDRICAL_SURFACE('',#295,5.001);
#446=CYLINDRICAL_SURFACE('',#298,6.);
#447=CLOSED_SHELL('',(#258,#259,#260,#261,#262,#263));
#448=CLOSED_SHELL('',(#264,#265,#266,#267,#268,#269,#270,#271));
#449=MANIFOLD_SOLID_BREP('',#447);
#450=MANIFOLD_SOLID_BREP('',#448);
#451=ADVANCED_BREP_SHAPE_REPRESENTATION('4228 30.201_PART2',(#449),#80);
#452=ADVANCED_BREP_SHAPE_REPRESENTATION('4228 30.201_PART1',(#450),#81);
ENDSEC;
END-ISO-10303-21;
