ISO-10303-21;
HEADER;

/* File generated by Alibre Version V23 */

FILE_DESCRIPTION(('HOOPS Exchange Step'),'2;1');

FILE_NAME('C:\\Users\\User\\AppData\\Local\\Temp\\Alibre Design\\export-5F8D122A-0F8F-4DA4-8F7A-70E0DC8DA108.stp',
'2022-11-29T10:58:27+01:00',
('User'),
('Alibre'),
'HOOPS Exchange 2021.0',
'Alibre',
'Unknown authorisation');

FILE_SCHEMA( ('AP242_MANAGED_MODEL_BASED_3D_ENGINEERING_MIM_LF {1 0 10303 442 1 1 4 }') );

ENDSEC;

DATA;
#3=(NAMED_UNIT(*)PLANE_ANGLE_UNIT()SI_UNIT($,.RADIAN.));
#4=PLANE_ANGLE_MEASURE_WITH_UNIT(PLANE_ANGLE_MEASURE(0.0174532925),#3);
#5=(CONVERSION_BASED_UNIT('DEGREE',#4)NAMED_UNIT(#6)PLANE_ANGLE_UNIT());
#6=DIMENSIONAL_EXPONENTS(0.,0.,0.,0.,0.,0.,0.);
#7=(NAMED_UNIT(*)SI_UNIT($,.STERADIAN.)SOLID_ANGLE_UNIT());
#8=(LENGTH_UNIT()NAMED_UNIT(*)SI_UNIT(.MILLI.,.METRE.));
#9=UNCERTAINTY_MEASURE_WITH_UNIT(LENGTH_MEASURE(1.000000E-03),#8,'DISTANCE_ACCURACY_VALUE','Maximum Tolerance applied to model');
#10=(GEOMETRIC_REPRESENTATION_CONTEXT(3)GLOBAL_UNCERTAINTY_ASSIGNED_CONTEXT((#9))GLOBAL_UNIT_ASSIGNED_CONTEXT((#8,#5,#7))REPRESENTATION_CONTEXT('','6157 G1_2-G7_8 Micro-thread milling cutter, 9042280302010'));
#12=CARTESIAN_POINT('',(0.,0.,0.));
#13=DIRECTION('',(0.,0.,1.));
#14=DIRECTION('',(1.,0.,0.));
#15=AXIS2_PLACEMENT_3D('',#12,#13,#14);
#26=(NAMED_UNIT(*)PLANE_ANGLE_UNIT()SI_UNIT($,.RADIAN.));
#27=PLANE_ANGLE_MEASURE_WITH_UNIT(PLANE_ANGLE_MEASURE(0.0174532925),#26);
#28=(CONVERSION_BASED_UNIT('DEGREE',#27)NAMED_UNIT(#29)PLANE_ANGLE_UNIT());
#29=DIMENSIONAL_EXPONENTS(0.,0.,0.,0.,0.,0.,0.);
#30=(NAMED_UNIT(*)SI_UNIT($,.STERADIAN.)SOLID_ANGLE_UNIT());
#31=(LENGTH_UNIT()NAMED_UNIT(*)SI_UNIT(.MILLI.,.METRE.));
#32=UNCERTAINTY_MEASURE_WITH_UNIT(LENGTH_MEASURE(1.000000E-06),#31,'DISTANCE_ACCURACY_VALUE','Maximum Tolerance applied to model');
#33=(GEOMETRIC_REPRESENTATION_CONTEXT(3)GLOBAL_UNCERTAINTY_ASSIGNED_CONTEXT((#32))GLOBAL_UNIT_ASSIGNED_CONTEXT((#31,#28,#30))REPRESENTATION_CONTEXT('','4228 30.201_PART2'));
#35=CARTESIAN_POINT('',(0.,0.,0.));
#36=DIRECTION('',(0.,0.,1.));
#37=DIRECTION('',(1.,0.,0.));
#38=AXIS2_PLACEMENT_3D('',#35,#36,#37);
#49=CARTESIAN_POINT('',(0.,0.,0.));
#50=DIRECTION('',(0.,0.,1.));
#51=DIRECTION('',(1.,0.,-0.));
#52=AXIS2_PLACEMENT_3D('',#49,#50,#51);
#53=ITEM_DEFINED_TRANSFORMATION('','',#52,#38);
#54=(REPRESENTATION_RELATIONSHIP('','',#39,#16)REPRESENTATION_RELATIONSHIP_WITH_TRANSFORMATION(#53)SHAPE_REPRESENTATION_RELATIONSHIP());
#55=NEXT_ASSEMBLY_USAGE_OCCURRENCE('4228 30.201_PART2_1','4228 30.201_PART2','4228 30.201_PART2',#25,#48,$);
#56=PRODUCT_DEFINITION_SHAPE('','',#55);
#57=CONTEXT_DEPENDENT_SHAPE_REPRESENTATION(#54,#56);
#59=CARTESIAN_POINT('',(0.,0.,-0.));
#60=DIRECTION('',(0.,0.,-1.));
#61=DIRECTION('',(1.,0.,0.));
#62=AXIS2_PLACEMENT_3D('',#59,#60,#61);
#63=CYLINDRICAL_SURFACE('',#62,4.675);
#64=CARTESIAN_POINT('',(-4.675,0.,-78.532777739));
#65=VERTEX_POINT('',#64);
#66=CARTESIAN_POINT('',(-4.675,-0.,-77.908777739));
#67=VERTEX_POINT('',#66);
#68=CARTESIAN_POINT('',(-4.675,-0.,-78.532777739));
#69=DIRECTION('',(-0.,-0.,1.));
#70=VECTOR('',#69,0.624);
#71=LINE('',#68,#70);
#72=EDGE_CURVE('',#65,#67,#71,.T.);
#73=ORIENTED_EDGE('',*,*,#72,.T.);
#74=CARTESIAN_POINT('',(4.675,0.,-77.908777739));
#75=VERTEX_POINT('',#74);
#76=CARTESIAN_POINT('',(0.,0.,-77.908777739));
#77=DIRECTION('',(0.,0.,-1.));
#78=DIRECTION('',(1.,0.,0.));
#79=AXIS2_PLACEMENT_3D('',#76,#77,#78);
#80=CIRCLE('',#79,4.675);
#81=EDGE_CURVE('',#67,#75,#80,.T.);
#82=ORIENTED_EDGE('',*,*,#81,.T.);
#83=CARTESIAN_POINT('',(4.675,-0.,-78.532777739));
#84=VERTEX_POINT('',#83);
#85=CARTESIAN_POINT('',(4.675,0.,-78.532777739));
#86=DIRECTION('',(0.,-0.,1.));
#87=VECTOR('',#86,0.624);
#88=LINE('',#85,#87);
#89=EDGE_CURVE('',#84,#75,#88,.T.);
#90=ORIENTED_EDGE('',*,*,#89,.F.);
#91=CARTESIAN_POINT('',(0.,0.,-78.532777739));
#92=DIRECTION('',(0.,0.,1.));
#93=DIRECTION('',(1.,0.,-0.));
#94=AXIS2_PLACEMENT_3D('',#91,#92,#93);
#95=CIRCLE('',#94,4.675);
#96=EDGE_CURVE('',#84,#65,#95,.T.);
#97=ORIENTED_EDGE('',*,*,#96,.T.);
#98=EDGE_LOOP('',(#73,#82,#90,#97));
#99=FACE_BOUND('',#98,.T.);
#100=ADVANCED_FACE('',(#99),#63,.T.);
#101=CARTESIAN_POINT('',(0.,5.965,-84.));
#102=DIRECTION('',(0.,0.,-1.));
#103=DIRECTION('',(0.,-1.,0.));
#104=AXIS2_PLACEMENT_3D('',#101,#102,#103);
#105=PLANE('',#104);
#106=CARTESIAN_POINT('',(-5.965,0.,-84.));
#107=VERTEX_POINT('',#106);
#108=CARTESIAN_POINT('',(5.965,-0.,-84.));
#109=VERTEX_POINT('',#108);
#110=CARTESIAN_POINT('',(-0.,0.,-84.));
#111=DIRECTION('',(0.,0.,1.));
#112=DIRECTION('',(1.,0.,-0.));
#113=AXIS2_PLACEMENT_3D('',#110,#111,#112);
#114=CIRCLE('',#113,5.965);
#115=EDGE_CURVE('',#107,#109,#114,.T.);
#116=ORIENTED_EDGE('',*,*,#115,.F.);
#117=CARTESIAN_POINT('',(-0.,0.,-84.));
#118=DIRECTION('',(0.,0.,1.));
#119=DIRECTION('',(1.,0.,-0.));
#120=AXIS2_PLACEMENT_3D('',#117,#118,#119);
#121=CIRCLE('',#120,5.965);
#122=EDGE_CURVE('',#109,#107,#121,.T.);
#123=ORIENTED_EDGE('',*,*,#122,.F.);
#124=EDGE_LOOP('',(#116,#123));
#125=FACE_BOUND('',#124,.T.);
#126=ADVANCED_FACE('',(#125),#105,.T.);
#127=CARTESIAN_POINT('',(0.,0.,-77.908777739));
#128=DIRECTION('',(0.,0.,1.));
#129=DIRECTION('',(1.,0.,0.));
#130=AXIS2_PLACEMENT_3D('',#127,#128,#129);
#131=PLANE('',#130);
#132=ORIENTED_EDGE('',*,*,#81,.F.);
#133=CARTESIAN_POINT('',(0.,0.,-77.908777739));
#134=DIRECTION('',(0.,0.,-1.));
#135=DIRECTION('',(1.,0.,0.));
#136=AXIS2_PLACEMENT_3D('',#133,#134,#135);
#137=CIRCLE('',#136,4.675);
#138=EDGE_CURVE('',#75,#67,#137,.T.);
#139=ORIENTED_EDGE('',*,*,#138,.F.);
#140=EDGE_LOOP('',(#132,#139));
#141=FACE_BOUND('',#140,.T.);
#142=ADVANCED_FACE('',(#141),#131,.T.);
#143=CARTESIAN_POINT('',(0.,0.,-84.));
#144=DIRECTION('',(-0.,0.,1.));
#145=DIRECTION('',(1.,0.,0.));
#146=AXIS2_PLACEMENT_3D('',#143,#144,#145);
#147=CONICAL_SURFACE('',#146,5.965,44.999999949);
#148=CARTESIAN_POINT('',(-5.975,0.,-83.99));
#149=VERTEX_POINT('',#148);
#150=CARTESIAN_POINT('',(-5.975,0.,-83.99));
#151=DIRECTION('',(0.707106781,-0.,-0.707106782));
#152=VECTOR('',#151,0.014142136);
#153=LINE('',#150,#152);
#154=EDGE_CURVE('',#149,#107,#153,.T.);
#155=ORIENTED_EDGE('',*,*,#154,.T.);
#156=ORIENTED_EDGE('',*,*,#115,.T.);
#157=CARTESIAN_POINT('',(5.975,-0.,-83.99));
#158=VERTEX_POINT('',#157);
#159=CARTESIAN_POINT('',(5.975,0.,-83.99));
#160=DIRECTION('',(-0.707106781,0.,-0.707106782));
#161=VECTOR('',#160,0.014142136);
#162=LINE('',#159,#161);
#163=EDGE_CURVE('',#158,#109,#162,.T.);
#164=ORIENTED_EDGE('',*,*,#163,.F.);
#165=CARTESIAN_POINT('',(0.,0.,-83.99));
#166=DIRECTION('',(0.,0.,1.));
#167=DIRECTION('',(1.,0.,-0.));
#168=AXIS2_PLACEMENT_3D('',#165,#166,#167);
#169=CIRCLE('',#168,5.975);
#170=EDGE_CURVE('',#149,#158,#169,.T.);
#171=ORIENTED_EDGE('',*,*,#170,.F.);
#172=EDGE_LOOP('',(#155,#156,#164,#171));
#173=FACE_BOUND('',#172,.T.);
#174=ADVANCED_FACE('',(#173),#147,.T.);
#175=CARTESIAN_POINT('',(0.,0.,-78.532777739));
#176=DIRECTION('',(-0.,0.,-1.));
#177=DIRECTION('',(-1.,0.,0.));
#178=AXIS2_PLACEMENT_3D('',#175,#176,#177);
#179=CONICAL_SURFACE('',#178,4.675,61.999999929);
#180=CARTESIAN_POINT('',(5.974999998,0.000000009,-79.224));
#181=VERTEX_POINT('',#180);
#182=CARTESIAN_POINT('',(5.974999998,0.,-79.224000001));
#183=DIRECTION('',(-0.882947592,-0.,0.469471564));
#184=VECTOR('',#183,1.472341064);
#185=LINE('',#182,#184);
#186=EDGE_CURVE('',#181,#84,#185,.T.);
#187=ORIENTED_EDGE('',*,*,#186,.T.);
#188=CARTESIAN_POINT('',(0.,0.,-78.532777739));
#189=DIRECTION('',(0.,0.,1.));
#190=DIRECTION('',(1.,0.,-0.));
#191=AXIS2_PLACEMENT_3D('',#188,#189,#190);
#192=CIRCLE('',#191,4.675);
#193=EDGE_CURVE('',#65,#84,#192,.T.);
#194=ORIENTED_EDGE('',*,*,#193,.F.);
#195=CARTESIAN_POINT('',(-5.974999998,0.,-79.224));
#196=VERTEX_POINT('',#195);
#197=CARTESIAN_POINT('',(-5.974999998,0.,-79.224000001));
#198=DIRECTION('',(0.882947592,0.,0.469471564));
#199=VECTOR('',#198,1.472341064);
#200=LINE('',#197,#199);
#201=EDGE_CURVE('',#196,#65,#200,.T.);
#202=ORIENTED_EDGE('',*,*,#201,.F.);
#203=CARTESIAN_POINT('',(0.,0.,-79.224));
#204=DIRECTION('',(0.,0.,1.));
#205=DIRECTION('',(1.,0.,-0.));
#206=AXIS2_PLACEMENT_3D('',#203,#204,#205);
#207=CIRCLE('',#206,5.975);
#208=EDGE_CURVE('',#196,#181,#207,.T.);
#209=ORIENTED_EDGE('',*,*,#208,.T.);
#210=EDGE_LOOP('',(#187,#194,#202,#209));
#211=FACE_BOUND('',#210,.T.);
#212=ADVANCED_FACE('',(#211),#179,.T.);
#213=CARTESIAN_POINT('',(0.,0.,-0.));
#214=DIRECTION('',(0.,0.,-1.));
#215=DIRECTION('',(1.,0.,0.));
#216=AXIS2_PLACEMENT_3D('',#213,#214,#215);
#217=CYLINDRICAL_SURFACE('',#216,5.975);
#218=CARTESIAN_POINT('',(-5.975,-0.,-83.99));
#219=DIRECTION('',(-0.,-0.,1.));
#220=VECTOR('',#219,4.766);
#221=LINE('',#218,#220);
#222=EDGE_CURVE('',#149,#196,#221,.T.);
#223=ORIENTED_EDGE('',*,*,#222,.T.);
#224=CARTESIAN_POINT('',(0.,0.,-79.224));
#225=DIRECTION('',(0.,0.,1.));
#226=DIRECTION('',(1.,0.,-0.));
#227=AXIS2_PLACEMENT_3D('',#224,#225,#226);
#228=CIRCLE('',#227,5.975);
#229=EDGE_CURVE('',#181,#196,#228,.T.);
#230=ORIENTED_EDGE('',*,*,#229,.F.);
#231=CARTESIAN_POINT('',(5.975,0.,-83.99));
#232=DIRECTION('',(0.,-0.,1.));
#233=VECTOR('',#232,4.766);
#234=LINE('',#231,#233);
#235=EDGE_CURVE('',#158,#181,#234,.T.);
#236=ORIENTED_EDGE('',*,*,#235,.F.);
#237=CARTESIAN_POINT('',(0.,0.,-83.99));
#238=DIRECTION('',(0.,0.,1.));
#239=DIRECTION('',(1.,0.,-0.));
#240=AXIS2_PLACEMENT_3D('',#237,#238,#239);
#241=CIRCLE('',#240,5.975);
#242=EDGE_CURVE('',#158,#149,#241,.T.);
#243=ORIENTED_EDGE('',*,*,#242,.T.);
#244=EDGE_LOOP('',(#223,#230,#236,#243));
#245=FACE_BOUND('',#244,.T.);
#246=ADVANCED_FACE('',(#245),#217,.T.);
#247=CARTESIAN_POINT('',(0.,0.,-0.));
#248=DIRECTION('',(0.,0.,-1.));
#249=DIRECTION('',(1.,0.,0.));
#250=AXIS2_PLACEMENT_3D('',#247,#248,#249);
#251=CYLINDRICAL_SURFACE('',#250,4.675);
#252=ORIENTED_EDGE('',*,*,#72,.F.);
#253=ORIENTED_EDGE('',*,*,#193,.T.);
#254=ORIENTED_EDGE('',*,*,#89,.T.);
#255=ORIENTED_EDGE('',*,*,#138,.T.);
#256=EDGE_LOOP('',(#252,#253,#254,#255));
#257=FACE_BOUND('',#256,.T.);
#258=ADVANCED_FACE('',(#257),#251,.T.);
#259=CARTESIAN_POINT('',(0.,0.,-84.));
#260=DIRECTION('',(-0.,0.,1.));
#261=DIRECTION('',(1.,0.,0.));
#262=AXIS2_PLACEMENT_3D('',#259,#260,#261);
#263=CONICAL_SURFACE('',#262,5.965,44.999999949);
#264=ORIENTED_EDGE('',*,*,#154,.F.);
#265=ORIENTED_EDGE('',*,*,#242,.F.);
#266=ORIENTED_EDGE('',*,*,#163,.T.);
#267=ORIENTED_EDGE('',*,*,#122,.T.);
#268=EDGE_LOOP('',(#264,#265,#266,#267));
#269=FACE_BOUND('',#268,.T.);
#270=ADVANCED_FACE('',(#269),#263,.T.);
#271=CARTESIAN_POINT('',(0.,0.,-78.532777739));
#272=DIRECTION('',(-0.,0.,-1.));
#273=DIRECTION('',(-1.,0.,0.));
#274=AXIS2_PLACEMENT_3D('',#271,#272,#273);
#275=CONICAL_SURFACE('',#274,4.675,61.999999929);
#276=ORIENTED_EDGE('',*,*,#186,.F.);
#277=ORIENTED_EDGE('',*,*,#229,.T.);
#278=ORIENTED_EDGE('',*,*,#201,.T.);
#279=ORIENTED_EDGE('',*,*,#96,.F.);
#280=EDGE_LOOP('',(#276,#277,#278,#279));
#281=FACE_BOUND('',#280,.T.);
#282=ADVANCED_FACE('',(#281),#275,.T.);
#283=CARTESIAN_POINT('',(0.,0.,-0.));
#284=DIRECTION('',(0.,0.,-1.));
#285=DIRECTION('',(1.,0.,0.));
#286=AXIS2_PLACEMENT_3D('',#283,#284,#285);
#287=CYLINDRICAL_SURFACE('',#286,5.975);
#288=ORIENTED_EDGE('',*,*,#222,.F.);
#289=ORIENTED_EDGE('',*,*,#170,.T.);
#290=ORIENTED_EDGE('',*,*,#235,.T.);
#291=ORIENTED_EDGE('',*,*,#208,.F.);
#292=EDGE_LOOP('',(#288,#289,#290,#291));
#293=FACE_BOUND('',#292,.T.);
#294=ADVANCED_FACE('',(#293),#287,.T.);
#295=CLOSED_SHELL('',(#100,#126,#142,#174,#212,#246,#258,#270,#282,#294));
#296=MANIFOLD_SOLID_BREP('1',#295);
#297=COLOUR_RGB('',0.800000012,0.800000012,0.800000012);
#298=FILL_AREA_STYLE_COLOUR('',#297);
#299=FILL_AREA_STYLE('',(#298));
#300=SURFACE_STYLE_FILL_AREA(#299);
#301=SURFACE_SIDE_STYLE('',(#300));
#302=SURFACE_STYLE_USAGE(.BOTH.,#301);
#303=PRESENTATION_STYLE_ASSIGNMENT((#302));
#58=STYLED_ITEM('',(#303),#296);
#304=INTEGER_REPRESENTATION_ITEM('ATTRIB_BOUNDING_BOX_ALGORITHM',3);
#305=ID_ATTRIBUTE('SA #306',#306);
#306=SHAPE_ASPECT('properties','',#46,.F.);
#307=GEOMETRIC_ITEM_SPECIFIC_USAGE('','properties',#306,#40,#296);
#308=PROPERTY_DEFINITION('ATTRIB_BOUNDING_BOX_ALGORITHM','',#306);
#309=REPRESENTATION('',(#304),#33);
#310=PROPERTY_DEFINITION_REPRESENTATION(#308,#309);
#311=GENERAL_PROPERTY('','ATTRIB_BOUNDING_BOX_ALGORITHM','');
#312=GENERAL_PROPERTY_ASSOCIATION('','',#311,#308);
#39=SHAPE_REPRESENTATION('4228 30.201_PART2',(#38),#33);
#40=ADVANCED_BREP_SHAPE_REPRESENTATION('4228 30.201_PART2',(#296),#33);
#320=SHAPE_REPRESENTATION_RELATIONSHIP('','',#39,#40);
#321=CARTESIAN_POINT('',(0.,0.,0.));
#322=DIRECTION('',(0.,0.,1.));
#323=DIRECTION('',(1.,0.,0.));
#324=AXIS2_PLACEMENT_3D('',#321,#322,#323);
#326=MAPPED_ITEM('',#325,#324);
#325=REPRESENTATION_MAP(#324,#39);
#327=APPLICATION_CONTEXT('Managed model based 3d engineering');
#328=APPLICATION_PROTOCOL_DEFINITION('international standard','ap242_managed_model_based_3d_engineering',2013,#327);
#329=PRODUCT_CONTEXT('',#327,'mechanical');
#330=PRODUCT_DEFINITION_CONTEXT('part definition',#327,'design');
#47=PRODUCT('4228 30.201_PART2','4228 30.201_PART2','',(#329));
#331=PRODUCT_RELATED_PRODUCT_CATEGORY('part','',(#47));
#332=PRODUCT_DEFINITION_FORMATION_WITH_SPECIFIED_SOURCE('','',#47,.NOT_KNOWN.);
#48=PRODUCT_DEFINITION('design','',#332,#330);
#46=PRODUCT_DEFINITION_SHAPE('','',#48);
#333=SHAPE_DEFINITION_REPRESENTATION(#46,#39);
#34=DRAUGHTING_MODEL('',(#326),#33);
#334=(NAMED_UNIT(*)PLANE_ANGLE_UNIT()SI_UNIT($,.RADIAN.));
#335=PLANE_ANGLE_MEASURE_WITH_UNIT(PLANE_ANGLE_MEASURE(0.0174532925),#334);
#336=(CONVERSION_BASED_UNIT('DEGREE',#335)NAMED_UNIT(#337)PLANE_ANGLE_UNIT());
#337=DIMENSIONAL_EXPONENTS(0.,0.,0.,0.,0.,0.,0.);
#338=(NAMED_UNIT(*)SI_UNIT($,.STERADIAN.)SOLID_ANGLE_UNIT());
#339=(LENGTH_UNIT()NAMED_UNIT(*)SI_UNIT(.MILLI.,.METRE.));
#340=UNCERTAINTY_MEASURE_WITH_UNIT(LENGTH_MEASURE(1.000000E-06),#339,'DISTANCE_ACCURACY_VALUE','Maximum Tolerance applied to model');
#341=(GEOMETRIC_REPRESENTATION_CONTEXT(3)GLOBAL_UNCERTAINTY_ASSIGNED_CONTEXT((#340))GLOBAL_UNIT_ASSIGNED_CONTEXT((#339,#336,#338))REPRESENTATION_CONTEXT('','4228 30.201_PART1'));
#343=CARTESIAN_POINT('',(0.,0.,0.));
#344=DIRECTION('',(0.,0.,1.));
#345=DIRECTION('',(1.,0.,0.));
#346=AXIS2_PLACEMENT_3D('',#343,#344,#345);
#357=CARTESIAN_POINT('',(0.,0.,0.));
#358=DIRECTION('',(0.,0.,1.));
#359=DIRECTION('',(1.,0.,-0.));
#360=AXIS2_PLACEMENT_3D('',#357,#358,#359);
#361=ITEM_DEFINED_TRANSFORMATION('','',#360,#346);
#362=(REPRESENTATION_RELATIONSHIP('','',#347,#16)REPRESENTATION_RELATIONSHIP_WITH_TRANSFORMATION(#361)SHAPE_REPRESENTATION_RELATIONSHIP());
#363=NEXT_ASSEMBLY_USAGE_OCCURRENCE('4228 30.201_PART1_2','4228 30.201_PART1','4228 30.201_PART1',#25,#356,$);
#364=PRODUCT_DEFINITION_SHAPE('','',#363);
#365=CONTEXT_DEPENDENT_SHAPE_REPRESENTATION(#362,#364);
#367=CARTESIAN_POINT('',(0.,0.,-44.799810419));
#368=DIRECTION('',(-0.,0.,1.));
#369=DIRECTION('',(1.,0.,0.));
#370=AXIS2_PLACEMENT_3D('',#367,#368,#369);
#371=CONICAL_SURFACE('',#370,6.,29.999999966);
#372=CARTESIAN_POINT('',(-6.,0.,-44.799810419));
#373=VERTEX_POINT('',#372);
#374=CARTESIAN_POINT('',(-4.675,0.,-47.094777742));
#375=VERTEX_POINT('',#374);
#376=CARTESIAN_POINT('',(-6.,0.,-44.799810419));
#377=DIRECTION('',(0.499999999,-0.,-0.866025404));
#378=VECTOR('',#377,2.650000003);
#379=LINE('',#376,#378);
#380=EDGE_CURVE('',#373,#375,#379,.T.);
#381=ORIENTED_EDGE('',*,*,#380,.T.);
#382=CARTESIAN_POINT('',(4.675000001,-0.,-47.094777739));
#383=VERTEX_POINT('',#382);
#384=CARTESIAN_POINT('',(0.,0.,-47.094777742));
#385=DIRECTION('',(0.,-0.,1.));
#386=DIRECTION('',(1.,0.,0.));
#387=AXIS2_PLACEMENT_3D('',#384,#385,#386);
#388=CIRCLE('',#387,4.675);
#389=EDGE_CURVE('',#375,#383,#388,.T.);
#390=ORIENTED_EDGE('',*,*,#389,.T.);
#391=CARTESIAN_POINT('',(6.,-0.,-44.799810419));
#392=VERTEX_POINT('',#391);
#393=CARTESIAN_POINT('',(6.,0.,-44.799810419));
#394=DIRECTION('',(-0.499999999,0.,-0.866025404));
#395=VECTOR('',#394,2.65);
#396=LINE('',#393,#395);
#397=EDGE_CURVE('',#392,#383,#396,.T.);
#398=ORIENTED_EDGE('',*,*,#397,.F.);
#399=CARTESIAN_POINT('',(0.,0.,-44.799810419));
#400=DIRECTION('',(0.,-0.,1.));
#401=DIRECTION('',(1.,0.,0.));
#402=AXIS2_PLACEMENT_3D('',#399,#400,#401);
#403=CIRCLE('',#402,6.);
#404=EDGE_CURVE('',#373,#392,#403,.T.);
#405=ORIENTED_EDGE('',*,*,#404,.F.);
#406=EDGE_LOOP('',(#381,#390,#398,#405));
#407=FACE_BOUND('',#406,.T.);
#408=ADVANCED_FACE('',(#407),#371,.T.);
#409=CARTESIAN_POINT('',(0.,0.,-0.));
#410=DIRECTION('',(0.,0.,-1.));
#411=DIRECTION('',(1.,0.,0.));
#412=AXIS2_PLACEMENT_3D('',#409,#410,#411);
#413=CYLINDRICAL_SURFACE('',#412,4.675);
#414=CARTESIAN_POINT('',(-4.675,-0.,-77.908777739));
#415=VERTEX_POINT('',#414);
#416=CARTESIAN_POINT('',(-4.675,-0.,-77.908777739));
#417=DIRECTION('',(-0.,-0.,1.));
#418=VECTOR('',#417,30.813999997);
#419=LINE('',#416,#418);
#420=EDGE_CURVE('',#415,#375,#419,.T.);
#421=ORIENTED_EDGE('',*,*,#420,.T.);
#422=CARTESIAN_POINT('',(0.,0.,-47.094777742));
#423=DIRECTION('',(0.,-0.,1.));
#424=DIRECTION('',(1.,0.,0.));
#425=AXIS2_PLACEMENT_3D('',#422,#423,#424);
#426=CIRCLE('',#425,4.675);
#427=EDGE_CURVE('',#383,#375,#426,.T.);
#428=ORIENTED_EDGE('',*,*,#427,.F.);
#429=CARTESIAN_POINT('',(4.675,0.,-77.908777739));
#430=VERTEX_POINT('',#429);
#431=CARTESIAN_POINT('',(4.675,0.,-77.908777739));
#432=DIRECTION('',(0.,-0.,1.));
#433=VECTOR('',#432,30.814);
#434=LINE('',#431,#433);
#435=EDGE_CURVE('',#430,#383,#434,.T.);
#436=ORIENTED_EDGE('',*,*,#435,.F.);
#437=CARTESIAN_POINT('',(0.,0.,-77.908777739));
#438=DIRECTION('',(0.,0.,-1.));
#439=DIRECTION('',(1.,0.,0.));
#440=AXIS2_PLACEMENT_3D('',#437,#438,#439);
#441=CIRCLE('',#440,4.675);
#442=EDGE_CURVE('',#415,#430,#441,.T.);
#443=ORIENTED_EDGE('',*,*,#442,.F.);
#444=EDGE_LOOP('',(#421,#428,#436,#443));
#445=FACE_BOUND('',#444,.T.);
#446=ADVANCED_FACE('',(#445),#413,.T.);
#447=CARTESIAN_POINT('',(0.,0.,-77.908777739));
#448=DIRECTION('',(0.,0.,1.));
#449=DIRECTION('',(1.,0.,0.));
#450=AXIS2_PLACEMENT_3D('',#447,#448,#449);
#451=PLANE('',#450);
#452=CARTESIAN_POINT('',(0.,0.,-77.908777739));
#453=DIRECTION('',(0.,0.,-1.));
#454=DIRECTION('',(1.,0.,0.));
#455=AXIS2_PLACEMENT_3D('',#452,#453,#454);
#456=CIRCLE('',#455,4.675);
#457=EDGE_CURVE('',#430,#415,#456,.T.);
#458=ORIENTED_EDGE('',*,*,#457,.T.);
#459=ORIENTED_EDGE('',*,*,#442,.T.);
#460=EDGE_LOOP('',(#458,#459));
#461=FACE_BOUND('',#460,.T.);
#462=ADVANCED_FACE('',(#461),#451,.F.);
#463=CARTESIAN_POINT('',(0.,0.,-0.001));
#464=DIRECTION('',(-0.,0.,-1.));
#465=DIRECTION('',(-1.,0.,0.));
#466=AXIS2_PLACEMENT_3D('',#463,#464,#465);
#467=CONICAL_SURFACE('',#466,5.001,44.999999949);
#468=CARTESIAN_POINT('',(5.001,-0.,-0.001));
#469=VERTEX_POINT('',#468);
#470=CARTESIAN_POINT('',(5.,-0.,-0.));
#471=VERTEX_POINT('',#470);
#472=CARTESIAN_POINT('',(5.0011,0.,-0.0011));
#473=DIRECTION('',(-0.707106781,-0.,0.707106782));
#474=VECTOR('',#473,0.001555635);
#475=LINE('',#472,#474);
#476=EDGE_CURVE('',#469,#471,#475,.T.);
#477=ORIENTED_EDGE('',*,*,#476,.T.);
#478=CARTESIAN_POINT('',(-5.,0.,-0.));
#479=VERTEX_POINT('',#478);
#480=CARTESIAN_POINT('',(0.,0.,-0.));
#481=DIRECTION('',(0.,-0.,1.));
#482=DIRECTION('',(-1.,0.,0.));
#483=AXIS2_PLACEMENT_3D('',#480,#481,#482);
#484=CIRCLE('',#483,5.);
#485=EDGE_CURVE('',#479,#471,#484,.T.);
#486=ORIENTED_EDGE('',*,*,#485,.F.);
#487=CARTESIAN_POINT('',(-5.001,0.,-0.001));
#488=VERTEX_POINT('',#487);
#489=CARTESIAN_POINT('',(-5.001,0.,-0.001));
#490=DIRECTION('',(0.707106781,0.,0.707106782));
#491=VECTOR('',#490,0.001555635);
#492=LINE('',#489,#491);
#493=EDGE_CURVE('',#488,#479,#492,.T.);
#494=ORIENTED_EDGE('',*,*,#493,.F.);
#495=CARTESIAN_POINT('',(0.,0.,-0.001));
#496=DIRECTION('',(-0.,-0.,1.));
#497=DIRECTION('',(1.,0.,0.));
#498=AXIS2_PLACEMENT_3D('',#495,#496,#497);
#499=CIRCLE('',#498,5.001);
#500=EDGE_CURVE('',#488,#469,#499,.T.);
#501=ORIENTED_EDGE('',*,*,#500,.T.);
#502=EDGE_LOOP('',(#477,#486,#494,#501));
#503=FACE_BOUND('',#502,.T.);
#504=ADVANCED_FACE('',(#503),#467,.T.);
#505=CARTESIAN_POINT('',(0.,5.,-0.));
#506=DIRECTION('',(0.,0.,-1.));
#507=DIRECTION('',(0.,-1.,0.));
#508=AXIS2_PLACEMENT_3D('',#505,#506,#507);
#509=PLANE('',#508);
#510=CARTESIAN_POINT('',(0.,0.,-0.));
#511=DIRECTION('',(0.,-0.,1.));
#512=DIRECTION('',(-1.,0.,0.));
#513=AXIS2_PLACEMENT_3D('',#510,#511,#512);
#514=CIRCLE('',#513,5.);
#515=EDGE_CURVE('',#471,#479,#514,.T.);
#516=ORIENTED_EDGE('',*,*,#515,.T.);
#517=ORIENTED_EDGE('',*,*,#485,.T.);
#518=EDGE_LOOP('',(#516,#517));
#519=FACE_BOUND('',#518,.T.);
#520=ADVANCED_FACE('',(#519),#509,.F.);
#521=CARTESIAN_POINT('',(0.,0.,-0.));
#522=DIRECTION('',(0.,0.,-1.));
#523=DIRECTION('',(1.,0.,0.));
#524=AXIS2_PLACEMENT_3D('',#521,#522,#523);
#525=CYLINDRICAL_SURFACE('',#524,5.001);
#526=CARTESIAN_POINT('',(-5.001,0.,-0.0101));
#527=VERTEX_POINT('',#526);
#528=CARTESIAN_POINT('',(-5.001,-0.,-0.011009998));
#529=DIRECTION('',(-0.,-0.,1.));
#530=VECTOR('',#529,0.010919998);
#531=LINE('',#528,#530);
#532=EDGE_CURVE('',#527,#488,#531,.T.);
#533=ORIENTED_EDGE('',*,*,#532,.T.);
#534=CARTESIAN_POINT('',(0.,0.,-0.001));
#535=DIRECTION('',(-0.,-0.,1.));
#536=DIRECTION('',(1.,0.,0.));
#537=AXIS2_PLACEMENT_3D('',#534,#535,#536);
#538=CIRCLE('',#537,5.001);
#539=EDGE_CURVE('',#469,#488,#538,.T.);
#540=ORIENTED_EDGE('',*,*,#539,.F.);
#541=CARTESIAN_POINT('',(5.001,-0.,-0.010099998));
#542=VERTEX_POINT('',#541);
#543=CARTESIAN_POINT('',(5.001,0.,-0.01101));
#544=DIRECTION('',(0.,-0.,1.));
#545=VECTOR('',#544,0.01092);
#546=LINE('',#543,#545);
#547=EDGE_CURVE('',#542,#469,#546,.T.);
#548=ORIENTED_EDGE('',*,*,#547,.F.);
#549=CARTESIAN_POINT('',(0.,0.,-0.010099998));
#550=DIRECTION('',(0.,-0.,1.));
#551=DIRECTION('',(1.,0.,0.));
#552=AXIS2_PLACEMENT_3D('',#549,#550,#551);
#553=CIRCLE('',#552,5.001);
#554=EDGE_CURVE('',#542,#527,#553,.T.);
#555=ORIENTED_EDGE('',*,*,#554,.T.);
#556=EDGE_LOOP('',(#533,#540,#548,#555));
#557=FACE_BOUND('',#556,.T.);
#558=ADVANCED_FACE('',(#557),#525,.T.);
#559=CARTESIAN_POINT('',(0.,0.,-0.));
#560=DIRECTION('',(0.,0.,-1.));
#561=DIRECTION('',(1.,0.,0.));
#562=AXIS2_PLACEMENT_3D('',#559,#560,#561);
#563=CYLINDRICAL_SURFACE('',#562,6.);
#564=CARTESIAN_POINT('',(-6.,0.,-1.0091));
#565=VERTEX_POINT('',#564);
#566=CARTESIAN_POINT('',(-6.,-0.,-44.799810419));
#567=DIRECTION('',(-0.,-0.,1.));
#568=VECTOR('',#567,43.790710419);
#569=LINE('',#566,#568);
#570=EDGE_CURVE('',#373,#565,#569,.T.);
#571=ORIENTED_EDGE('',*,*,#570,.T.);
#572=CARTESIAN_POINT('',(6.,-0.,-1.0091));
#573=VERTEX_POINT('',#572);
#574=CARTESIAN_POINT('',(0.,0.,-1.0091));
#575=DIRECTION('',(0.,-0.,1.));
#576=DIRECTION('',(1.,0.,0.));
#577=AXIS2_PLACEMENT_3D('',#574,#575,#576);
#578=CIRCLE('',#577,6.);
#579=EDGE_CURVE('',#573,#565,#578,.T.);
#580=ORIENTED_EDGE('',*,*,#579,.F.);
#581=CARTESIAN_POINT('',(6.,0.,-44.799810419));
#582=DIRECTION('',(0.,-0.,1.));
#583=VECTOR('',#582,43.790710419);
#584=LINE('',#581,#583);
#585=EDGE_CURVE('',#392,#573,#584,.T.);
#586=ORIENTED_EDGE('',*,*,#585,.F.);
#587=CARTESIAN_POINT('',(0.,0.,-44.799810419));
#588=DIRECTION('',(0.,-0.,1.));
#589=DIRECTION('',(1.,0.,0.));
#590=AXIS2_PLACEMENT_3D('',#587,#588,#589);
#591=CIRCLE('',#590,6.);
#592=EDGE_CURVE('',#392,#373,#591,.T.);
#593=ORIENTED_EDGE('',*,*,#592,.T.);
#594=EDGE_LOOP('',(#571,#580,#586,#593));
#595=FACE_BOUND('',#594,.T.);
#596=ADVANCED_FACE('',(#595),#563,.T.);
#597=CARTESIAN_POINT('',(0.,0.,-1.0091));
#598=DIRECTION('',(0.,0.,-1.));
#599=DIRECTION('',(-1.,0.,-0.));
#600=AXIS2_PLACEMENT_3D('',#597,#598,#599);
#601=CONICAL_SURFACE('',#600,6.,44.999999949);
#602=CARTESIAN_POINT('',(6.,0.,-1.0091));
#603=DIRECTION('',(-0.707106781,-0.,0.707106782));
#604=VECTOR('',#603,1.41279935);
#605=LINE('',#602,#604);
#606=EDGE_CURVE('',#573,#542,#605,.T.);
#607=ORIENTED_EDGE('',*,*,#606,.T.);
#608=CARTESIAN_POINT('',(0.,0.,-0.010099998));
#609=DIRECTION('',(0.,-0.,1.));
#610=DIRECTION('',(1.,0.,0.));
#611=AXIS2_PLACEMENT_3D('',#608,#609,#610);
#612=CIRCLE('',#611,5.001);
#613=EDGE_CURVE('',#527,#542,#612,.T.);
#614=ORIENTED_EDGE('',*,*,#613,.F.);
#615=CARTESIAN_POINT('',(-6.,0.,-1.0091));
#616=DIRECTION('',(0.707106781,0.,0.707106782));
#617=VECTOR('',#616,1.412799349);
#618=LINE('',#615,#617);
#619=EDGE_CURVE('',#565,#527,#618,.T.);
#620=ORIENTED_EDGE('',*,*,#619,.F.);
#621=CARTESIAN_POINT('',(0.,0.,-1.0091));
#622=DIRECTION('',(0.,-0.,1.));
#623=DIRECTION('',(1.,0.,0.));
#624=AXIS2_PLACEMENT_3D('',#621,#622,#623);
#625=CIRCLE('',#624,6.);
#626=EDGE_CURVE('',#565,#573,#625,.T.);
#627=ORIENTED_EDGE('',*,*,#626,.T.);
#628=EDGE_LOOP('',(#607,#614,#620,#627));
#629=FACE_BOUND('',#628,.T.);
#630=ADVANCED_FACE('',(#629),#601,.T.);
#631=CARTESIAN_POINT('',(0.,0.,-44.799810419));
#632=DIRECTION('',(-0.,0.,1.));
#633=DIRECTION('',(1.,0.,0.));
#634=AXIS2_PLACEMENT_3D('',#631,#632,#633);
#635=CONICAL_SURFACE('',#634,6.,29.999999966);
#636=ORIENTED_EDGE('',*,*,#380,.F.);
#637=ORIENTED_EDGE('',*,*,#592,.F.);
#638=ORIENTED_EDGE('',*,*,#397,.T.);
#639=ORIENTED_EDGE('',*,*,#427,.T.);
#640=EDGE_LOOP('',(#636,#637,#638,#639));
#641=FACE_BOUND('',#640,.T.);
#642=ADVANCED_FACE('',(#641),#635,.T.);
#643=CARTESIAN_POINT('',(0.,0.,-0.));
#644=DIRECTION('',(0.,0.,-1.));
#645=DIRECTION('',(1.,0.,0.));
#646=AXIS2_PLACEMENT_3D('',#643,#644,#645);
#647=CYLINDRICAL_SURFACE('',#646,4.675);
#648=ORIENTED_EDGE('',*,*,#420,.F.);
#649=ORIENTED_EDGE('',*,*,#457,.F.);
#650=ORIENTED_EDGE('',*,*,#435,.T.);
#651=ORIENTED_EDGE('',*,*,#389,.F.);
#652=EDGE_LOOP('',(#648,#649,#650,#651));
#653=FACE_BOUND('',#652,.T.);
#654=ADVANCED_FACE('',(#653),#647,.T.);
#655=CARTESIAN_POINT('',(0.,0.,-0.001));
#656=DIRECTION('',(-0.,0.,-1.));
#657=DIRECTION('',(-1.,0.,0.));
#658=AXIS2_PLACEMENT_3D('',#655,#656,#657);
#659=CONICAL_SURFACE('',#658,5.001,44.999999949);
#660=ORIENTED_EDGE('',*,*,#476,.F.);
#661=ORIENTED_EDGE('',*,*,#539,.T.);
#662=ORIENTED_EDGE('',*,*,#493,.T.);
#663=ORIENTED_EDGE('',*,*,#515,.F.);
#664=EDGE_LOOP('',(#660,#661,#662,#663));
#665=FACE_BOUND('',#664,.T.);
#666=ADVANCED_FACE('',(#665),#659,.T.);
#667=CARTESIAN_POINT('',(0.,0.,-0.));
#668=DIRECTION('',(0.,0.,-1.));
#669=DIRECTION('',(1.,0.,0.));
#670=AXIS2_PLACEMENT_3D('',#667,#668,#669);
#671=CYLINDRICAL_SURFACE('',#670,5.001);
#672=ORIENTED_EDGE('',*,*,#532,.F.);
#673=ORIENTED_EDGE('',*,*,#613,.T.);
#674=ORIENTED_EDGE('',*,*,#547,.T.);
#675=ORIENTED_EDGE('',*,*,#500,.F.);
#676=EDGE_LOOP('',(#672,#673,#674,#675));
#677=FACE_BOUND('',#676,.T.);
#678=ADVANCED_FACE('',(#677),#671,.T.);
#679=CARTESIAN_POINT('',(0.,0.,-0.));
#680=DIRECTION('',(0.,0.,-1.));
#681=DIRECTION('',(1.,0.,0.));
#682=AXIS2_PLACEMENT_3D('',#679,#680,#681);
#683=CYLINDRICAL_SURFACE('',#682,6.);
#684=ORIENTED_EDGE('',*,*,#570,.F.);
#685=ORIENTED_EDGE('',*,*,#404,.T.);
#686=ORIENTED_EDGE('',*,*,#585,.T.);
#687=ORIENTED_EDGE('',*,*,#626,.F.);
#688=EDGE_LOOP('',(#684,#685,#686,#687));
#689=FACE_BOUND('',#688,.T.);
#690=ADVANCED_FACE('',(#689),#683,.T.);
#691=CARTESIAN_POINT('',(0.,0.,-1.0091));
#692=DIRECTION('',(0.,0.,-1.));
#693=DIRECTION('',(-1.,0.,-0.));
#694=AXIS2_PLACEMENT_3D('',#691,#692,#693);
#695=CONICAL_SURFACE('',#694,6.,44.999999949);
#696=ORIENTED_EDGE('',*,*,#606,.F.);
#697=ORIENTED_EDGE('',*,*,#579,.T.);
#698=ORIENTED_EDGE('',*,*,#619,.T.);
#699=ORIENTED_EDGE('',*,*,#554,.F.);
#700=EDGE_LOOP('',(#696,#697,#698,#699));
#701=FACE_BOUND('',#700,.T.);
#702=ADVANCED_FACE('',(#701),#695,.T.);
#703=CLOSED_SHELL('',(#408,#446,#462,#504,#520,#558,#596,#630,#642,#654,#666,#678,#690,#702));
#704=MANIFOLD_SOLID_BREP('1',#703);
#705=COLOUR_RGB('',0.498039216,0.498039216,0.498039216);
#706=FILL_AREA_STYLE_COLOUR('',#705);
#707=FILL_AREA_STYLE('',(#706));
#708=SURFACE_STYLE_FILL_AREA(#707);
#709=SURFACE_SIDE_STYLE('',(#708));
#710=SURFACE_STYLE_USAGE(.BOTH.,#709);
#711=PRESENTATION_STYLE_ASSIGNMENT((#710));
#366=STYLED_ITEM('',(#711),#704);
#712=INTEGER_REPRESENTATION_ITEM('ATTRIB_BOUNDING_BOX_ALGORITHM',3);
#713=ID_ATTRIBUTE('SA #714',#714);
#714=SHAPE_ASPECT('properties','',#354,.F.);
#715=GEOMETRIC_ITEM_SPECIFIC_USAGE('','properties',#714,#348,#704);
#716=PROPERTY_DEFINITION('ATTRIB_BOUNDING_BOX_ALGORITHM','',#714);
#717=REPRESENTATION('',(#712),#341);
#718=PROPERTY_DEFINITION_REPRESENTATION(#716,#717);
#719=GENERAL_PROPERTY('','ATTRIB_BOUNDING_BOX_ALGORITHM','');
#720=GENERAL_PROPERTY_ASSOCIATION('','',#719,#716);
#347=SHAPE_REPRESENTATION('4228 30.201_PART1',(#346),#341);
#348=ADVANCED_BREP_SHAPE_REPRESENTATION('4228 30.201_PART1',(#704),#341);
#728=SHAPE_REPRESENTATION_RELATIONSHIP('','',#347,#348);
#729=CARTESIAN_POINT('',(0.,0.,0.));
#730=DIRECTION('',(0.,0.,1.));
#731=DIRECTION('',(1.,0.,0.));
#732=AXIS2_PLACEMENT_3D('',#729,#730,#731);
#734=MAPPED_ITEM('',#733,#732);
#733=REPRESENTATION_MAP(#732,#347);
#355=PRODUCT('4228 30.201_PART1','4228 30.201_PART1','',(#329));
#735=PRODUCT_RELATED_PRODUCT_CATEGORY('part','',(#355));
#736=PRODUCT_DEFINITION_FORMATION_WITH_SPECIFIED_SOURCE('','',#355,.NOT_KNOWN.);
#356=PRODUCT_DEFINITION('design','',#736,#330);
#354=PRODUCT_DEFINITION_SHAPE('','',#356);
#737=SHAPE_DEFINITION_REPRESENTATION(#354,#347);
#342=DRAUGHTING_MODEL('',(#734),#341);
#16=SHAPE_REPRESENTATION('6157 G1_2-G7_8 Micro-thread milling cutter, 9042280302010',(#15,#52,#360),#10);
#738=CARTESIAN_POINT('',(0.,0.,0.));
#739=DIRECTION('',(0.,0.,1.));
#740=DIRECTION('',(1.,0.,0.));
#741=AXIS2_PLACEMENT_3D('',#738,#739,#740);
#743=MAPPED_ITEM('',#742,#741);
#742=REPRESENTATION_MAP(#741,#16);
#24=PRODUCT('6157 G1_2-G7_8 Micro-thread milling cutter, 9042280302010','6157 G1_2-G7_8 Micro-thread milling cutter, 9042280302010','',(#329));
#744=PRODUCT_RELATED_PRODUCT_CATEGORY('part','',(#24));
#745=PRODUCT_DEFINITION_FORMATION_WITH_SPECIFIED_SOURCE('','',#24,.NOT_KNOWN.);
#25=PRODUCT_DEFINITION('design','',#745,#330);
#23=PRODUCT_DEFINITION_SHAPE('','',#25);
#746=SHAPE_DEFINITION_REPRESENTATION(#23,#16);
#11=DRAUGHTING_MODEL('',(#743),#10);
#1=MECHANICAL_DESIGN_GEOMETRIC_PRESENTATION_REPRESENTATION('',(#58,#366),#10);
ENDSEC;
END-ISO-10303-21;
