ISO-10303-21;
HEADER;
/* Generated by software containing ST-Developer
 * from STEP Tools, Inc. (www.steptools.com) 
 */

FILE_DESCRIPTION(
/* description */ ('Alibre Inc.'),
/* implementation_level */ '2;1');

FILE_NAME(
/* name */ 'export-51CA7E89-B413-4325-9232-0ADA618678B3',
/* time_stamp */ '2022-11-29T11:00:13+01:00',
/* author */ (''),
/* organization */ (''),
/* preprocessor_version */ 'ST-DEVELOPER v17',
/* originating_system */ 'Alibre',
/* authorisation */ '');

FILE_SCHEMA (('AUTOMOTIVE_DESIGN'));
ENDSEC;

DATA;
#10=CONTEXT_DEPENDENT_SHAPE_REPRESENTATION(#16,#44);
#11=CONTEXT_DEPENDENT_SHAPE_REPRESENTATION(#17,#45);
#12=NEXT_ASSEMBLY_USAGE_OCCURRENCE('NAUO_ID9','NAUO_NAME9',$,#48,#46,$);
#13=NEXT_ASSEMBLY_USAGE_OCCURRENCE('NAUO_ID19','NAUO_NAME19',$,#48,#47,
$);
#14=ITEM_DEFINED_TRANSFORMATION('ITD_NAME0',$,#303,#302);
#15=ITEM_DEFINED_TRANSFORMATION('ITD_NAME10',$,#305,#304);
#16=(
REPRESENTATION_RELATIONSHIP('4228 59.614_PART2',$,#63,#65)
REPRESENTATION_RELATIONSHIP_WITH_TRANSFORMATION(#14)
SHAPE_REPRESENTATION_RELATIONSHIP()
);
#17=(
REPRESENTATION_RELATIONSHIP('4228 59.614_PART1',$,#64,#65)
REPRESENTATION_RELATIONSHIP_WITH_TRANSFORMATION(#15)
SHAPE_REPRESENTATION_RELATIONSHIP()
);
#18=STYLED_ITEM('NAME_0',(#33),#449);
#19=STYLED_ITEM('NAME_0',(#34),#450);
#20=MECHANICAL_DESIGN_GEOMETRIC_PRESENTATION_REPRESENTATION('NAME_0',(#18,
#19),#80);
#21=COLOUR_RGB('',0.8,0.8,0.8);
#22=COLOUR_RGB('',0.498039215686275,0.498039215686275,0.498039215686275);
#23=FILL_AREA_STYLE_COLOUR('NAME_0',#21);
#24=FILL_AREA_STYLE_COLOUR('NAME_0',#22);
#25=FILL_AREA_STYLE('NAME_0',(#23));
#26=FILL_AREA_STYLE('NAME_0',(#24));
#27=SURFACE_STYLE_FILL_AREA(#25);
#28=SURFACE_STYLE_FILL_AREA(#26);
#29=SURFACE_SIDE_STYLE('NAME_0',(#27));
#30=SURFACE_SIDE_STYLE('NAME_0',(#28));
#31=SURFACE_STYLE_USAGE(.POSITIVE.,#29);
#32=SURFACE_STYLE_USAGE(.POSITIVE.,#30);
#33=PRESENTATION_STYLE_ASSIGNMENT((#31));
#34=PRESENTATION_STYLE_ASSIGNMENT((#32));
#35=PRODUCT_DEFINITION_CONTEXT('part definition',#56,'design');
#36=PRODUCT_DEFINITION_CONTEXT('part definition',#56,'design');
#37=PRODUCT_DEFINITION_CONTEXT('part definition',#56,'design');
#38=SHAPE_DEFINITION_REPRESENTATION(#41,#63);
#39=SHAPE_DEFINITION_REPRESENTATION(#42,#64);
#40=SHAPE_DEFINITION_REPRESENTATION(#43,#65);
#41=PRODUCT_DEFINITION_SHAPE('PRODUCT_VERSION_ID',
'PRODUCT_VERSION_DESCR',#46);
#42=PRODUCT_DEFINITION_SHAPE('PRODUCT_VERSION_ID',
'PRODUCT_VERSION_DESCR',#47);
#43=PRODUCT_DEFINITION_SHAPE('PRODUCT_VERSION_ID',
'PRODUCT_VERSION_DESCR',#48);
#44=PRODUCT_DEFINITION_SHAPE('NAME_10',$,#12);
#45=PRODUCT_DEFINITION_SHAPE('NAME_20',$,#13);
#46=PRODUCT_DEFINITION('4228 59.614_PART2','PRODUCT_VERSION_DESCR',#49,
#35);
#47=PRODUCT_DEFINITION('4228 59.614_PART1','PRODUCT_VERSION_DESCR',#50,
#36);
#48=PRODUCT_DEFINITION('PRODUCT_VERSION_ID','PRODUCT_VERSION_DESCR',#51,
#37);
#49=PRODUCT_DEFINITION_FORMATION_WITH_SPECIFIED_SOURCE(
'PRODUCT_VERSION_ID','PRODUCT_VERSION_DESCR',#60,.MADE.);
#50=PRODUCT_DEFINITION_FORMATION_WITH_SPECIFIED_SOURCE(
'PRODUCT_VERSION_ID','PRODUCT_VERSION_DESCR',#61,.MADE.);
#51=PRODUCT_DEFINITION_FORMATION_WITH_SPECIFIED_SOURCE(
'PRODUCT_VERSION_ID','PRODUCT_VERSION_DESCR',#62,.MADE.);
#52=PRODUCT_RELATED_PRODUCT_CATEGORY('part','part',(#60));
#53=PRODUCT_RELATED_PRODUCT_CATEGORY('part','part',(#61));
#54=PRODUCT_RELATED_PRODUCT_CATEGORY('part','part',(#62));
#55=APPLICATION_PROTOCOL_DEFINITION('Draft International Standard',
'automotive_design',1994,#56);
#56=APPLICATION_CONTEXT('automotive_Design');
#57=PRODUCT_CONTEXT('3D Mechanical Parts',#56,'mechanical');
#58=PRODUCT_CONTEXT('3D Mechanical Parts',#56,'mechanical');
#59=PRODUCT_CONTEXT('3D Mechanical Parts',#56,'mechanical');
#60=PRODUCT('4228 59.614_PART2','4228 59.614_PART2','',(#57));
#61=PRODUCT('4228 59.614_PART1','4228 59.614_PART1','',(#58));
#62=PRODUCT('4228 59.614',
'6158 G1-G2 Micro-thread milling cutter, 9042280596140','',(#59));
#63=SHAPE_REPRESENTATION('4228 59.614_PART2',(#303),#80);
#64=SHAPE_REPRESENTATION('4228 59.614_PART1',(#305),#81);
#65=SHAPE_REPRESENTATION('NAME_0',(#302,#304),#82);
#66=SHAPE_REPRESENTATION_RELATIONSHIP('NAME_0',$,#63,#451);
#67=SHAPE_REPRESENTATION_RELATIONSHIP('NAME_0',$,#64,#452);
#68=(
LENGTH_UNIT()
NAMED_UNIT(*)
SI_UNIT(.MILLI.,.METRE.)
);
#69=(
LENGTH_UNIT()
NAMED_UNIT(*)
SI_UNIT(.MILLI.,.METRE.)
);
#70=(
LENGTH_UNIT()
NAMED_UNIT(*)
SI_UNIT(.MILLI.,.METRE.)
);
#71=(
NAMED_UNIT(*)
PLANE_ANGLE_UNIT()
SI_UNIT($,.RADIAN.)
);
#72=(
NAMED_UNIT(*)
PLANE_ANGLE_UNIT()
SI_UNIT($,.RADIAN.)
);
#73=(
NAMED_UNIT(*)
PLANE_ANGLE_UNIT()
SI_UNIT($,.RADIAN.)
);
#74=(
NAMED_UNIT(*)
SI_UNIT($,.STERADIAN.)
SOLID_ANGLE_UNIT()
);
#75=(
NAMED_UNIT(*)
SI_UNIT($,.STERADIAN.)
SOLID_ANGLE_UNIT()
);
#76=(
NAMED_UNIT(*)
SI_UNIT($,.STERADIAN.)
SOLID_ANGLE_UNIT()
);
#77=UNCERTAINTY_MEASURE_WITH_UNIT(LENGTH_MEASURE(1.E-6),#68,
'DISTANCE_ACCURACY_VALUE',
'Maximum model space distance between geometric entities at asserted c
onnectivities');
#78=UNCERTAINTY_MEASURE_WITH_UNIT(LENGTH_MEASURE(1.E-6),#69,
'DISTANCE_ACCURACY_VALUE',
'Maximum model space distance between geometric entities at asserted c
onnectivities');
#79=UNCERTAINTY_MEASURE_WITH_UNIT(LENGTH_MEASURE(1.E-6),#70,
'DISTANCE_ACCURACY_VALUE',
'Maximum model space distance between geometric entities at asserted c
onnectivities');
#80=(
GEOMETRIC_REPRESENTATION_CONTEXT(3)
GLOBAL_UNCERTAINTY_ASSIGNED_CONTEXT((#77))
GLOBAL_UNIT_ASSIGNED_CONTEXT((#74,#71,#68))
REPRESENTATION_CONTEXT('ID1','3D')
);
#81=(
GEOMETRIC_REPRESENTATION_CONTEXT(3)
GLOBAL_UNCERTAINTY_ASSIGNED_CONTEXT((#78))
GLOBAL_UNIT_ASSIGNED_CONTEXT((#75,#72,#69))
REPRESENTATION_CONTEXT('ID1','3D')
);
#82=(
GEOMETRIC_REPRESENTATION_CONTEXT(3)
GLOBAL_UNCERTAINTY_ASSIGNED_CONTEXT((#79))
GLOBAL_UNIT_ASSIGNED_CONTEXT((#76,#73,#70))
REPRESENTATION_CONTEXT('ID1','3D')
);
#83=PLANE('',#281);
#84=PLANE('',#282);
#85=PLANE('',#293);
#86=PLANE('',#297);
#87=CONICAL_SURFACE('',#275,6.5,1.082104135);
#88=CONICAL_SURFACE('',#279,7.965,0.7853981625);
#89=CONICAL_SURFACE('',#288,8.,0.7853981625);
#90=CONICAL_SURFACE('',#296,7.001,0.7853981625);
#91=CONICAL_SURFACE('',#299,8.,0.523598775);
#92=CIRCLE('',#273,6.5);
#93=CIRCLE('',#274,6.5);
#94=CIRCLE('',#276,7.975);
#95=CIRCLE('',#278,7.975);
#96=CIRCLE('',#280,7.965);
#97=CIRCLE('',#284,7.001);
#98=CIRCLE('',#285,7.001);
#99=CIRCLE('',#286,7.001);
#100=CIRCLE('',#287,7.001);
#101=CIRCLE('',#289,8.);
#102=CIRCLE('',#290,8.);
#103=CIRCLE('',#292,8.);
#104=CIRCLE('',#294,7.0000000000018);
#105=CIRCLE('',#295,7.0000000000018);
#106=CIRCLE('',#298,6.5);
#107=CIRCLE('',#300,6.5);
#108=VERTEX_POINT('',#382);
#109=VERTEX_POINT('',#383);
#110=VERTEX_POINT('',#386);
#111=VERTEX_POINT('',#389);
#112=VERTEX_POINT('',#391);
#113=VERTEX_POINT('',#394);
#114=VERTEX_POINT('',#398);
#115=VERTEX_POINT('',#404);
#116=VERTEX_POINT('',#405);
#117=VERTEX_POINT('',#407);
#118=VERTEX_POINT('',#410);
#119=VERTEX_POINT('',#414);
#120=VERTEX_POINT('',#416);
#121=VERTEX_POINT('',#420);
#122=VERTEX_POINT('',#424);
#123=VERTEX_POINT('',#425);
#124=VERTEX_POINT('',#431);
#125=VERTEX_POINT('',#434);
#126=VECTOR('',#308,1.);
#127=VECTOR('',#315,1.);
#128=VECTOR('',#320,1.);
#129=VECTOR('',#325,1.);
#130=VECTOR('',#332,1.);
#131=VECTOR('',#343,1.);
#132=VECTOR('',#350,1.);
#133=VECTOR('',#360,1.);
#134=VECTOR('',#366,1.);
#135=VECTOR('',#371,1.);
#136=LINE('',#381,#126);
#137=LINE('',#388,#127);
#138=LINE('',#393,#128);
#139=LINE('',#397,#129);
#140=LINE('',#403,#130);
#141=LINE('',#413,#131);
#142=LINE('',#419,#132);
#143=LINE('',#428,#133);
#144=LINE('',#433,#134);
#145=LINE('',#437,#135);
#146=EDGE_CURVE('',#108,#109,#136,.T.);
#147=EDGE_CURVE('',#109,#109,#92,.T.);
#148=EDGE_CURVE('',#108,#110,#93,.T.);
#149=EDGE_CURVE('',#110,#108,#93,.T.);
#150=EDGE_CURVE('',#111,#110,#137,.T.);
#151=EDGE_CURVE('',#111,#112,#94,.T.);
#152=EDGE_CURVE('',#112,#111,#94,.T.);
#153=EDGE_CURVE('',#113,#112,#138,.T.);
#154=EDGE_CURVE('',#113,#113,#95,.T.);
#155=EDGE_CURVE('',#113,#114,#139,.T.);
#156=EDGE_CURVE('',#114,#114,#96,.T.);
#157=EDGE_CURVE('',#115,#116,#140,.T.);
#158=EDGE_CURVE('',#117,#116,#97,.T.);
#159=EDGE_CURVE('',#116,#117,#98,.T.);
#160=EDGE_CURVE('',#115,#118,#99,.T.);
#161=EDGE_CURVE('',#118,#115,#100,.T.);
#162=EDGE_CURVE('',#119,#118,#141,.T.);
#163=EDGE_CURVE('',#119,#120,#101,.F.);
#164=EDGE_CURVE('',#120,#119,#102,.F.);
#165=EDGE_CURVE('',#121,#120,#142,.T.);
#166=EDGE_CURVE('',#121,#121,#103,.F.);
#167=EDGE_CURVE('',#122,#123,#104,.T.);
#168=EDGE_CURVE('',#123,#122,#105,.T.);
#169=EDGE_CURVE('',#117,#123,#143,.T.);
#170=EDGE_CURVE('',#124,#124,#106,.F.);
#171=EDGE_CURVE('',#121,#125,#144,.T.);
#172=EDGE_CURVE('',#125,#125,#107,.T.);
#173=EDGE_CURVE('',#124,#125,#145,.T.);
#174=ORIENTED_EDGE('',*,*,#146,.T.);
#175=ORIENTED_EDGE('',*,*,#147,.T.);
#176=ORIENTED_EDGE('',*,*,#146,.F.);
#177=ORIENTED_EDGE('',*,*,#148,.T.);
#178=ORIENTED_EDGE('',*,*,#149,.T.);
#179=ORIENTED_EDGE('',*,*,#150,.T.);
#180=ORIENTED_EDGE('',*,*,#148,.F.);
#181=ORIENTED_EDGE('',*,*,#149,.F.);
#182=ORIENTED_EDGE('',*,*,#150,.F.);
#183=ORIENTED_EDGE('',*,*,#151,.T.);
#184=ORIENTED_EDGE('',*,*,#152,.T.);
#185=ORIENTED_EDGE('',*,*,#153,.T.);
#186=ORIENTED_EDGE('',*,*,#151,.F.);
#187=ORIENTED_EDGE('',*,*,#152,.F.);
#188=ORIENTED_EDGE('',*,*,#153,.F.);
#189=ORIENTED_EDGE('',*,*,#154,.T.);
#190=ORIENTED_EDGE('',*,*,#155,.T.);
#191=ORIENTED_EDGE('',*,*,#156,.T.);
#192=ORIENTED_EDGE('',*,*,#155,.F.);
#193=ORIENTED_EDGE('',*,*,#154,.F.);
#194=ORIENTED_EDGE('',*,*,#156,.F.);
#195=ORIENTED_EDGE('',*,*,#147,.F.);
#196=ORIENTED_EDGE('',*,*,#157,.T.);
#197=ORIENTED_EDGE('',*,*,#158,.F.);
#198=ORIENTED_EDGE('',*,*,#159,.F.);
#199=ORIENTED_EDGE('',*,*,#157,.F.);
#200=ORIENTED_EDGE('',*,*,#160,.T.);
#201=ORIENTED_EDGE('',*,*,#161,.T.);
#202=ORIENTED_EDGE('',*,*,#162,.T.);
#203=ORIENTED_EDGE('',*,*,#160,.F.);
#204=ORIENTED_EDGE('',*,*,#161,.F.);
#205=ORIENTED_EDGE('',*,*,#162,.F.);
#206=ORIENTED_EDGE('',*,*,#163,.T.);
#207=ORIENTED_EDGE('',*,*,#164,.T.);
#208=ORIENTED_EDGE('',*,*,#165,.T.);
#209=ORIENTED_EDGE('',*,*,#163,.F.);
#210=ORIENTED_EDGE('',*,*,#164,.F.);
#211=ORIENTED_EDGE('',*,*,#165,.F.);
#212=ORIENTED_EDGE('',*,*,#166,.T.);
#213=ORIENTED_EDGE('',*,*,#167,.T.);
#214=ORIENTED_EDGE('',*,*,#168,.T.);
#215=ORIENTED_EDGE('',*,*,#169,.T.);
#216=ORIENTED_EDGE('',*,*,#167,.F.);
#217=ORIENTED_EDGE('',*,*,#168,.F.);
#218=ORIENTED_EDGE('',*,*,#169,.F.);
#219=ORIENTED_EDGE('',*,*,#158,.T.);
#220=ORIENTED_EDGE('',*,*,#159,.T.);
#221=ORIENTED_EDGE('',*,*,#170,.T.);
#222=ORIENTED_EDGE('',*,*,#171,.T.);
#223=ORIENTED_EDGE('',*,*,#172,.T.);
#224=ORIENTED_EDGE('',*,*,#171,.F.);
#225=ORIENTED_EDGE('',*,*,#166,.F.);
#226=ORIENTED_EDGE('',*,*,#173,.T.);
#227=ORIENTED_EDGE('',*,*,#172,.F.);
#228=ORIENTED_EDGE('',*,*,#173,.F.);
#229=ORIENTED_EDGE('',*,*,#170,.F.);
#230=EDGE_LOOP('',(#174,#175,#176,#177,#178));
#231=EDGE_LOOP('',(#179,#180,#181,#182,#183,#184));
#232=EDGE_LOOP('',(#185,#186,#187,#188,#189));
#233=EDGE_LOOP('',(#190,#191,#192,#193));
#234=EDGE_LOOP('',(#194));
#235=EDGE_LOOP('',(#195));
#236=EDGE_LOOP('',(#196,#197,#198,#199,#200,#201));
#237=EDGE_LOOP('',(#202,#203,#204,#205,#206,#207));
#238=EDGE_LOOP('',(#208,#209,#210,#211,#212));
#239=EDGE_LOOP('',(#213,#214));
#240=EDGE_LOOP('',(#215,#216,#217,#218,#219,#220));
#241=EDGE_LOOP('',(#221));
#242=EDGE_LOOP('',(#222,#223,#224,#225));
#243=EDGE_LOOP('',(#226,#227,#228,#229));
#244=FACE_BOUND('',#230,.T.);
#245=FACE_BOUND('',#231,.T.);
#246=FACE_BOUND('',#232,.T.);
#247=FACE_BOUND('',#233,.T.);
#248=FACE_BOUND('',#234,.T.);
#249=FACE_BOUND('',#235,.T.);
#250=FACE_BOUND('',#236,.T.);
#251=FACE_BOUND('',#237,.T.);
#252=FACE_BOUND('',#238,.T.);
#253=FACE_BOUND('',#239,.T.);
#254=FACE_BOUND('',#240,.T.);
#255=FACE_BOUND('',#241,.T.);
#256=FACE_BOUND('',#242,.T.);
#257=FACE_BOUND('',#243,.T.);
#258=ADVANCED_FACE('',(#244),#442,.T.);
#259=ADVANCED_FACE('',(#245),#87,.T.);
#260=ADVANCED_FACE('',(#246),#443,.T.);
#261=ADVANCED_FACE('',(#247),#88,.T.);
#262=ADVANCED_FACE('',(#248),#83,.T.);
#263=ADVANCED_FACE('',(#249),#84,.T.);
#264=ADVANCED_FACE('',(#250),#444,.T.);
#265=ADVANCED_FACE('',(#251),#89,.T.);
#266=ADVANCED_FACE('',(#252),#445,.T.);
#267=ADVANCED_FACE('',(#253),#85,.F.);
#268=ADVANCED_FACE('',(#254),#90,.T.);
#269=ADVANCED_FACE('',(#255),#86,.F.);
#270=ADVANCED_FACE('',(#256),#91,.T.);
#271=ADVANCED_FACE('',(#257),#446,.T.);
#272=AXIS2_PLACEMENT_3D('',#380,#306,#307);
#273=AXIS2_PLACEMENT_3D('',#384,#309,#310);
#274=AXIS2_PLACEMENT_3D('',#385,#311,#312);
#275=AXIS2_PLACEMENT_3D('',#387,#313,#314);
#276=AXIS2_PLACEMENT_3D('',#390,#316,#317);
#277=AXIS2_PLACEMENT_3D('',#392,#318,#319);
#278=AXIS2_PLACEMENT_3D('',#395,#321,#322);
#279=AXIS2_PLACEMENT_3D('',#396,#323,#324);
#280=AXIS2_PLACEMENT_3D('',#399,#326,#327);
#281=AXIS2_PLACEMENT_3D('',#400,#328,$);
#282=AXIS2_PLACEMENT_3D('',#401,#329,$);
#283=AXIS2_PLACEMENT_3D('',#402,#330,#331);
#284=AXIS2_PLACEMENT_3D('',#406,#333,#334);
#285=AXIS2_PLACEMENT_3D('',#408,#335,#336);
#286=AXIS2_PLACEMENT_3D('',#409,#337,#338);
#287=AXIS2_PLACEMENT_3D('',#411,#339,#340);
#288=AXIS2_PLACEMENT_3D('',#412,#341,#342);
#289=AXIS2_PLACEMENT_3D('',#415,#344,#345);
#290=AXIS2_PLACEMENT_3D('',#417,#346,#347);
#291=AXIS2_PLACEMENT_3D('',#418,#348,#349);
#292=AXIS2_PLACEMENT_3D('',#421,#351,#352);
#293=AXIS2_PLACEMENT_3D('',#422,#353,$);
#294=AXIS2_PLACEMENT_3D('',#423,#354,#355);
#295=AXIS2_PLACEMENT_3D('',#426,#356,#357);
#296=AXIS2_PLACEMENT_3D('',#427,#358,#359);
#297=AXIS2_PLACEMENT_3D('',#429,#361,$);
#298=AXIS2_PLACEMENT_3D('',#430,#362,#363);
#299=AXIS2_PLACEMENT_3D('',#432,#364,#365);
#300=AXIS2_PLACEMENT_3D('',#435,#367,#368);
#301=AXIS2_PLACEMENT_3D('',#436,#369,#370);
#302=AXIS2_PLACEMENT_3D('AXIS_PLACEMENT_1',#438,#372,#373);
#303=AXIS2_PLACEMENT_3D('AXIS_PLACEMENT_5',#439,#374,#375);
#304=AXIS2_PLACEMENT_3D('AXIS_PLACEMENT_11',#440,#376,#377);
#305=AXIS2_PLACEMENT_3D('AXIS_PLACEMENT_15',#441,#378,#379);
#306=DIRECTION('',(0.,0.,-1.));
#307=DIRECTION('',(6.5,0.,0.));
#308=DIRECTION('',(0.,0.,1.));
#309=DIRECTION('',(0.,0.,-1.));
#310=DIRECTION('',(6.5,0.,0.));
#311=DIRECTION('',(0.,0.,1.));
#312=DIRECTION('',(6.5,0.,0.));
#313=DIRECTION('',(1.4707072058008E-17,0.,-1.));
#314=DIRECTION('',(-6.5,0.,-9.5595968377052E-17));
#315=DIRECTION('',(0.882947592278433,0.,0.469471563877642));
#316=DIRECTION('',(0.,0.,1.));
#317=DIRECTION('',(7.975,0.,0.));
#318=DIRECTION('',(0.,0.,-1.));
#319=DIRECTION('',(7.975,0.,0.));
#320=DIRECTION('',(0.,0.,1.));
#321=DIRECTION('',(0.,0.,1.));
#322=DIRECTION('',(7.975,0.,0.));
#323=DIRECTION('',(-1.37681246946028E-17,0.,1.));
#324=DIRECTION('',(7.965,0.,1.09663113192511E-16));
#325=DIRECTION('',(-0.707106780551956,0.,-0.70710678182114));
#326=DIRECTION('',(0.,0.,1.));
#327=DIRECTION('',(7.965,0.,0.));
#328=DIRECTION('',(0.,0.,-1.));
#329=DIRECTION('',(0.,0.,1.));
#330=DIRECTION('',(0.,0.,-1.));
#331=DIRECTION('',(7.001,0.,0.));
#332=DIRECTION('',(0.,0.,1.));
#333=DIRECTION('',(0.,0.,1.));
#334=DIRECTION('',(7.001,0.,0.));
#335=DIRECTION('',(0.,0.,1.));
#336=DIRECTION('',(7.001,0.,0.));
#337=DIRECTION('',(0.,0.,1.));
#338=DIRECTION('',(7.001,0.,0.));
#339=DIRECTION('',(0.,0.,1.));
#340=DIRECTION('',(7.001,0.,0.));
#341=DIRECTION('',(1.01966632888517E-16,0.,-1.));
#342=DIRECTION('',(-8.,0.,-8.15733063108136E-16));
#343=DIRECTION('',(0.707106780551956,0.,0.70710678182114));
#344=DIRECTION('',(0.,0.,-1.));
#345=DIRECTION('',(8.,0.,0.));
#346=DIRECTION('',(0.,0.,-1.));
#347=DIRECTION('',(8.,0.,0.));
#348=DIRECTION('',(0.,0.,-1.));
#349=DIRECTION('',(8.,0.,0.));
#350=DIRECTION('',(0.,0.,1.));
#351=DIRECTION('',(0.,0.,-1.));
#352=DIRECTION('',(8.,0.,0.));
#353=DIRECTION('',(0.,0.,-1.));
#354=DIRECTION('',(0.,0.,1.));
#355=DIRECTION('',(-7.0000000000018,0.,5.94334124358992E-16));
#356=DIRECTION('',(0.,0.,1.));
#357=DIRECTION('',(-7.0000000000018,0.,5.94334124358992E-16));
#358=DIRECTION('',(-8.49048749084057E-17,0.,-1.));
#359=DIRECTION('',(-7.001,0.,5.94419029233748E-16));
#360=DIRECTION('',(0.707106780551956,0.,0.707106781821139));
#361=DIRECTION('',(0.,0.,1.));
#362=DIRECTION('',(0.,0.,1.));
#363=DIRECTION('',(6.5,0.,0.));
#364=DIRECTION('',(-1.18542593539995E-17,0.,1.));
#365=DIRECTION('',(8.,0.,9.4834074831996E-17));
#366=DIRECTION('',(-0.499999999481858,0.,-0.866025404083588));
#367=DIRECTION('',(0.,0.,1.));
#368=DIRECTION('',(6.5,0.,0.));
#369=DIRECTION('',(0.,0.,-1.));
#370=DIRECTION('',(6.5,0.,0.));
#371=DIRECTION('',(0.,0.,1.));
#372=DIRECTION('DIRECTION2',(0.,0.,1.));
#373=DIRECTION('DIRECTION3',(1.,0.,0.));
#374=DIRECTION('DIRECTION6',(0.,0.,1.));
#375=DIRECTION('DIRECTION7',(1.,0.,0.));
#376=DIRECTION('DIRECTION12',(0.,0.,1.));
#377=DIRECTION('DIRECTION13',(1.,0.,0.));
#378=DIRECTION('DIRECTION16',(0.,0.,1.));
#379=DIRECTION('DIRECTION17',(1.,0.,0.));
#380=CARTESIAN_POINT('',(0.,0.,-2.7896521898052E-15));
#381=CARTESIAN_POINT('',(6.5,0.,-195.340457176619));
#382=CARTESIAN_POINT('',(6.50000000000207,-3.98010209722636E-16,-98.0247285883054));
#383=CARTESIAN_POINT('',(6.5,7.9602041944578E-16,-97.3157285883043));
#384=CARTESIAN_POINT('',(0.,0.,-97.3157285883093));
#385=CARTESIAN_POINT('',(1.34864451417891E-32,0.,-98.0247285883093));
#386=CARTESIAN_POINT('',(-6.50000000000207,0.,-98.0247285883054));
#387=CARTESIAN_POINT('',(0.,0.,-98.0247285882993));
#388=CARTESIAN_POINT('',(-7.82749999607781,0.,-98.7305728588499));
#389=CARTESIAN_POINT('',(-7.97499999780951,0.,-98.80900000001));
#390=CARTESIAN_POINT('',(-1.41748443906901E-31,0.,-98.80900000001));
#391=CARTESIAN_POINT('',(7.97499999780951,6.8816321105428E-9,-98.80900000001));
#392=CARTESIAN_POINT('',(0.,0.,-2.7896521898052E-15));
#393=CARTESIAN_POINT('',(7.975,0.,-203.79900000002));
#394=CARTESIAN_POINT('',(7.97499999998603,-9.76655822320014E-16,-104.99000000001));
#395=CARTESIAN_POINT('',(-2.64574626110197E-32,0.,-104.99000000001));
#396=CARTESIAN_POINT('',(0.,0.,-105.));
#397=CARTESIAN_POINT('',(7.97399999996384,0.,-104.99100000002));
#398=CARTESIAN_POINT('',(7.9649999999975,-9.75431175520867E-16,-105.000000000005));
#399=CARTESIAN_POINT('',(8.61731329263213E-32,0.,-105.00000000001));
#400=CARTESIAN_POINT('',(0.,7.96499999999999,-105.));
#401=CARTESIAN_POINT('',(0.,0.,-97.3157285882993));
#402=CARTESIAN_POINT('',(0.,0.,-2.7896521898052E-15));
#403=CARTESIAN_POINT('',(7.001,0.,-0.011100000020002));
#404=CARTESIAN_POINT('',(7.001,-4.28687611958724E-16,-0.0100999982068883));
#405=CARTESIAN_POINT('',(7.001,-3.9263249013458E-12,-0.00100000000000323));
#406=CARTESIAN_POINT('',(0.,0.,-0.00100000000000323));
#407=CARTESIAN_POINT('',(-7.001000000005,3.92607694300376E-12,-0.00100000000750271));
#408=CARTESIAN_POINT('',(0.,0.,-0.00100000000000323));
#409=CARTESIAN_POINT('',(0.,0.,-0.0100999982068883));
#410=CARTESIAN_POINT('',(-7.00100000045078,0.,-0.0100999995592226));
#411=CARTESIAN_POINT('',(0.,0.,-0.0100999982068883));
#412=CARTESIAN_POINT('',(0.,0.,-1.00909999999999));
#413=CARTESIAN_POINT('',(-6.90110000199243,0.,0.0897999999799968));
#414=CARTESIAN_POINT('',(-8.000000000005,0.,-1.00910000000749));
#415=CARTESIAN_POINT('',(0.,0.,-1.00909999999999));
#416=CARTESIAN_POINT('',(8.0000000000025,-4.89858719658635E-16,-1.00910000000749));
#417=CARTESIAN_POINT('',(0.,0.,-1.00909999999999));
#418=CARTESIAN_POINT('',(0.,0.,-2.7896521898052E-15));
#419=CARTESIAN_POINT('',(8.,0.,-59.509752376966));
#420=CARTESIAN_POINT('',(7.99999999999711,-9.79717439317883E-16,-58.500652376956));
#421=CARTESIAN_POINT('',(0.,0.,-58.500652376946));
#422=CARTESIAN_POINT('',(0.,7.,-3.21829151869735E-15));
#423=CARTESIAN_POINT('',(8.49048749084067E-20,0.,-3.21834572880597E-15));
#424=CARTESIAN_POINT('',(7.00000000000295,-4.63297614459483E-12,-5.00343264541424E-12));
#425=CARTESIAN_POINT('',(-7.0000000000018,9.26558884773577E-12,-3.21834572880597E-15));
#426=CARTESIAN_POINT('',(8.49048749084067E-20,0.,-3.21834572880597E-15));
#427=CARTESIAN_POINT('',(0.,0.,-0.00100000000000323));
#428=CARTESIAN_POINT('',(-6.99990000002197,0.,9.99999799970246E-5));
#429=CARTESIAN_POINT('',(0.,0.,-97.3157285882993));
#430=CARTESIAN_POINT('',(0.,0.,-97.3157285882993));
#431=CARTESIAN_POINT('',(6.5,7.9602041944578E-16,-97.3157285883043));
#432=CARTESIAN_POINT('',(0.,0.,-58.500652376946));
#433=CARTESIAN_POINT('',(6.35000000226829,0.,-61.3585362094546));
#434=CARTESIAN_POINT('',(6.50000000077505,-7.9602041944578E-16,-61.0987285887568));
#435=CARTESIAN_POINT('',(0.,0.,-61.0987285918891));
#436=CARTESIAN_POINT('',(0.,0.,-2.7896521898052E-15));
#437=CARTESIAN_POINT('',(6.5,0.,-158.414457176619));
#438=CARTESIAN_POINT('CARTESIAN_POINT4',(0.,0.,0.));
#439=CARTESIAN_POINT('CARTESIAN_POINT8',(0.,0.,0.));
#440=CARTESIAN_POINT('CARTESIAN_POINT14',(0.,0.,0.));
#441=CARTESIAN_POINT('CARTESIAN_POINT18',(0.,0.,0.));
#442=CYLINDRICAL_SURFACE('',#272,6.5);
#443=CYLINDRICAL_SURFACE('',#277,7.975);
#444=CYLINDRICAL_SURFACE('',#283,7.001);
#445=CYLINDRICAL_SURFACE('',#291,8.);
#446=CYLINDRICAL_SURFACE('',#301,6.5);
#447=CLOSED_SHELL('',(#258,#259,#260,#261,#262,#263));
#448=CLOSED_SHELL('',(#264,#265,#266,#267,#268,#269,#270,#271));
#449=MANIFOLD_SOLID_BREP('',#447);
#450=MANIFOLD_SOLID_BREP('',#448);
#451=ADVANCED_BREP_SHAPE_REPRESENTATION('4228 59.614_PART2',(#449),#80);
#452=ADVANCED_BREP_SHAPE_REPRESENTATION('4228 59.614_PART1',(#450),#81);
ENDSEC;
END-ISO-10303-21;
