ISO-10303-21;
HEADER;

/* File generated by Alibre Version V23 */

FILE_DESCRIPTION(('HOOPS Exchange Step'),'2;1');

FILE_NAME('C:\\Users\\Gebruiker\\AppData\\Local\\Temp\\Alibre Design\\export-D20C5739-F845-4D15-B9B7-F92330C67509.stp',
'2023-01-19T17:58:14+01:00',
('Engineering'),
('Alibre'),
'HOOPS Exchange 2021.0',
'Alibre',
'Unknown authorisation');

FILE_SCHEMA( ('AP242_MANAGED_MODEL_BASED_3D_ENGINEERING_MIM_LF {1 0 10303 442 1 1 4 }') );

ENDSEC;

DATA;
#3=(NAMED_UNIT(*)PLANE_ANGLE_UNIT()SI_UNIT($,.RADIAN.));
#4=PLANE_ANGLE_MEASURE_WITH_UNIT(PLANE_ANGLE_MEASURE(0.0174532925),#3);
#5=(CONVERSION_BASED_UNIT('DEGREE',#4)NAMED_UNIT(#6)PLANE_ANGLE_UNIT());
#6=DIMENSIONAL_EXPONENTS(0.,0.,0.,0.,0.,0.,0.);
#7=(NAMED_UNIT(*)SI_UNIT($,.STERADIAN.)SOLID_ANGLE_UNIT());
#8=(LENGTH_UNIT()NAMED_UNIT(*)SI_UNIT(.MILLI.,.METRE.));
#9=UNCERTAINTY_MEASURE_WITH_UNIT(LENGTH_MEASURE(1.000000E-06),#8,'DISTANCE_ACCURACY_VALUE','Maximum Tolerance applied to model');
#10=(GEOMETRIC_REPRESENTATION_CONTEXT(3)GLOBAL_UNCERTAINTY_ASSIGNED_CONTEXT((#9))GLOBAL_UNIT_ASSIGNED_CONTEXT((#8,#5,#7))REPRESENTATION_CONTEXT('','6214 PHK45-10 Adapterplate'));
#12=CARTESIAN_POINT('',(0.,0.,0.));
#13=DIRECTION('',(0.,0.,1.));
#14=DIRECTION('',(1.,0.,0.));
#15=AXIS2_PLACEMENT_3D('',#12,#13,#14);
#27=CARTESIAN_POINT('',(22.,10.,60.));
#28=DIRECTION('',(0.,0.,-1.));
#29=DIRECTION('',(-1.,0.,0.));
#30=AXIS2_PLACEMENT_3D('',#27,#28,#29);
#31=PLANE('',#30);
#32=CARTESIAN_POINT('',(-22.,10.,60.));
#33=VERTEX_POINT('',#32);
#34=CARTESIAN_POINT('',(-22.,0.,60.));
#35=VERTEX_POINT('',#34);
#36=CARTESIAN_POINT('',(-22.,10.,60.));
#37=DIRECTION('',(0.,-1.,0.));
#38=VECTOR('',#37,10.);
#39=LINE('',#36,#38);
#40=EDGE_CURVE('',#33,#35,#39,.T.);
#41=ORIENTED_EDGE('',*,*,#40,.T.);
#42=CARTESIAN_POINT('',(22.,0.,60.));
#43=VERTEX_POINT('',#42);
#44=CARTESIAN_POINT('',(22.,0.,60.));
#45=DIRECTION('',(-1.,0.,0.));
#46=VECTOR('',#45,44.);
#47=LINE('',#44,#46);
#48=EDGE_CURVE('',#43,#35,#47,.T.);
#49=ORIENTED_EDGE('',*,*,#48,.F.);
#50=CARTESIAN_POINT('',(22.,10.,60.));
#51=VERTEX_POINT('',#50);
#52=CARTESIAN_POINT('',(22.,10.,60.));
#53=DIRECTION('',(0.,-1.,0.));
#54=VECTOR('',#53,10.);
#55=LINE('',#52,#54);
#56=EDGE_CURVE('',#51,#43,#55,.T.);
#57=ORIENTED_EDGE('',*,*,#56,.F.);
#58=CARTESIAN_POINT('',(22.,10.,60.));
#59=DIRECTION('',(-1.,0.,0.));
#60=VECTOR('',#59,44.);
#61=LINE('',#58,#60);
#62=EDGE_CURVE('',#51,#33,#61,.T.);
#63=ORIENTED_EDGE('',*,*,#62,.T.);
#64=EDGE_LOOP('',(#41,#49,#57,#63));
#65=FACE_BOUND('',#64,.T.);
#66=ADVANCED_FACE('',(#65),#31,.F.);
#67=CARTESIAN_POINT('',(22.,0.,60.));
#68=DIRECTION('',(0.,1.,0.));
#69=DIRECTION('',(0.,0.,1.));
#70=AXIS2_PLACEMENT_3D('',#67,#68,#69);
#71=PLANE('',#70);
#72=CARTESIAN_POINT('',(-7.5,0.,-13.));
#73=VERTEX_POINT('',#72);
#74=CARTESIAN_POINT('',(-13.,-0.,-7.5));
#75=VERTEX_POINT('',#74);
#76=CARTESIAN_POINT('',(-13.,0.,-13.));
#77=DIRECTION('',(0.,-1.,-0.));
#78=DIRECTION('',(0.,-0.,1.));
#79=AXIS2_PLACEMENT_3D('',#76,#77,#78);
#80=CIRCLE('',#79,5.5);
#81=EDGE_CURVE('',#73,#75,#80,.T.);
#82=ORIENTED_EDGE('',*,*,#81,.F.);
#83=CARTESIAN_POINT('',(-18.5,0.,-13.));
#84=VERTEX_POINT('',#83);
#85=CARTESIAN_POINT('',(-13.,0.,-13.));
#86=DIRECTION('',(0.,-1.,-0.));
#87=DIRECTION('',(0.,-0.,1.));
#88=AXIS2_PLACEMENT_3D('',#85,#86,#87);
#89=CIRCLE('',#88,5.5);
#90=EDGE_CURVE('',#84,#73,#89,.T.);
#91=ORIENTED_EDGE('',*,*,#90,.F.);
#92=CARTESIAN_POINT('',(-13.,0.,-13.));
#93=DIRECTION('',(0.,-1.,-0.));
#94=DIRECTION('',(0.,-0.,1.));
#95=AXIS2_PLACEMENT_3D('',#92,#93,#94);
#96=CIRCLE('',#95,5.5);
#97=EDGE_CURVE('',#75,#84,#96,.T.);
#98=ORIENTED_EDGE('',*,*,#97,.F.);
#99=EDGE_LOOP('',(#82,#91,#98));
#100=FACE_BOUND('',#99,.T.);
#101=CARTESIAN_POINT('',(13.,-0.,-18.5));
#102=VERTEX_POINT('',#101);
#103=CARTESIAN_POINT('',(13.,0.,-7.5));
#104=VERTEX_POINT('',#103);
#105=CARTESIAN_POINT('',(13.,0.,-13.));
#106=DIRECTION('',(0.,-1.,-0.));
#107=DIRECTION('',(0.,-0.,1.));
#108=AXIS2_PLACEMENT_3D('',#105,#106,#107);
#109=CIRCLE('',#108,5.5);
#110=EDGE_CURVE('',#102,#104,#109,.T.);
#111=ORIENTED_EDGE('',*,*,#110,.F.);
#112=CARTESIAN_POINT('',(13.,0.,-13.));
#113=DIRECTION('',(0.,-1.,-0.));
#114=DIRECTION('',(0.,-0.,1.));
#115=AXIS2_PLACEMENT_3D('',#112,#113,#114);
#116=CIRCLE('',#115,5.5);
#117=EDGE_CURVE('',#104,#102,#116,.T.);
#118=ORIENTED_EDGE('',*,*,#117,.F.);
#119=EDGE_LOOP('',(#111,#118));
#120=FACE_BOUND('',#119,.T.);
#121=CARTESIAN_POINT('',(-7.5,0.,13.));
#122=VERTEX_POINT('',#121);
#123=CARTESIAN_POINT('',(-13.,-0.,18.5));
#124=VERTEX_POINT('',#123);
#125=CARTESIAN_POINT('',(-13.,0.,13.));
#126=DIRECTION('',(0.,-1.,-0.));
#127=DIRECTION('',(0.,-0.,1.));
#128=AXIS2_PLACEMENT_3D('',#125,#126,#127);
#129=CIRCLE('',#128,5.5);
#130=EDGE_CURVE('',#122,#124,#129,.T.);
#131=ORIENTED_EDGE('',*,*,#130,.F.);
#132=CARTESIAN_POINT('',(-18.5,0.,13.));
#133=VERTEX_POINT('',#132);
#134=CARTESIAN_POINT('',(-13.,0.,13.));
#135=DIRECTION('',(0.,-1.,-0.));
#136=DIRECTION('',(0.,-0.,1.));
#137=AXIS2_PLACEMENT_3D('',#134,#135,#136);
#138=CIRCLE('',#137,5.5);
#139=EDGE_CURVE('',#133,#122,#138,.T.);
#140=ORIENTED_EDGE('',*,*,#139,.F.);
#141=CARTESIAN_POINT('',(-13.,0.,13.));
#142=DIRECTION('',(0.,-1.,-0.));
#143=DIRECTION('',(0.,-0.,1.));
#144=AXIS2_PLACEMENT_3D('',#141,#142,#143);
#145=CIRCLE('',#144,5.5);
#146=EDGE_CURVE('',#124,#133,#145,.T.);
#147=ORIENTED_EDGE('',*,*,#146,.F.);
#148=EDGE_LOOP('',(#131,#140,#147));
#149=FACE_BOUND('',#148,.T.);
#150=CARTESIAN_POINT('',(13.,-0.,7.5));
#151=VERTEX_POINT('',#150);
#152=CARTESIAN_POINT('',(13.,0.,18.5));
#153=VERTEX_POINT('',#152);
#154=CARTESIAN_POINT('',(13.,0.,13.));
#155=DIRECTION('',(0.,-1.,-0.));
#156=DIRECTION('',(0.,-0.,1.));
#157=AXIS2_PLACEMENT_3D('',#154,#155,#156);
#158=CIRCLE('',#157,5.5);
#159=EDGE_CURVE('',#151,#153,#158,.T.);
#160=ORIENTED_EDGE('',*,*,#159,.F.);
#161=CARTESIAN_POINT('',(13.,0.,13.));
#162=DIRECTION('',(0.,-1.,-0.));
#163=DIRECTION('',(0.,-0.,1.));
#164=AXIS2_PLACEMENT_3D('',#161,#162,#163);
#165=CIRCLE('',#164,5.5);
#166=EDGE_CURVE('',#153,#151,#165,.T.);
#167=ORIENTED_EDGE('',*,*,#166,.F.);
#168=EDGE_LOOP('',(#160,#167));
#169=FACE_BOUND('',#168,.T.);
#170=CARTESIAN_POINT('',(-22.,0.,-60.));
#171=VERTEX_POINT('',#170);
#172=CARTESIAN_POINT('',(-22.,0.,60.));
#173=DIRECTION('',(0.,0.,-1.));
#174=VECTOR('',#173,120.);
#175=LINE('',#172,#174);
#176=EDGE_CURVE('',#35,#171,#175,.T.);
#177=ORIENTED_EDGE('',*,*,#176,.T.);
#178=CARTESIAN_POINT('',(22.,0.,-60.));
#179=VERTEX_POINT('',#178);
#180=CARTESIAN_POINT('',(22.,0.,-60.));
#181=DIRECTION('',(-1.,0.,0.));
#182=VECTOR('',#181,44.);
#183=LINE('',#180,#182);
#184=EDGE_CURVE('',#179,#171,#183,.T.);
#185=ORIENTED_EDGE('',*,*,#184,.F.);
#186=CARTESIAN_POINT('',(22.,0.,60.));
#187=DIRECTION('',(0.,0.,-1.));
#188=VECTOR('',#187,120.);
#189=LINE('',#186,#188);
#190=EDGE_CURVE('',#43,#179,#189,.T.);
#191=ORIENTED_EDGE('',*,*,#190,.F.);
#192=ORIENTED_EDGE('',*,*,#48,.T.);
#193=EDGE_LOOP('',(#177,#185,#191,#192));
#194=FACE_BOUND('',#193,.T.);
#195=ADVANCED_FACE('',(#100,#120,#149,#169,#194),#71,.F.);
#196=CARTESIAN_POINT('',(22.,0.,-60.));
#197=DIRECTION('',(0.,0.,1.));
#198=DIRECTION('',(1.,0.,0.));
#199=AXIS2_PLACEMENT_3D('',#196,#197,#198);
#200=PLANE('',#199);
#201=CARTESIAN_POINT('',(-22.,10.,-60.));
#202=VERTEX_POINT('',#201);
#203=CARTESIAN_POINT('',(-22.,0.,-60.));
#204=DIRECTION('',(0.,1.,0.));
#205=VECTOR('',#204,10.);
#206=LINE('',#203,#205);
#207=EDGE_CURVE('',#171,#202,#206,.T.);
#208=ORIENTED_EDGE('',*,*,#207,.T.);
#209=CARTESIAN_POINT('',(22.,10.,-60.));
#210=VERTEX_POINT('',#209);
#211=CARTESIAN_POINT('',(22.,10.,-60.));
#212=DIRECTION('',(-1.,0.,0.));
#213=VECTOR('',#212,44.);
#214=LINE('',#211,#213);
#215=EDGE_CURVE('',#210,#202,#214,.T.);
#216=ORIENTED_EDGE('',*,*,#215,.F.);
#217=CARTESIAN_POINT('',(22.,0.,-60.));
#218=DIRECTION('',(0.,1.,0.));
#219=VECTOR('',#218,10.);
#220=LINE('',#217,#219);
#221=EDGE_CURVE('',#179,#210,#220,.T.);
#222=ORIENTED_EDGE('',*,*,#221,.F.);
#223=ORIENTED_EDGE('',*,*,#184,.T.);
#224=EDGE_LOOP('',(#208,#216,#222,#223));
#225=FACE_BOUND('',#224,.T.);
#226=ADVANCED_FACE('',(#225),#200,.F.);
#227=CARTESIAN_POINT('',(22.,10.,-60.));
#228=DIRECTION('',(0.,-1.,0.));
#229=DIRECTION('',(0.,0.,-1.));
#230=AXIS2_PLACEMENT_3D('',#227,#228,#229);
#231=PLANE('',#230);
#232=CARTESIAN_POINT('',(-7.5,10.,-13.));
#233=VERTEX_POINT('',#232);
#234=CARTESIAN_POINT('',(-13.,10.,-18.5));
#235=VERTEX_POINT('',#234);
#236=CARTESIAN_POINT('',(-13.,10.,-13.));
#237=DIRECTION('',(0.,1.,0.));
#238=DIRECTION('',(0.,0.,-1.));
#239=AXIS2_PLACEMENT_3D('',#236,#237,#238);
#240=CIRCLE('',#239,5.5);
#241=EDGE_CURVE('',#233,#235,#240,.T.);
#242=ORIENTED_EDGE('',*,*,#241,.F.);
#243=CARTESIAN_POINT('',(-18.5,10.,-13.));
#244=VERTEX_POINT('',#243);
#245=CARTESIAN_POINT('',(-13.,10.,-13.));
#246=DIRECTION('',(0.,1.,0.));
#247=DIRECTION('',(0.,0.,-1.));
#248=AXIS2_PLACEMENT_3D('',#245,#246,#247);
#249=CIRCLE('',#248,5.5);
#250=EDGE_CURVE('',#244,#233,#249,.T.);
#251=ORIENTED_EDGE('',*,*,#250,.F.);
#252=CARTESIAN_POINT('',(-13.,10.,-13.));
#253=DIRECTION('',(0.,1.,0.));
#254=DIRECTION('',(0.,0.,-1.));
#255=AXIS2_PLACEMENT_3D('',#252,#253,#254);
#256=CIRCLE('',#255,5.5);
#257=EDGE_CURVE('',#235,#244,#256,.T.);
#258=ORIENTED_EDGE('',*,*,#257,.F.);
#259=EDGE_LOOP('',(#242,#251,#258));
#260=FACE_BOUND('',#259,.T.);
#261=CARTESIAN_POINT('',(13.,10.,-7.5));
#262=VERTEX_POINT('',#261);
#263=CARTESIAN_POINT('',(13.,10.,-18.5));
#264=VERTEX_POINT('',#263);
#265=CARTESIAN_POINT('',(13.,10.,-13.));
#266=DIRECTION('',(0.,1.,0.));
#267=DIRECTION('',(0.,0.,-1.));
#268=AXIS2_PLACEMENT_3D('',#265,#266,#267);
#269=CIRCLE('',#268,5.5);
#270=EDGE_CURVE('',#262,#264,#269,.T.);
#271=ORIENTED_EDGE('',*,*,#270,.F.);
#272=CARTESIAN_POINT('',(13.,10.,-13.));
#273=DIRECTION('',(0.,1.,0.));
#274=DIRECTION('',(0.,0.,-1.));
#275=AXIS2_PLACEMENT_3D('',#272,#273,#274);
#276=CIRCLE('',#275,5.5);
#277=EDGE_CURVE('',#264,#262,#276,.T.);
#278=ORIENTED_EDGE('',*,*,#277,.F.);
#279=EDGE_LOOP('',(#271,#278));
#280=FACE_BOUND('',#279,.T.);
#281=CARTESIAN_POINT('',(-7.5,10.,13.));
#282=VERTEX_POINT('',#281);
#283=CARTESIAN_POINT('',(-13.,10.,7.5));
#284=VERTEX_POINT('',#283);
#285=CARTESIAN_POINT('',(-13.,10.,13.));
#286=DIRECTION('',(0.,1.,0.));
#287=DIRECTION('',(0.,0.,-1.));
#288=AXIS2_PLACEMENT_3D('',#285,#286,#287);
#289=CIRCLE('',#288,5.5);
#290=EDGE_CURVE('',#282,#284,#289,.T.);
#291=ORIENTED_EDGE('',*,*,#290,.F.);
#292=CARTESIAN_POINT('',(-18.5,10.,13.));
#293=VERTEX_POINT('',#292);
#294=CARTESIAN_POINT('',(-13.,10.,13.));
#295=DIRECTION('',(0.,1.,0.));
#296=DIRECTION('',(0.,0.,-1.));
#297=AXIS2_PLACEMENT_3D('',#294,#295,#296);
#298=CIRCLE('',#297,5.5);
#299=EDGE_CURVE('',#293,#282,#298,.T.);
#300=ORIENTED_EDGE('',*,*,#299,.F.);
#301=CARTESIAN_POINT('',(-13.,10.,13.));
#302=DIRECTION('',(0.,1.,0.));
#303=DIRECTION('',(0.,0.,-1.));
#304=AXIS2_PLACEMENT_3D('',#301,#302,#303);
#305=CIRCLE('',#304,5.5);
#306=EDGE_CURVE('',#284,#293,#305,.T.);
#307=ORIENTED_EDGE('',*,*,#306,.F.);
#308=EDGE_LOOP('',(#291,#300,#307));
#309=FACE_BOUND('',#308,.T.);
#310=CARTESIAN_POINT('',(13.,10.,18.5));
#311=VERTEX_POINT('',#310);
#312=CARTESIAN_POINT('',(13.,10.,7.5));
#313=VERTEX_POINT('',#312);
#314=CARTESIAN_POINT('',(13.,10.,13.));
#315=DIRECTION('',(0.,1.,0.));
#316=DIRECTION('',(0.,0.,-1.));
#317=AXIS2_PLACEMENT_3D('',#314,#315,#316);
#318=CIRCLE('',#317,5.5);
#319=EDGE_CURVE('',#311,#313,#318,.T.);
#320=ORIENTED_EDGE('',*,*,#319,.F.);
#321=CARTESIAN_POINT('',(13.,10.,13.));
#322=DIRECTION('',(0.,1.,0.));
#323=DIRECTION('',(0.,0.,-1.));
#324=AXIS2_PLACEMENT_3D('',#321,#322,#323);
#325=CIRCLE('',#324,5.5);
#326=EDGE_CURVE('',#313,#311,#325,.T.);
#327=ORIENTED_EDGE('',*,*,#326,.F.);
#328=EDGE_LOOP('',(#320,#327));
#329=FACE_BOUND('',#328,.T.);
#330=CARTESIAN_POINT('',(-22.,10.,-60.));
#331=DIRECTION('',(0.,0.,1.));
#332=VECTOR('',#331,120.);
#333=LINE('',#330,#332);
#334=EDGE_CURVE('',#202,#33,#333,.T.);
#335=ORIENTED_EDGE('',*,*,#334,.T.);
#336=ORIENTED_EDGE('',*,*,#62,.F.);
#337=CARTESIAN_POINT('',(22.,10.,-60.));
#338=DIRECTION('',(0.,0.,1.));
#339=VECTOR('',#338,120.);
#340=LINE('',#337,#339);
#341=EDGE_CURVE('',#210,#51,#340,.T.);
#342=ORIENTED_EDGE('',*,*,#341,.F.);
#343=ORIENTED_EDGE('',*,*,#215,.T.);
#344=EDGE_LOOP('',(#335,#336,#342,#343));
#345=FACE_BOUND('',#344,.T.);
#346=ADVANCED_FACE('',(#260,#280,#309,#329,#345),#231,.F.);
#347=CARTESIAN_POINT('',(22.,0.,0.));
#348=DIRECTION('',(1.,0.,0.));
#349=DIRECTION('',(0.,0.,-1.));
#350=AXIS2_PLACEMENT_3D('',#347,#348,#349);
#351=PLANE('',#350);
#352=ORIENTED_EDGE('',*,*,#56,.T.);
#353=ORIENTED_EDGE('',*,*,#190,.T.);
#354=ORIENTED_EDGE('',*,*,#221,.T.);
#355=ORIENTED_EDGE('',*,*,#341,.T.);
#356=EDGE_LOOP('',(#352,#353,#354,#355));
#357=FACE_BOUND('',#356,.T.);
#358=ADVANCED_FACE('',(#357),#351,.T.);
#359=CARTESIAN_POINT('',(-22.,0.,0.));
#360=DIRECTION('',(1.,0.,0.));
#361=DIRECTION('',(0.,0.,-1.));
#362=AXIS2_PLACEMENT_3D('',#359,#360,#361);
#363=PLANE('',#362);
#364=ORIENTED_EDGE('',*,*,#40,.F.);
#365=ORIENTED_EDGE('',*,*,#334,.F.);
#366=ORIENTED_EDGE('',*,*,#207,.F.);
#367=ORIENTED_EDGE('',*,*,#176,.F.);
#368=EDGE_LOOP('',(#364,#365,#366,#367));
#369=FACE_BOUND('',#368,.T.);
#370=ADVANCED_FACE('',(#369),#363,.F.);
#371=CARTESIAN_POINT('',(13.,-0.1,13.));
#372=DIRECTION('',(0.,-1.,0.));
#373=DIRECTION('',(0.,0.,-1.));
#374=AXIS2_PLACEMENT_3D('',#371,#372,#373);
#375=CYLINDRICAL_SURFACE('',#374,5.5);
#376=CARTESIAN_POINT('',(13.,-0.,18.5));
#377=DIRECTION('',(-0.,1.,-0.));
#378=VECTOR('',#377,10.);
#379=LINE('',#376,#378);
#380=EDGE_CURVE('',#153,#311,#379,.T.);
#381=ORIENTED_EDGE('',*,*,#380,.F.);
#382=ORIENTED_EDGE('',*,*,#166,.T.);
#383=CARTESIAN_POINT('',(13.,0.,7.5));
#384=DIRECTION('',(-0.,1.,0.));
#385=VECTOR('',#384,10.);
#386=LINE('',#383,#385);
#387=EDGE_CURVE('',#151,#313,#386,.T.);
#388=ORIENTED_EDGE('',*,*,#387,.T.);
#389=ORIENTED_EDGE('',*,*,#326,.T.);
#390=EDGE_LOOP('',(#381,#382,#388,#389));
#391=FACE_BOUND('',#390,.T.);
#392=ADVANCED_FACE('',(#391),#375,.F.);
#393=CARTESIAN_POINT('',(-13.,-0.1,13.));
#394=DIRECTION('',(0.,-1.,0.));
#395=DIRECTION('',(1.,0.,0.));
#396=AXIS2_PLACEMENT_3D('',#393,#394,#395);
#397=CYLINDRICAL_SURFACE('',#396,5.5);
#398=CARTESIAN_POINT('',(-18.5,0.,13.));
#399=DIRECTION('',(-0.,1.,-0.));
#400=VECTOR('',#399,10.);
#401=LINE('',#398,#400);
#402=EDGE_CURVE('',#133,#293,#401,.T.);
#403=ORIENTED_EDGE('',*,*,#402,.F.);
#404=ORIENTED_EDGE('',*,*,#139,.T.);
#405=CARTESIAN_POINT('',(-7.5,0.,13.));
#406=DIRECTION('',(-0.,1.,0.));
#407=VECTOR('',#406,10.);
#408=LINE('',#405,#407);
#409=EDGE_CURVE('',#122,#282,#408,.T.);
#410=ORIENTED_EDGE('',*,*,#409,.T.);
#411=ORIENTED_EDGE('',*,*,#290,.T.);
#412=ORIENTED_EDGE('',*,*,#306,.T.);
#413=EDGE_LOOP('',(#403,#404,#410,#411,#412));
#414=FACE_BOUND('',#413,.T.);
#415=ADVANCED_FACE('',(#414),#397,.F.);
#416=CARTESIAN_POINT('',(13.,-0.1,-13.));
#417=DIRECTION('',(0.,-1.,0.));
#418=DIRECTION('',(0.,0.,-1.));
#419=AXIS2_PLACEMENT_3D('',#416,#417,#418);
#420=CYLINDRICAL_SURFACE('',#419,5.5);
#421=CARTESIAN_POINT('',(13.,-0.,-7.5));
#422=DIRECTION('',(-0.,1.,-0.));
#423=VECTOR('',#422,10.);
#424=LINE('',#421,#423);
#425=EDGE_CURVE('',#104,#262,#424,.T.);
#426=ORIENTED_EDGE('',*,*,#425,.F.);
#427=ORIENTED_EDGE('',*,*,#117,.T.);
#428=CARTESIAN_POINT('',(13.,0.,-18.5));
#429=DIRECTION('',(-0.,1.,0.));
#430=VECTOR('',#429,10.);
#431=LINE('',#428,#430);
#432=EDGE_CURVE('',#102,#264,#431,.T.);
#433=ORIENTED_EDGE('',*,*,#432,.T.);
#434=ORIENTED_EDGE('',*,*,#277,.T.);
#435=EDGE_LOOP('',(#426,#427,#433,#434));
#436=FACE_BOUND('',#435,.T.);
#437=ADVANCED_FACE('',(#436),#420,.F.);
#438=CARTESIAN_POINT('',(-13.,-0.1,-13.));
#439=DIRECTION('',(0.,-1.,0.));
#440=DIRECTION('',(1.,0.,0.));
#441=AXIS2_PLACEMENT_3D('',#438,#439,#440);
#442=CYLINDRICAL_SURFACE('',#441,5.5);
#443=CARTESIAN_POINT('',(-18.5,0.,-13.));
#444=DIRECTION('',(-0.,1.,-0.));
#445=VECTOR('',#444,10.);
#446=LINE('',#443,#445);
#447=EDGE_CURVE('',#84,#244,#446,.T.);
#448=ORIENTED_EDGE('',*,*,#447,.F.);
#449=ORIENTED_EDGE('',*,*,#90,.T.);
#450=CARTESIAN_POINT('',(-7.5,0.,-13.));
#451=DIRECTION('',(-0.,1.,0.));
#452=VECTOR('',#451,10.);
#453=LINE('',#450,#452);
#454=EDGE_CURVE('',#73,#233,#453,.T.);
#455=ORIENTED_EDGE('',*,*,#454,.T.);
#456=ORIENTED_EDGE('',*,*,#241,.T.);
#457=ORIENTED_EDGE('',*,*,#257,.T.);
#458=EDGE_LOOP('',(#448,#449,#455,#456,#457));
#459=FACE_BOUND('',#458,.T.);
#460=ADVANCED_FACE('',(#459),#442,.F.);
#461=CARTESIAN_POINT('',(13.,-0.1,13.));
#462=DIRECTION('',(0.,-1.,0.));
#463=DIRECTION('',(0.,0.,-1.));
#464=AXIS2_PLACEMENT_3D('',#461,#462,#463);
#465=CYLINDRICAL_SURFACE('',#464,5.5);
#466=ORIENTED_EDGE('',*,*,#380,.T.);
#467=ORIENTED_EDGE('',*,*,#319,.T.);
#468=ORIENTED_EDGE('',*,*,#387,.F.);
#469=ORIENTED_EDGE('',*,*,#159,.T.);
#470=EDGE_LOOP('',(#466,#467,#468,#469));
#471=FACE_BOUND('',#470,.T.);
#472=ADVANCED_FACE('',(#471),#465,.F.);
#473=CARTESIAN_POINT('',(-13.,-0.1,13.));
#474=DIRECTION('',(0.,-1.,0.));
#475=DIRECTION('',(1.,0.,0.));
#476=AXIS2_PLACEMENT_3D('',#473,#474,#475);
#477=CYLINDRICAL_SURFACE('',#476,5.5);
#478=ORIENTED_EDGE('',*,*,#402,.T.);
#479=ORIENTED_EDGE('',*,*,#299,.T.);
#480=ORIENTED_EDGE('',*,*,#409,.F.);
#481=ORIENTED_EDGE('',*,*,#130,.T.);
#482=ORIENTED_EDGE('',*,*,#146,.T.);
#483=EDGE_LOOP('',(#478,#479,#480,#481,#482));
#484=FACE_BOUND('',#483,.T.);
#485=ADVANCED_FACE('',(#484),#477,.F.);
#486=CARTESIAN_POINT('',(13.,-0.1,-13.));
#487=DIRECTION('',(0.,-1.,0.));
#488=DIRECTION('',(0.,0.,-1.));
#489=AXIS2_PLACEMENT_3D('',#486,#487,#488);
#490=CYLINDRICAL_SURFACE('',#489,5.5);
#491=ORIENTED_EDGE('',*,*,#425,.T.);
#492=ORIENTED_EDGE('',*,*,#270,.T.);
#493=ORIENTED_EDGE('',*,*,#432,.F.);
#494=ORIENTED_EDGE('',*,*,#110,.T.);
#495=EDGE_LOOP('',(#491,#492,#493,#494));
#496=FACE_BOUND('',#495,.T.);
#497=ADVANCED_FACE('',(#496),#490,.F.);
#498=CARTESIAN_POINT('',(-13.,-0.1,-13.));
#499=DIRECTION('',(0.,-1.,0.));
#500=DIRECTION('',(1.,0.,0.));
#501=AXIS2_PLACEMENT_3D('',#498,#499,#500);
#502=CYLINDRICAL_SURFACE('',#501,5.5);
#503=ORIENTED_EDGE('',*,*,#447,.T.);
#504=ORIENTED_EDGE('',*,*,#250,.T.);
#505=ORIENTED_EDGE('',*,*,#454,.F.);
#506=ORIENTED_EDGE('',*,*,#81,.T.);
#507=ORIENTED_EDGE('',*,*,#97,.T.);
#508=EDGE_LOOP('',(#503,#504,#505,#506,#507));
#509=FACE_BOUND('',#508,.T.);
#510=ADVANCED_FACE('',(#509),#502,.F.);
#511=CLOSED_SHELL('',(#66,#195,#226,#346,#358,#370,#392,#415,#437,#460,#472,#485,#497,#510));
#512=MANIFOLD_SOLID_BREP('PHK45-10',#511);
#513=COLOUR_RGB('',0.686274529,0.686274529,0.686274529);
#514=FILL_AREA_STYLE_COLOUR('',#513);
#515=FILL_AREA_STYLE('',(#514));
#516=SURFACE_STYLE_FILL_AREA(#515);
#517=SURFACE_SIDE_STYLE('',(#516));
#518=SURFACE_STYLE_USAGE(.BOTH.,#517);
#519=PRESENTATION_STYLE_ASSIGNMENT((#518));
#26=STYLED_ITEM('',(#519),#512);
#520=INTEGER_REPRESENTATION_ITEM('ATTRIB_BOUNDING_BOX_ALGORITHM',3);
#521=ID_ATTRIBUTE('SA #522',#522);
#522=SHAPE_ASPECT('properties','',#23,.F.);
#523=GEOMETRIC_ITEM_SPECIFIC_USAGE('','properties',#522,#17,#512);
#524=PROPERTY_DEFINITION('ATTRIB_BOUNDING_BOX_ALGORITHM','',#522);
#525=REPRESENTATION('',(#520),#10);
#526=PROPERTY_DEFINITION_REPRESENTATION(#524,#525);
#527=GENERAL_PROPERTY('','ATTRIB_BOUNDING_BOX_ALGORITHM','');
#528=GENERAL_PROPERTY_ASSOCIATION('','',#527,#524);
#16=SHAPE_REPRESENTATION('6214 PHK45-10 Adapterplate',(#15),#10);
#17=ADVANCED_BREP_SHAPE_REPRESENTATION('6214 PHK45-10 Adapterplate',(#512),#10);
#536=SHAPE_REPRESENTATION_RELATIONSHIP('','',#16,#17);
#537=CARTESIAN_POINT('',(0.,0.,0.));
#538=DIRECTION('',(0.,0.,1.));
#539=DIRECTION('',(1.,0.,0.));
#540=AXIS2_PLACEMENT_3D('',#537,#538,#539);
#542=MAPPED_ITEM('',#541,#540);
#541=REPRESENTATION_MAP(#540,#16);
#543=APPLICATION_CONTEXT('Managed model based 3d engineering');
#544=APPLICATION_PROTOCOL_DEFINITION('international standard','ap242_managed_model_based_3d_engineering',2013,#543);
#545=PRODUCT_CONTEXT('',#543,'mechanical');
#546=PRODUCT_DEFINITION_CONTEXT('part definition',#543,'design');
#24=PRODUCT('6214 PHK45-10 Adapterplate','6214 PHK45-10 Adapterplate','',(#545));
#547=PRODUCT_RELATED_PRODUCT_CATEGORY('part','',(#24));
#548=PRODUCT_DEFINITION_FORMATION_WITH_SPECIFIED_SOURCE('','',#24,.NOT_KNOWN.);
#25=PRODUCT_DEFINITION('design','',#548,#546);
#23=PRODUCT_DEFINITION_SHAPE('','',#25);
#549=SHAPE_DEFINITION_REPRESENTATION(#23,#16);
#11=DRAUGHTING_MODEL('',(#542),#10);
#1=MECHANICAL_DESIGN_GEOMETRIC_PRESENTATION_REPRESENTATION('',(#26),#10);
ENDSEC;
END-ISO-10303-21;
