ISO-10303-21;
HEADER;
/* Generated by software containing ST-Developer
 * from STEP Tools, Inc. (www.steptools.com) 
 */

FILE_DESCRIPTION(
/* description */ ('Alibre Inc.'),
/* implementation_level */ '2;1');

FILE_NAME(
/* name */ 'export-7815B966-750E-4D08-BB28-D9CFC94D5659',
/* time_stamp */ '2023-01-19T18:16:31+01:00',
/* author */ (''),
/* organization */ (''),
/* preprocessor_version */ 'ST-DEVELOPER v17',
/* originating_system */ 'Alibre',
/* authorisation */ '');

FILE_SCHEMA (('AUTOMOTIVE_DESIGN'));
ENDSEC;

DATA;
#10=STYLED_ITEM('NAME_0',(#18),#373);
#11=MECHANICAL_DESIGN_GEOMETRIC_PRESENTATION_REPRESENTATION('NAME_0',(#10),
#33);
#12=COLOUR_RGB('',0.686274509803922,0.686274509803922,0.686274509803922);
#13=FILL_AREA_STYLE_COLOUR('NAME_0',#12);
#14=FILL_AREA_STYLE('NAME_0',(#13));
#15=SURFACE_STYLE_FILL_AREA(#14);
#16=SURFACE_SIDE_STYLE('NAME_0',(#15));
#17=SURFACE_STYLE_USAGE(.POSITIVE.,#16);
#18=PRESENTATION_STYLE_ASSIGNMENT((#17));
#19=PRODUCT_DEFINITION_CONTEXT('part definition',#26,'design');
#20=SHAPE_DEFINITION_REPRESENTATION(#21,#374);
#21=PRODUCT_DEFINITION_SHAPE('PRODUCT_VERSION_ID',
'PRODUCT_VERSION_DESCR',#22);
#22=PRODUCT_DEFINITION('PRODUCT_VERSION_ID','PRODUCT_VERSION_DESCR',#23,
#19);
#23=PRODUCT_DEFINITION_FORMATION_WITH_SPECIFIED_SOURCE(
'PRODUCT_VERSION_ID','PRODUCT_VERSION_DESCR',#28,.MADE.);
#24=PRODUCT_RELATED_PRODUCT_CATEGORY('part','part',(#28));
#25=APPLICATION_PROTOCOL_DEFINITION('Draft International Standard',
'automotive_design',1994,#26);
#26=APPLICATION_CONTEXT('automotive_Design');
#27=PRODUCT_CONTEXT('3D Mechanical Parts',#26,'mechanical');
#28=PRODUCT('PHK55-10','6215 PHK55-10 Adapterplate','',(#27));
#29=(
LENGTH_UNIT()
NAMED_UNIT(*)
SI_UNIT(.MILLI.,.METRE.)
);
#30=(
NAMED_UNIT(*)
PLANE_ANGLE_UNIT()
SI_UNIT($,.RADIAN.)
);
#31=(
NAMED_UNIT(*)
SI_UNIT($,.STERADIAN.)
SOLID_ANGLE_UNIT()
);
#32=UNCERTAINTY_MEASURE_WITH_UNIT(LENGTH_MEASURE(1.E-6),#29,
'DISTANCE_ACCURACY_VALUE',
'Maximum model space distance between geometric entities at asserted c
onnectivities');
#33=(
GEOMETRIC_REPRESENTATION_CONTEXT(3)
GLOBAL_UNCERTAINTY_ASSIGNED_CONTEXT((#32))
GLOBAL_UNIT_ASSIGNED_CONTEXT((#31,#30,#29))
REPRESENTATION_CONTEXT('ID1','3D')
);
#34=CYLINDRICAL_SURFACE('',#250,7.5);
#35=CYLINDRICAL_SURFACE('',#251,7.5);
#36=CYLINDRICAL_SURFACE('',#252,7.5);
#37=CYLINDRICAL_SURFACE('',#253,7.5);
#38=CIRCLE('',#234,7.5);
#39=CIRCLE('',#235,7.5);
#40=CIRCLE('',#236,7.5);
#41=CIRCLE('',#237,7.5);
#42=CIRCLE('',#238,7.5);
#43=CIRCLE('',#239,7.5);
#44=CIRCLE('',#240,7.5);
#45=CIRCLE('',#241,7.5);
#46=CIRCLE('',#244,7.5);
#47=CIRCLE('',#245,7.5);
#48=CIRCLE('',#246,7.5);
#49=CIRCLE('',#247,7.5);
#50=VERTEX_POINT('',#310);
#51=VERTEX_POINT('',#311);
#52=VERTEX_POINT('',#313);
#53=VERTEX_POINT('',#315);
#54=VERTEX_POINT('',#319);
#55=VERTEX_POINT('',#320);
#56=VERTEX_POINT('',#323);
#57=VERTEX_POINT('',#324);
#58=VERTEX_POINT('',#327);
#59=VERTEX_POINT('',#328);
#60=VERTEX_POINT('',#331);
#61=VERTEX_POINT('',#332);
#62=VERTEX_POINT('',#335);
#63=VERTEX_POINT('',#337);
#64=VERTEX_POINT('',#341);
#65=VERTEX_POINT('',#343);
#66=VERTEX_POINT('',#347);
#67=VERTEX_POINT('',#349);
#68=VERTEX_POINT('',#351);
#69=VERTEX_POINT('',#353);
#70=VECTOR('',#255,1.);
#71=VECTOR('',#256,1.);
#72=VECTOR('',#257,1.);
#73=VECTOR('',#258,1.);
#74=VECTOR('',#276,1.);
#75=VECTOR('',#277,1.);
#76=VECTOR('',#278,1.);
#77=VECTOR('',#280,1.);
#78=VECTOR('',#281,1.);
#79=VECTOR('',#282,1.);
#80=VECTOR('',#292,1.);
#81=VECTOR('',#293,1.);
#82=VECTOR('',#298,1.);
#83=VECTOR('',#301,1.);
#84=VECTOR('',#304,1.);
#85=VECTOR('',#307,1.);
#86=LINE('',#309,#70);
#87=LINE('',#312,#71);
#88=LINE('',#314,#72);
#89=LINE('',#316,#73);
#90=LINE('',#334,#74);
#91=LINE('',#336,#75);
#92=LINE('',#338,#76);
#93=LINE('',#340,#77);
#94=LINE('',#342,#78);
#95=LINE('',#344,#79);
#96=LINE('',#354,#80);
#97=LINE('',#355,#81);
#98=LINE('',#359,#82);
#99=LINE('',#361,#83);
#100=LINE('',#363,#84);
#101=LINE('',#365,#85);
#102=EDGE_CURVE('',#50,#51,#86,.T.);
#103=EDGE_CURVE('',#52,#51,#87,.T.);
#104=EDGE_CURVE('',#53,#52,#88,.T.);
#105=EDGE_CURVE('',#53,#50,#89,.T.);
#106=EDGE_CURVE('',#54,#55,#38,.T.);
#107=EDGE_CURVE('',#55,#54,#39,.T.);
#108=EDGE_CURVE('',#56,#57,#40,.T.);
#109=EDGE_CURVE('',#57,#56,#41,.T.);
#110=EDGE_CURVE('',#58,#59,#42,.T.);
#111=EDGE_CURVE('',#59,#58,#43,.T.);
#112=EDGE_CURVE('',#60,#61,#44,.T.);
#113=EDGE_CURVE('',#61,#60,#45,.T.);
#114=EDGE_CURVE('',#51,#62,#90,.T.);
#115=EDGE_CURVE('',#63,#62,#91,.T.);
#116=EDGE_CURVE('',#52,#63,#92,.T.);
#117=EDGE_CURVE('',#62,#64,#93,.T.);
#118=EDGE_CURVE('',#65,#64,#94,.T.);
#119=EDGE_CURVE('',#63,#65,#95,.T.);
#120=EDGE_CURVE('',#66,#66,#46,.T.);
#121=EDGE_CURVE('',#67,#67,#47,.T.);
#122=EDGE_CURVE('',#68,#68,#48,.T.);
#123=EDGE_CURVE('',#69,#69,#49,.T.);
#124=EDGE_CURVE('',#64,#50,#96,.T.);
#125=EDGE_CURVE('',#65,#53,#97,.T.);
#126=EDGE_CURVE('',#60,#69,#98,.T.);
#127=EDGE_CURVE('',#58,#68,#99,.T.);
#128=EDGE_CURVE('',#56,#67,#100,.T.);
#129=EDGE_CURVE('',#54,#66,#101,.T.);
#130=ORIENTED_EDGE('',*,*,#102,.T.);
#131=ORIENTED_EDGE('',*,*,#103,.F.);
#132=ORIENTED_EDGE('',*,*,#104,.F.);
#133=ORIENTED_EDGE('',*,*,#105,.T.);
#134=ORIENTED_EDGE('',*,*,#106,.F.);
#135=ORIENTED_EDGE('',*,*,#107,.F.);
#136=ORIENTED_EDGE('',*,*,#108,.F.);
#137=ORIENTED_EDGE('',*,*,#109,.F.);
#138=ORIENTED_EDGE('',*,*,#110,.F.);
#139=ORIENTED_EDGE('',*,*,#111,.F.);
#140=ORIENTED_EDGE('',*,*,#112,.F.);
#141=ORIENTED_EDGE('',*,*,#113,.F.);
#142=ORIENTED_EDGE('',*,*,#114,.T.);
#143=ORIENTED_EDGE('',*,*,#115,.F.);
#144=ORIENTED_EDGE('',*,*,#116,.F.);
#145=ORIENTED_EDGE('',*,*,#103,.T.);
#146=ORIENTED_EDGE('',*,*,#117,.T.);
#147=ORIENTED_EDGE('',*,*,#118,.F.);
#148=ORIENTED_EDGE('',*,*,#119,.F.);
#149=ORIENTED_EDGE('',*,*,#115,.T.);
#150=ORIENTED_EDGE('',*,*,#120,.F.);
#151=ORIENTED_EDGE('',*,*,#121,.F.);
#152=ORIENTED_EDGE('',*,*,#122,.F.);
#153=ORIENTED_EDGE('',*,*,#123,.F.);
#154=ORIENTED_EDGE('',*,*,#124,.T.);
#155=ORIENTED_EDGE('',*,*,#105,.F.);
#156=ORIENTED_EDGE('',*,*,#125,.F.);
#157=ORIENTED_EDGE('',*,*,#118,.T.);
#158=ORIENTED_EDGE('',*,*,#104,.T.);
#159=ORIENTED_EDGE('',*,*,#116,.T.);
#160=ORIENTED_EDGE('',*,*,#119,.T.);
#161=ORIENTED_EDGE('',*,*,#125,.T.);
#162=ORIENTED_EDGE('',*,*,#102,.F.);
#163=ORIENTED_EDGE('',*,*,#124,.F.);
#164=ORIENTED_EDGE('',*,*,#117,.F.);
#165=ORIENTED_EDGE('',*,*,#114,.F.);
#166=ORIENTED_EDGE('',*,*,#126,.F.);
#167=ORIENTED_EDGE('',*,*,#112,.T.);
#168=ORIENTED_EDGE('',*,*,#113,.T.);
#169=ORIENTED_EDGE('',*,*,#126,.T.);
#170=ORIENTED_EDGE('',*,*,#123,.T.);
#171=ORIENTED_EDGE('',*,*,#127,.F.);
#172=ORIENTED_EDGE('',*,*,#110,.T.);
#173=ORIENTED_EDGE('',*,*,#111,.T.);
#174=ORIENTED_EDGE('',*,*,#127,.T.);
#175=ORIENTED_EDGE('',*,*,#122,.T.);
#176=ORIENTED_EDGE('',*,*,#128,.F.);
#177=ORIENTED_EDGE('',*,*,#108,.T.);
#178=ORIENTED_EDGE('',*,*,#109,.T.);
#179=ORIENTED_EDGE('',*,*,#128,.T.);
#180=ORIENTED_EDGE('',*,*,#121,.T.);
#181=ORIENTED_EDGE('',*,*,#129,.F.);
#182=ORIENTED_EDGE('',*,*,#106,.T.);
#183=ORIENTED_EDGE('',*,*,#107,.T.);
#184=ORIENTED_EDGE('',*,*,#129,.T.);
#185=ORIENTED_EDGE('',*,*,#120,.T.);
#186=EDGE_LOOP('',(#130,#131,#132,#133));
#187=EDGE_LOOP('',(#134,#135));
#188=EDGE_LOOP('',(#136,#137));
#189=EDGE_LOOP('',(#138,#139));
#190=EDGE_LOOP('',(#140,#141));
#191=EDGE_LOOP('',(#142,#143,#144,#145));
#192=EDGE_LOOP('',(#146,#147,#148,#149));
#193=EDGE_LOOP('',(#150));
#194=EDGE_LOOP('',(#151));
#195=EDGE_LOOP('',(#152));
#196=EDGE_LOOP('',(#153));
#197=EDGE_LOOP('',(#154,#155,#156,#157));
#198=EDGE_LOOP('',(#158,#159,#160,#161));
#199=EDGE_LOOP('',(#162,#163,#164,#165));
#200=EDGE_LOOP('',(#166,#167,#168,#169,#170));
#201=EDGE_LOOP('',(#171,#172,#173,#174,#175));
#202=EDGE_LOOP('',(#176,#177,#178,#179,#180));
#203=EDGE_LOOP('',(#181,#182,#183,#184,#185));
#204=FACE_BOUND('',#186,.T.);
#205=FACE_BOUND('',#187,.T.);
#206=FACE_BOUND('',#188,.T.);
#207=FACE_BOUND('',#189,.T.);
#208=FACE_BOUND('',#190,.T.);
#209=FACE_BOUND('',#191,.T.);
#210=FACE_BOUND('',#192,.T.);
#211=FACE_BOUND('',#193,.T.);
#212=FACE_BOUND('',#194,.T.);
#213=FACE_BOUND('',#195,.T.);
#214=FACE_BOUND('',#196,.T.);
#215=FACE_BOUND('',#197,.T.);
#216=FACE_BOUND('',#198,.T.);
#217=FACE_BOUND('',#199,.T.);
#218=FACE_BOUND('',#200,.T.);
#219=FACE_BOUND('',#201,.T.);
#220=FACE_BOUND('',#202,.T.);
#221=FACE_BOUND('',#203,.T.);
#222=ADVANCED_FACE('',(#204),#366,.F.);
#223=ADVANCED_FACE('',(#205,#206,#207,#208,#209),#367,.F.);
#224=ADVANCED_FACE('',(#210),#368,.F.);
#225=ADVANCED_FACE('',(#211,#212,#213,#214,#215),#369,.F.);
#226=ADVANCED_FACE('',(#216),#370,.T.);
#227=ADVANCED_FACE('',(#217),#371,.F.);
#228=ADVANCED_FACE('',(#218),#34,.F.);
#229=ADVANCED_FACE('',(#219),#35,.F.);
#230=ADVANCED_FACE('',(#220),#36,.F.);
#231=ADVANCED_FACE('',(#221),#37,.F.);
#232=AXIS2_PLACEMENT_3D('',#308,#254,$);
#233=AXIS2_PLACEMENT_3D('',#317,#259,$);
#234=AXIS2_PLACEMENT_3D('',#318,#260,#261);
#235=AXIS2_PLACEMENT_3D('',#321,#262,#263);
#236=AXIS2_PLACEMENT_3D('',#322,#264,#265);
#237=AXIS2_PLACEMENT_3D('',#325,#266,#267);
#238=AXIS2_PLACEMENT_3D('',#326,#268,#269);
#239=AXIS2_PLACEMENT_3D('',#329,#270,#271);
#240=AXIS2_PLACEMENT_3D('',#330,#272,#273);
#241=AXIS2_PLACEMENT_3D('',#333,#274,#275);
#242=AXIS2_PLACEMENT_3D('',#339,#279,$);
#243=AXIS2_PLACEMENT_3D('',#345,#283,$);
#244=AXIS2_PLACEMENT_3D('',#346,#284,#285);
#245=AXIS2_PLACEMENT_3D('',#348,#286,#287);
#246=AXIS2_PLACEMENT_3D('',#350,#288,#289);
#247=AXIS2_PLACEMENT_3D('',#352,#290,#291);
#248=AXIS2_PLACEMENT_3D('',#356,#294,$);
#249=AXIS2_PLACEMENT_3D('',#357,#295,$);
#250=AXIS2_PLACEMENT_3D('',#358,#296,#297);
#251=AXIS2_PLACEMENT_3D('',#360,#299,#300);
#252=AXIS2_PLACEMENT_3D('',#362,#302,#303);
#253=AXIS2_PLACEMENT_3D('',#364,#305,#306);
#254=DIRECTION('',(0.,0.,-1.));
#255=DIRECTION('',(0.,-1.,0.));
#256=DIRECTION('',(-1.,0.,0.));
#257=DIRECTION('',(0.,-1.,0.));
#258=DIRECTION('',(-1.,0.,0.));
#259=DIRECTION('',(0.,1.,0.));
#260=DIRECTION('',(0.,-1.,0.));
#261=DIRECTION('',(0.,0.,7.5));
#262=DIRECTION('',(0.,-1.,0.));
#263=DIRECTION('',(0.,0.,7.5));
#264=DIRECTION('',(0.,-1.,0.));
#265=DIRECTION('',(0.,0.,7.5));
#266=DIRECTION('',(0.,-1.,0.));
#267=DIRECTION('',(0.,0.,7.5));
#268=DIRECTION('',(0.,-1.,0.));
#269=DIRECTION('',(0.,0.,7.5));
#270=DIRECTION('',(0.,-1.,0.));
#271=DIRECTION('',(0.,0.,7.5));
#272=DIRECTION('',(0.,-1.,0.));
#273=DIRECTION('',(0.,0.,7.5));
#274=DIRECTION('',(0.,-1.,0.));
#275=DIRECTION('',(0.,0.,7.5));
#276=DIRECTION('',(0.,0.,-1.));
#277=DIRECTION('',(-1.,0.,0.));
#278=DIRECTION('',(0.,0.,-1.));
#279=DIRECTION('',(0.,0.,1.));
#280=DIRECTION('',(0.,1.,0.));
#281=DIRECTION('',(-1.,0.,0.));
#282=DIRECTION('',(0.,1.,0.));
#283=DIRECTION('',(0.,-1.,0.));
#284=DIRECTION('',(0.,1.,0.));
#285=DIRECTION('',(0.,0.,-7.5));
#286=DIRECTION('',(0.,1.,0.));
#287=DIRECTION('',(0.,0.,-7.5));
#288=DIRECTION('',(0.,1.,0.));
#289=DIRECTION('',(0.,0.,-7.5));
#290=DIRECTION('',(0.,1.,0.));
#291=DIRECTION('',(0.,0.,-7.5));
#292=DIRECTION('',(0.,0.,1.));
#293=DIRECTION('',(0.,0.,1.));
#294=DIRECTION('',(1.,0.,0.));
#295=DIRECTION('',(1.,0.,0.));
#296=DIRECTION('',(0.,-1.,0.));
#297=DIRECTION('',(0.,0.,-7.5));
#298=DIRECTION('',(0.,1.,0.));
#299=DIRECTION('',(0.,-1.,0.));
#300=DIRECTION('',(0.,0.,-7.5));
#301=DIRECTION('',(0.,1.,0.));
#302=DIRECTION('',(0.,-1.,0.));
#303=DIRECTION('',(0.,0.,-7.5));
#304=DIRECTION('',(0.,1.,0.));
#305=DIRECTION('',(0.,-1.,0.));
#306=DIRECTION('',(0.,0.,-7.5));
#307=DIRECTION('',(0.,1.,0.));
#308=CARTESIAN_POINT('',(24.5,10.,70.));
#309=CARTESIAN_POINT('',(-24.5,10.,70.));
#310=CARTESIAN_POINT('',(-24.5,10.,70.));
#311=CARTESIAN_POINT('',(-24.5,0.,70.));
#312=CARTESIAN_POINT('',(24.5,0.,70.));
#313=CARTESIAN_POINT('',(24.5,0.,70.));
#314=CARTESIAN_POINT('',(24.5,10.,70.));
#315=CARTESIAN_POINT('',(24.5,10.,70.));
#316=CARTESIAN_POINT('',(24.5,10.,70.));
#317=CARTESIAN_POINT('',(24.5,0.,70.));
#318=CARTESIAN_POINT('',(-15.,0.,-15.));
#319=CARTESIAN_POINT('',(-15.,-2.77555756156289E-17,-22.5));
#320=CARTESIAN_POINT('',(-15.,0.,-7.5));
#321=CARTESIAN_POINT('',(-15.,0.,-15.));
#322=CARTESIAN_POINT('',(15.,0.,-15.));
#323=CARTESIAN_POINT('',(15.,-2.77555756156289E-17,-22.5));
#324=CARTESIAN_POINT('',(15.,0.,-7.5));
#325=CARTESIAN_POINT('',(15.,0.,-15.));
#326=CARTESIAN_POINT('',(-15.,0.,15.));
#327=CARTESIAN_POINT('',(-15.,-2.77555756156289E-17,7.5));
#328=CARTESIAN_POINT('',(-15.,0.,22.5));
#329=CARTESIAN_POINT('',(-15.,0.,15.));
#330=CARTESIAN_POINT('',(15.,0.,15.));
#331=CARTESIAN_POINT('',(15.,-2.77555756156289E-17,7.5));
#332=CARTESIAN_POINT('',(15.,0.,22.5));
#333=CARTESIAN_POINT('',(15.,0.,15.));
#334=CARTESIAN_POINT('',(-24.5,0.,70.));
#335=CARTESIAN_POINT('',(-24.5,0.,-70.));
#336=CARTESIAN_POINT('',(24.5,0.,-70.));
#337=CARTESIAN_POINT('',(24.5,0.,-70.));
#338=CARTESIAN_POINT('',(24.5,0.,70.));
#339=CARTESIAN_POINT('',(24.5,0.,-70.));
#340=CARTESIAN_POINT('',(-24.5,0.,-70.));
#341=CARTESIAN_POINT('',(-24.5,10.,-70.));
#342=CARTESIAN_POINT('',(24.5,10.,-70.));
#343=CARTESIAN_POINT('',(24.5,10.,-70.));
#344=CARTESIAN_POINT('',(24.5,0.,-70.));
#345=CARTESIAN_POINT('',(24.5,10.,-70.));
#346=CARTESIAN_POINT('',(-15.,10.,-15.));
#347=CARTESIAN_POINT('',(-15.,10.,-22.5));
#348=CARTESIAN_POINT('',(15.,10.,-15.));
#349=CARTESIAN_POINT('',(15.,10.,-22.5));
#350=CARTESIAN_POINT('',(-15.,10.,15.));
#351=CARTESIAN_POINT('',(-15.,10.,7.5));
#352=CARTESIAN_POINT('',(15.,10.,15.));
#353=CARTESIAN_POINT('',(15.,10.,7.5));
#354=CARTESIAN_POINT('',(-24.5,10.,-70.));
#355=CARTESIAN_POINT('',(24.5,10.,-70.));
#356=CARTESIAN_POINT('',(24.5,0.,0.));
#357=CARTESIAN_POINT('',(-24.5,0.,0.));
#358=CARTESIAN_POINT('',(15.,-0.0999999999999997,15.));
#359=CARTESIAN_POINT('',(15.,10.1,7.5));
#360=CARTESIAN_POINT('',(-15.,-0.0999999999999997,15.));
#361=CARTESIAN_POINT('',(-15.,10.1,7.5));
#362=CARTESIAN_POINT('',(15.,-0.0999999999999997,-15.));
#363=CARTESIAN_POINT('',(15.,10.1,-22.5));
#364=CARTESIAN_POINT('',(-15.,-0.0999999999999997,-15.));
#365=CARTESIAN_POINT('',(-15.,10.1,-22.5));
#366=PLANE('',#232);
#367=PLANE('',#233);
#368=PLANE('',#242);
#369=PLANE('',#243);
#370=PLANE('',#248);
#371=PLANE('',#249);
#372=CLOSED_SHELL('',(#222,#223,#224,#225,#226,#227,#228,#229,#230,#231));
#373=MANIFOLD_SOLID_BREP('',#372);
#374=ADVANCED_BREP_SHAPE_REPRESENTATION('',(#373),#33);
ENDSEC;
END-ISO-10303-21;
