ISO-10303-21;
HEADER;

/* File generated by Alibre Version V23 */

FILE_DESCRIPTION(('HOOPS Exchange Step'),'2;1');

FILE_NAME('C:\\Users\\Gebruiker\\AppData\\Local\\Temp\\Alibre Design\\export-6C887BC2-DA97-449E-BF24-4A722067BA6A.stp',
'2023-01-19T18:16:43+01:00',
('Engineering'),
('Alibre'),
'HOOPS Exchange 2021.0',
'Alibre',
'Unknown authorisation');

FILE_SCHEMA( ('AP242_MANAGED_MODEL_BASED_3D_ENGINEERING_MIM_LF {1 0 10303 442 1 1 4 }') );

ENDSEC;

DATA;
#3=(NAMED_UNIT(*)PLANE_ANGLE_UNIT()SI_UNIT($,.RADIAN.));
#4=PLANE_ANGLE_MEASURE_WITH_UNIT(PLANE_ANGLE_MEASURE(0.0174532925),#3);
#5=(CONVERSION_BASED_UNIT('DEGREE',#4)NAMED_UNIT(#6)PLANE_ANGLE_UNIT());
#6=DIMENSIONAL_EXPONENTS(0.,0.,0.,0.,0.,0.,0.);
#7=(NAMED_UNIT(*)SI_UNIT($,.STERADIAN.)SOLID_ANGLE_UNIT());
#8=(LENGTH_UNIT()NAMED_UNIT(*)SI_UNIT(.MILLI.,.METRE.));
#9=UNCERTAINTY_MEASURE_WITH_UNIT(LENGTH_MEASURE(1.000000E-06),#8,'DISTANCE_ACCURACY_VALUE','Maximum Tolerance applied to model');
#10=(GEOMETRIC_REPRESENTATION_CONTEXT(3)GLOBAL_UNCERTAINTY_ASSIGNED_CONTEXT((#9))GLOBAL_UNIT_ASSIGNED_CONTEXT((#8,#5,#7))REPRESENTATION_CONTEXT('','6215 PHK55-10 Adapterplate'));
#12=CARTESIAN_POINT('',(0.,0.,0.));
#13=DIRECTION('',(0.,0.,1.));
#14=DIRECTION('',(1.,0.,0.));
#15=AXIS2_PLACEMENT_3D('',#12,#13,#14);
#27=CARTESIAN_POINT('',(24.5,10.,70.));
#28=DIRECTION('',(0.,0.,-1.));
#29=DIRECTION('',(-1.,0.,0.));
#30=AXIS2_PLACEMENT_3D('',#27,#28,#29);
#31=PLANE('',#30);
#32=CARTESIAN_POINT('',(-24.5,10.,70.));
#33=VERTEX_POINT('',#32);
#34=CARTESIAN_POINT('',(-24.5,0.,70.));
#35=VERTEX_POINT('',#34);
#36=CARTESIAN_POINT('',(-24.5,10.,70.));
#37=DIRECTION('',(0.,-1.,0.));
#38=VECTOR('',#37,10.);
#39=LINE('',#36,#38);
#40=EDGE_CURVE('',#33,#35,#39,.T.);
#41=ORIENTED_EDGE('',*,*,#40,.T.);
#42=CARTESIAN_POINT('',(24.5,0.,70.));
#43=VERTEX_POINT('',#42);
#44=CARTESIAN_POINT('',(24.5,0.,70.));
#45=DIRECTION('',(-1.,0.,0.));
#46=VECTOR('',#45,49.);
#47=LINE('',#44,#46);
#48=EDGE_CURVE('',#43,#35,#47,.T.);
#49=ORIENTED_EDGE('',*,*,#48,.F.);
#50=CARTESIAN_POINT('',(24.5,10.,70.));
#51=VERTEX_POINT('',#50);
#52=CARTESIAN_POINT('',(24.5,10.,70.));
#53=DIRECTION('',(0.,-1.,0.));
#54=VECTOR('',#53,10.);
#55=LINE('',#52,#54);
#56=EDGE_CURVE('',#51,#43,#55,.T.);
#57=ORIENTED_EDGE('',*,*,#56,.F.);
#58=CARTESIAN_POINT('',(24.5,10.,70.));
#59=DIRECTION('',(-1.,0.,0.));
#60=VECTOR('',#59,49.);
#61=LINE('',#58,#60);
#62=EDGE_CURVE('',#51,#33,#61,.T.);
#63=ORIENTED_EDGE('',*,*,#62,.T.);
#64=EDGE_LOOP('',(#41,#49,#57,#63));
#65=FACE_BOUND('',#64,.T.);
#66=ADVANCED_FACE('',(#65),#31,.F.);
#67=CARTESIAN_POINT('',(24.5,0.,70.));
#68=DIRECTION('',(0.,1.,0.));
#69=DIRECTION('',(0.,0.,1.));
#70=AXIS2_PLACEMENT_3D('',#67,#68,#69);
#71=PLANE('',#70);
#72=CARTESIAN_POINT('',(-15.,-0.,-22.5));
#73=VERTEX_POINT('',#72);
#74=CARTESIAN_POINT('',(-15.,0.,-7.5));
#75=VERTEX_POINT('',#74);
#76=CARTESIAN_POINT('',(-15.,0.,-15.));
#77=DIRECTION('',(0.,-1.,-0.));
#78=DIRECTION('',(0.,-0.,1.));
#79=AXIS2_PLACEMENT_3D('',#76,#77,#78);
#80=CIRCLE('',#79,7.5);
#81=EDGE_CURVE('',#73,#75,#80,.T.);
#82=ORIENTED_EDGE('',*,*,#81,.F.);
#83=CARTESIAN_POINT('',(-15.,0.,-15.));
#84=DIRECTION('',(0.,-1.,-0.));
#85=DIRECTION('',(0.,-0.,1.));
#86=AXIS2_PLACEMENT_3D('',#83,#84,#85);
#87=CIRCLE('',#86,7.5);
#88=EDGE_CURVE('',#75,#73,#87,.T.);
#89=ORIENTED_EDGE('',*,*,#88,.F.);
#90=EDGE_LOOP('',(#82,#89));
#91=FACE_BOUND('',#90,.T.);
#92=CARTESIAN_POINT('',(15.,-0.,-22.5));
#93=VERTEX_POINT('',#92);
#94=CARTESIAN_POINT('',(15.,0.,-7.5));
#95=VERTEX_POINT('',#94);
#96=CARTESIAN_POINT('',(15.,0.,-15.));
#97=DIRECTION('',(0.,-1.,-0.));
#98=DIRECTION('',(0.,-0.,1.));
#99=AXIS2_PLACEMENT_3D('',#96,#97,#98);
#100=CIRCLE('',#99,7.5);
#101=EDGE_CURVE('',#93,#95,#100,.T.);
#102=ORIENTED_EDGE('',*,*,#101,.F.);
#103=CARTESIAN_POINT('',(15.,0.,-15.));
#104=DIRECTION('',(0.,-1.,-0.));
#105=DIRECTION('',(0.,-0.,1.));
#106=AXIS2_PLACEMENT_3D('',#103,#104,#105);
#107=CIRCLE('',#106,7.5);
#108=EDGE_CURVE('',#95,#93,#107,.T.);
#109=ORIENTED_EDGE('',*,*,#108,.F.);
#110=EDGE_LOOP('',(#102,#109));
#111=FACE_BOUND('',#110,.T.);
#112=CARTESIAN_POINT('',(-15.,-0.,7.5));
#113=VERTEX_POINT('',#112);
#114=CARTESIAN_POINT('',(-15.,0.,22.5));
#115=VERTEX_POINT('',#114);
#116=CARTESIAN_POINT('',(-15.,0.,15.));
#117=DIRECTION('',(0.,-1.,-0.));
#118=DIRECTION('',(0.,-0.,1.));
#119=AXIS2_PLACEMENT_3D('',#116,#117,#118);
#120=CIRCLE('',#119,7.5);
#121=EDGE_CURVE('',#113,#115,#120,.T.);
#122=ORIENTED_EDGE('',*,*,#121,.F.);
#123=CARTESIAN_POINT('',(-15.,0.,15.));
#124=DIRECTION('',(0.,-1.,-0.));
#125=DIRECTION('',(0.,-0.,1.));
#126=AXIS2_PLACEMENT_3D('',#123,#124,#125);
#127=CIRCLE('',#126,7.5);
#128=EDGE_CURVE('',#115,#113,#127,.T.);
#129=ORIENTED_EDGE('',*,*,#128,.F.);
#130=EDGE_LOOP('',(#122,#129));
#131=FACE_BOUND('',#130,.T.);
#132=CARTESIAN_POINT('',(15.,-0.,7.5));
#133=VERTEX_POINT('',#132);
#134=CARTESIAN_POINT('',(15.,0.,22.5));
#135=VERTEX_POINT('',#134);
#136=CARTESIAN_POINT('',(15.,0.,15.));
#137=DIRECTION('',(0.,-1.,-0.));
#138=DIRECTION('',(0.,-0.,1.));
#139=AXIS2_PLACEMENT_3D('',#136,#137,#138);
#140=CIRCLE('',#139,7.5);
#141=EDGE_CURVE('',#133,#135,#140,.T.);
#142=ORIENTED_EDGE('',*,*,#141,.F.);
#143=CARTESIAN_POINT('',(15.,0.,15.));
#144=DIRECTION('',(0.,-1.,-0.));
#145=DIRECTION('',(0.,-0.,1.));
#146=AXIS2_PLACEMENT_3D('',#143,#144,#145);
#147=CIRCLE('',#146,7.5);
#148=EDGE_CURVE('',#135,#133,#147,.T.);
#149=ORIENTED_EDGE('',*,*,#148,.F.);
#150=EDGE_LOOP('',(#142,#149));
#151=FACE_BOUND('',#150,.T.);
#152=CARTESIAN_POINT('',(-24.5,0.,-70.));
#153=VERTEX_POINT('',#152);
#154=CARTESIAN_POINT('',(-24.5,0.,70.));
#155=DIRECTION('',(0.,0.,-1.));
#156=VECTOR('',#155,140.);
#157=LINE('',#154,#156);
#158=EDGE_CURVE('',#35,#153,#157,.T.);
#159=ORIENTED_EDGE('',*,*,#158,.T.);
#160=CARTESIAN_POINT('',(24.5,0.,-70.));
#161=VERTEX_POINT('',#160);
#162=CARTESIAN_POINT('',(24.5,0.,-70.));
#163=DIRECTION('',(-1.,0.,0.));
#164=VECTOR('',#163,49.);
#165=LINE('',#162,#164);
#166=EDGE_CURVE('',#161,#153,#165,.T.);
#167=ORIENTED_EDGE('',*,*,#166,.F.);
#168=CARTESIAN_POINT('',(24.5,0.,70.));
#169=DIRECTION('',(0.,0.,-1.));
#170=VECTOR('',#169,140.);
#171=LINE('',#168,#170);
#172=EDGE_CURVE('',#43,#161,#171,.T.);
#173=ORIENTED_EDGE('',*,*,#172,.F.);
#174=ORIENTED_EDGE('',*,*,#48,.T.);
#175=EDGE_LOOP('',(#159,#167,#173,#174));
#176=FACE_BOUND('',#175,.T.);
#177=ADVANCED_FACE('',(#91,#111,#131,#151,#176),#71,.F.);
#178=CARTESIAN_POINT('',(24.5,0.,-70.));
#179=DIRECTION('',(0.,0.,1.));
#180=DIRECTION('',(1.,0.,0.));
#181=AXIS2_PLACEMENT_3D('',#178,#179,#180);
#182=PLANE('',#181);
#183=CARTESIAN_POINT('',(-24.5,10.,-70.));
#184=VERTEX_POINT('',#183);
#185=CARTESIAN_POINT('',(-24.5,0.,-70.));
#186=DIRECTION('',(0.,1.,0.));
#187=VECTOR('',#186,10.);
#188=LINE('',#185,#187);
#189=EDGE_CURVE('',#153,#184,#188,.T.);
#190=ORIENTED_EDGE('',*,*,#189,.T.);
#191=CARTESIAN_POINT('',(24.5,10.,-70.));
#192=VERTEX_POINT('',#191);
#193=CARTESIAN_POINT('',(24.5,10.,-70.));
#194=DIRECTION('',(-1.,0.,0.));
#195=VECTOR('',#194,49.);
#196=LINE('',#193,#195);
#197=EDGE_CURVE('',#192,#184,#196,.T.);
#198=ORIENTED_EDGE('',*,*,#197,.F.);
#199=CARTESIAN_POINT('',(24.5,0.,-70.));
#200=DIRECTION('',(0.,1.,0.));
#201=VECTOR('',#200,10.);
#202=LINE('',#199,#201);
#203=EDGE_CURVE('',#161,#192,#202,.T.);
#204=ORIENTED_EDGE('',*,*,#203,.F.);
#205=ORIENTED_EDGE('',*,*,#166,.T.);
#206=EDGE_LOOP('',(#190,#198,#204,#205));
#207=FACE_BOUND('',#206,.T.);
#208=ADVANCED_FACE('',(#207),#182,.F.);
#209=CARTESIAN_POINT('',(24.5,10.,-70.));
#210=DIRECTION('',(0.,-1.,0.));
#211=DIRECTION('',(0.,0.,-1.));
#212=AXIS2_PLACEMENT_3D('',#209,#210,#211);
#213=PLANE('',#212);
#214=CARTESIAN_POINT('',(-15.,10.,-7.5));
#215=VERTEX_POINT('',#214);
#216=CARTESIAN_POINT('',(-15.,10.,-22.5));
#217=VERTEX_POINT('',#216);
#218=CARTESIAN_POINT('',(-15.,10.,-15.));
#219=DIRECTION('',(0.,1.,0.));
#220=DIRECTION('',(0.,0.,-1.));
#221=AXIS2_PLACEMENT_3D('',#218,#219,#220);
#222=CIRCLE('',#221,7.5);
#223=EDGE_CURVE('',#215,#217,#222,.T.);
#224=ORIENTED_EDGE('',*,*,#223,.F.);
#225=CARTESIAN_POINT('',(-15.,10.,-15.));
#226=DIRECTION('',(0.,1.,0.));
#227=DIRECTION('',(0.,0.,-1.));
#228=AXIS2_PLACEMENT_3D('',#225,#226,#227);
#229=CIRCLE('',#228,7.5);
#230=EDGE_CURVE('',#217,#215,#229,.T.);
#231=ORIENTED_EDGE('',*,*,#230,.F.);
#232=EDGE_LOOP('',(#224,#231));
#233=FACE_BOUND('',#232,.T.);
#234=CARTESIAN_POINT('',(15.,10.,-7.5));
#235=VERTEX_POINT('',#234);
#236=CARTESIAN_POINT('',(15.,10.,-22.5));
#237=VERTEX_POINT('',#236);
#238=CARTESIAN_POINT('',(15.,10.,-15.));
#239=DIRECTION('',(0.,1.,0.));
#240=DIRECTION('',(0.,0.,-1.));
#241=AXIS2_PLACEMENT_3D('',#238,#239,#240);
#242=CIRCLE('',#241,7.5);
#243=EDGE_CURVE('',#235,#237,#242,.T.);
#244=ORIENTED_EDGE('',*,*,#243,.F.);
#245=CARTESIAN_POINT('',(15.,10.,-15.));
#246=DIRECTION('',(0.,1.,0.));
#247=DIRECTION('',(0.,0.,-1.));
#248=AXIS2_PLACEMENT_3D('',#245,#246,#247);
#249=CIRCLE('',#248,7.5);
#250=EDGE_CURVE('',#237,#235,#249,.T.);
#251=ORIENTED_EDGE('',*,*,#250,.F.);
#252=EDGE_LOOP('',(#244,#251));
#253=FACE_BOUND('',#252,.T.);
#254=CARTESIAN_POINT('',(-15.,10.,22.5));
#255=VERTEX_POINT('',#254);
#256=CARTESIAN_POINT('',(-15.,10.,7.5));
#257=VERTEX_POINT('',#256);
#258=CARTESIAN_POINT('',(-15.,10.,15.));
#259=DIRECTION('',(0.,1.,0.));
#260=DIRECTION('',(0.,0.,-1.));
#261=AXIS2_PLACEMENT_3D('',#258,#259,#260);
#262=CIRCLE('',#261,7.5);
#263=EDGE_CURVE('',#255,#257,#262,.T.);
#264=ORIENTED_EDGE('',*,*,#263,.F.);
#265=CARTESIAN_POINT('',(-15.,10.,15.));
#266=DIRECTION('',(0.,1.,0.));
#267=DIRECTION('',(0.,0.,-1.));
#268=AXIS2_PLACEMENT_3D('',#265,#266,#267);
#269=CIRCLE('',#268,7.5);
#270=EDGE_CURVE('',#257,#255,#269,.T.);
#271=ORIENTED_EDGE('',*,*,#270,.F.);
#272=EDGE_LOOP('',(#264,#271));
#273=FACE_BOUND('',#272,.T.);
#274=CARTESIAN_POINT('',(15.,10.,22.5));
#275=VERTEX_POINT('',#274);
#276=CARTESIAN_POINT('',(15.,10.,7.5));
#277=VERTEX_POINT('',#276);
#278=CARTESIAN_POINT('',(15.,10.,15.));
#279=DIRECTION('',(0.,1.,0.));
#280=DIRECTION('',(0.,0.,-1.));
#281=AXIS2_PLACEMENT_3D('',#278,#279,#280);
#282=CIRCLE('',#281,7.5);
#283=EDGE_CURVE('',#275,#277,#282,.T.);
#284=ORIENTED_EDGE('',*,*,#283,.F.);
#285=CARTESIAN_POINT('',(15.,10.,15.));
#286=DIRECTION('',(0.,1.,0.));
#287=DIRECTION('',(0.,0.,-1.));
#288=AXIS2_PLACEMENT_3D('',#285,#286,#287);
#289=CIRCLE('',#288,7.5);
#290=EDGE_CURVE('',#277,#275,#289,.T.);
#291=ORIENTED_EDGE('',*,*,#290,.F.);
#292=EDGE_LOOP('',(#284,#291));
#293=FACE_BOUND('',#292,.T.);
#294=CARTESIAN_POINT('',(-24.5,10.,-70.));
#295=DIRECTION('',(0.,0.,1.));
#296=VECTOR('',#295,140.);
#297=LINE('',#294,#296);
#298=EDGE_CURVE('',#184,#33,#297,.T.);
#299=ORIENTED_EDGE('',*,*,#298,.T.);
#300=ORIENTED_EDGE('',*,*,#62,.F.);
#301=CARTESIAN_POINT('',(24.5,10.,-70.));
#302=DIRECTION('',(0.,0.,1.));
#303=VECTOR('',#302,140.);
#304=LINE('',#301,#303);
#305=EDGE_CURVE('',#192,#51,#304,.T.);
#306=ORIENTED_EDGE('',*,*,#305,.F.);
#307=ORIENTED_EDGE('',*,*,#197,.T.);
#308=EDGE_LOOP('',(#299,#300,#306,#307));
#309=FACE_BOUND('',#308,.T.);
#310=ADVANCED_FACE('',(#233,#253,#273,#293,#309),#213,.F.);
#311=CARTESIAN_POINT('',(24.5,0.,0.));
#312=DIRECTION('',(1.,0.,0.));
#313=DIRECTION('',(0.,0.,-1.));
#314=AXIS2_PLACEMENT_3D('',#311,#312,#313);
#315=PLANE('',#314);
#316=ORIENTED_EDGE('',*,*,#56,.T.);
#317=ORIENTED_EDGE('',*,*,#172,.T.);
#318=ORIENTED_EDGE('',*,*,#203,.T.);
#319=ORIENTED_EDGE('',*,*,#305,.T.);
#320=EDGE_LOOP('',(#316,#317,#318,#319));
#321=FACE_BOUND('',#320,.T.);
#322=ADVANCED_FACE('',(#321),#315,.T.);
#323=CARTESIAN_POINT('',(-24.5,0.,0.));
#324=DIRECTION('',(1.,0.,0.));
#325=DIRECTION('',(0.,0.,-1.));
#326=AXIS2_PLACEMENT_3D('',#323,#324,#325);
#327=PLANE('',#326);
#328=ORIENTED_EDGE('',*,*,#40,.F.);
#329=ORIENTED_EDGE('',*,*,#298,.F.);
#330=ORIENTED_EDGE('',*,*,#189,.F.);
#331=ORIENTED_EDGE('',*,*,#158,.F.);
#332=EDGE_LOOP('',(#328,#329,#330,#331));
#333=FACE_BOUND('',#332,.T.);
#334=ADVANCED_FACE('',(#333),#327,.F.);
#335=CARTESIAN_POINT('',(15.,-0.1,15.));
#336=DIRECTION('',(0.,-1.,0.));
#337=DIRECTION('',(0.,0.,-1.));
#338=AXIS2_PLACEMENT_3D('',#335,#336,#337);
#339=CYLINDRICAL_SURFACE('',#338,7.5);
#340=CARTESIAN_POINT('',(15.,-0.,22.5));
#341=DIRECTION('',(-0.,1.,-0.));
#342=VECTOR('',#341,10.);
#343=LINE('',#340,#342);
#344=EDGE_CURVE('',#135,#275,#343,.T.);
#345=ORIENTED_EDGE('',*,*,#344,.F.);
#346=ORIENTED_EDGE('',*,*,#148,.T.);
#347=CARTESIAN_POINT('',(15.,0.,7.5));
#348=DIRECTION('',(-0.,1.,0.));
#349=VECTOR('',#348,10.);
#350=LINE('',#347,#349);
#351=EDGE_CURVE('',#133,#277,#350,.T.);
#352=ORIENTED_EDGE('',*,*,#351,.T.);
#353=ORIENTED_EDGE('',*,*,#290,.T.);
#354=EDGE_LOOP('',(#345,#346,#352,#353));
#355=FACE_BOUND('',#354,.T.);
#356=ADVANCED_FACE('',(#355),#339,.F.);
#357=CARTESIAN_POINT('',(-15.,-0.1,15.));
#358=DIRECTION('',(0.,-1.,0.));
#359=DIRECTION('',(0.,0.,-1.));
#360=AXIS2_PLACEMENT_3D('',#357,#358,#359);
#361=CYLINDRICAL_SURFACE('',#360,7.5);
#362=CARTESIAN_POINT('',(-15.,-0.,22.5));
#363=DIRECTION('',(-0.,1.,-0.));
#364=VECTOR('',#363,10.);
#365=LINE('',#362,#364);
#366=EDGE_CURVE('',#115,#255,#365,.T.);
#367=ORIENTED_EDGE('',*,*,#366,.F.);
#368=ORIENTED_EDGE('',*,*,#128,.T.);
#369=CARTESIAN_POINT('',(-15.,0.,7.5));
#370=DIRECTION('',(-0.,1.,0.));
#371=VECTOR('',#370,10.);
#372=LINE('',#369,#371);
#373=EDGE_CURVE('',#113,#257,#372,.T.);
#374=ORIENTED_EDGE('',*,*,#373,.T.);
#375=ORIENTED_EDGE('',*,*,#270,.T.);
#376=EDGE_LOOP('',(#367,#368,#374,#375));
#377=FACE_BOUND('',#376,.T.);
#378=ADVANCED_FACE('',(#377),#361,.F.);
#379=CARTESIAN_POINT('',(15.,-0.1,-15.));
#380=DIRECTION('',(0.,-1.,0.));
#381=DIRECTION('',(0.,0.,-1.));
#382=AXIS2_PLACEMENT_3D('',#379,#380,#381);
#383=CYLINDRICAL_SURFACE('',#382,7.5);
#384=CARTESIAN_POINT('',(15.,-0.,-7.5));
#385=DIRECTION('',(-0.,1.,-0.));
#386=VECTOR('',#385,10.);
#387=LINE('',#384,#386);
#388=EDGE_CURVE('',#95,#235,#387,.T.);
#389=ORIENTED_EDGE('',*,*,#388,.F.);
#390=ORIENTED_EDGE('',*,*,#108,.T.);
#391=CARTESIAN_POINT('',(15.,0.,-22.5));
#392=DIRECTION('',(-0.,1.,0.));
#393=VECTOR('',#392,10.);
#394=LINE('',#391,#393);
#395=EDGE_CURVE('',#93,#237,#394,.T.);
#396=ORIENTED_EDGE('',*,*,#395,.T.);
#397=ORIENTED_EDGE('',*,*,#250,.T.);
#398=EDGE_LOOP('',(#389,#390,#396,#397));
#399=FACE_BOUND('',#398,.T.);
#400=ADVANCED_FACE('',(#399),#383,.F.);
#401=CARTESIAN_POINT('',(-15.,-0.1,-15.));
#402=DIRECTION('',(0.,-1.,0.));
#403=DIRECTION('',(0.,0.,-1.));
#404=AXIS2_PLACEMENT_3D('',#401,#402,#403);
#405=CYLINDRICAL_SURFACE('',#404,7.5);
#406=CARTESIAN_POINT('',(-15.,-0.,-7.5));
#407=DIRECTION('',(-0.,1.,-0.));
#408=VECTOR('',#407,10.);
#409=LINE('',#406,#408);
#410=EDGE_CURVE('',#75,#215,#409,.T.);
#411=ORIENTED_EDGE('',*,*,#410,.F.);
#412=ORIENTED_EDGE('',*,*,#88,.T.);
#413=CARTESIAN_POINT('',(-15.,0.,-22.5));
#414=DIRECTION('',(-0.,1.,0.));
#415=VECTOR('',#414,10.);
#416=LINE('',#413,#415);
#417=EDGE_CURVE('',#73,#217,#416,.T.);
#418=ORIENTED_EDGE('',*,*,#417,.T.);
#419=ORIENTED_EDGE('',*,*,#230,.T.);
#420=EDGE_LOOP('',(#411,#412,#418,#419));
#421=FACE_BOUND('',#420,.T.);
#422=ADVANCED_FACE('',(#421),#405,.F.);
#423=CARTESIAN_POINT('',(15.,-0.1,15.));
#424=DIRECTION('',(0.,-1.,0.));
#425=DIRECTION('',(0.,0.,-1.));
#426=AXIS2_PLACEMENT_3D('',#423,#424,#425);
#427=CYLINDRICAL_SURFACE('',#426,7.5);
#428=ORIENTED_EDGE('',*,*,#344,.T.);
#429=ORIENTED_EDGE('',*,*,#283,.T.);
#430=ORIENTED_EDGE('',*,*,#351,.F.);
#431=ORIENTED_EDGE('',*,*,#141,.T.);
#432=EDGE_LOOP('',(#428,#429,#430,#431));
#433=FACE_BOUND('',#432,.T.);
#434=ADVANCED_FACE('',(#433),#427,.F.);
#435=CARTESIAN_POINT('',(-15.,-0.1,15.));
#436=DIRECTION('',(0.,-1.,0.));
#437=DIRECTION('',(0.,0.,-1.));
#438=AXIS2_PLACEMENT_3D('',#435,#436,#437);
#439=CYLINDRICAL_SURFACE('',#438,7.5);
#440=ORIENTED_EDGE('',*,*,#366,.T.);
#441=ORIENTED_EDGE('',*,*,#263,.T.);
#442=ORIENTED_EDGE('',*,*,#373,.F.);
#443=ORIENTED_EDGE('',*,*,#121,.T.);
#444=EDGE_LOOP('',(#440,#441,#442,#443));
#445=FACE_BOUND('',#444,.T.);
#446=ADVANCED_FACE('',(#445),#439,.F.);
#447=CARTESIAN_POINT('',(15.,-0.1,-15.));
#448=DIRECTION('',(0.,-1.,0.));
#449=DIRECTION('',(0.,0.,-1.));
#450=AXIS2_PLACEMENT_3D('',#447,#448,#449);
#451=CYLINDRICAL_SURFACE('',#450,7.5);
#452=ORIENTED_EDGE('',*,*,#388,.T.);
#453=ORIENTED_EDGE('',*,*,#243,.T.);
#454=ORIENTED_EDGE('',*,*,#395,.F.);
#455=ORIENTED_EDGE('',*,*,#101,.T.);
#456=EDGE_LOOP('',(#452,#453,#454,#455));
#457=FACE_BOUND('',#456,.T.);
#458=ADVANCED_FACE('',(#457),#451,.F.);
#459=CARTESIAN_POINT('',(-15.,-0.1,-15.));
#460=DIRECTION('',(0.,-1.,0.));
#461=DIRECTION('',(0.,0.,-1.));
#462=AXIS2_PLACEMENT_3D('',#459,#460,#461);
#463=CYLINDRICAL_SURFACE('',#462,7.5);
#464=ORIENTED_EDGE('',*,*,#410,.T.);
#465=ORIENTED_EDGE('',*,*,#223,.T.);
#466=ORIENTED_EDGE('',*,*,#417,.F.);
#467=ORIENTED_EDGE('',*,*,#81,.T.);
#468=EDGE_LOOP('',(#464,#465,#466,#467));
#469=FACE_BOUND('',#468,.T.);
#470=ADVANCED_FACE('',(#469),#463,.F.);
#471=CLOSED_SHELL('',(#66,#177,#208,#310,#322,#334,#356,#378,#400,#422,#434,#446,#458,#470));
#472=MANIFOLD_SOLID_BREP('PHK55-10',#471);
#473=COLOUR_RGB('',0.686274529,0.686274529,0.686274529);
#474=FILL_AREA_STYLE_COLOUR('',#473);
#475=FILL_AREA_STYLE('',(#474));
#476=SURFACE_STYLE_FILL_AREA(#475);
#477=SURFACE_SIDE_STYLE('',(#476));
#478=SURFACE_STYLE_USAGE(.BOTH.,#477);
#479=PRESENTATION_STYLE_ASSIGNMENT((#478));
#26=STYLED_ITEM('',(#479),#472);
#480=INTEGER_REPRESENTATION_ITEM('ATTRIB_BOUNDING_BOX_ALGORITHM',3);
#481=ID_ATTRIBUTE('SA #482',#482);
#482=SHAPE_ASPECT('properties','',#23,.F.);
#483=GEOMETRIC_ITEM_SPECIFIC_USAGE('','properties',#482,#17,#472);
#484=PROPERTY_DEFINITION('ATTRIB_BOUNDING_BOX_ALGORITHM','',#482);
#485=REPRESENTATION('',(#480),#10);
#486=PROPERTY_DEFINITION_REPRESENTATION(#484,#485);
#487=GENERAL_PROPERTY('','ATTRIB_BOUNDING_BOX_ALGORITHM','');
#488=GENERAL_PROPERTY_ASSOCIATION('','',#487,#484);
#16=SHAPE_REPRESENTATION('6215 PHK55-10 Adapterplate',(#15),#10);
#17=ADVANCED_BREP_SHAPE_REPRESENTATION('6215 PHK55-10 Adapterplate',(#472),#10);
#496=SHAPE_REPRESENTATION_RELATIONSHIP('','',#16,#17);
#497=CARTESIAN_POINT('',(0.,0.,0.));
#498=DIRECTION('',(0.,0.,1.));
#499=DIRECTION('',(1.,0.,0.));
#500=AXIS2_PLACEMENT_3D('',#497,#498,#499);
#502=MAPPED_ITEM('',#501,#500);
#501=REPRESENTATION_MAP(#500,#16);
#503=APPLICATION_CONTEXT('Managed model based 3d engineering');
#504=APPLICATION_PROTOCOL_DEFINITION('international standard','ap242_managed_model_based_3d_engineering',2013,#503);
#505=PRODUCT_CONTEXT('',#503,'mechanical');
#506=PRODUCT_DEFINITION_CONTEXT('part definition',#503,'design');
#24=PRODUCT('6215 PHK55-10 Adapterplate','6215 PHK55-10 Adapterplate','',(#505));
#507=PRODUCT_RELATED_PRODUCT_CATEGORY('part','',(#24));
#508=PRODUCT_DEFINITION_FORMATION_WITH_SPECIFIED_SOURCE('','',#24,.NOT_KNOWN.);
#25=PRODUCT_DEFINITION('design','',#508,#506);
#23=PRODUCT_DEFINITION_SHAPE('','',#25);
#509=SHAPE_DEFINITION_REPRESENTATION(#23,#16);
#11=DRAUGHTING_MODEL('',(#502),#10);
#1=MECHANICAL_DESIGN_GEOMETRIC_PRESENTATION_REPRESENTATION('',(#26),#10);
ENDSEC;
END-ISO-10303-21;
